  0
SECTION
  2
HEADER
  9
$ACADVER
  1
AC1015
  9
$ACADMAINTVER
 70
    20
  9
$DWGCODEPAGE
  3
ANSI_932
  9
$INSBASE
 10
0.0
 20
0.0
 30
0.0
  9
$EXTMIN
 10
-25.02465632188205
 20
-7.016905448419265
 30
-0.0015258207003583
  9
$EXTMAX
 10
783.0246600844256
 20
547.0169080281825
 30
0.0000000349246037
  9
$LIMMIN
 10
0.0
 20
0.0
  9
$LIMMAX
 10
12.0
 20
9.0
  9
$ORTHOMODE
 70
     1
  9
$REGENMODE
 70
     1
  9
$FILLMODE
 70
     1
  9
$QTEXTMODE
 70
     0
  9
$MIRRTEXT
 70
     1
  9
$LTSCALE
 40
1.0
  9
$ATTMODE
 70
     1
  9
$TEXTSIZE
 40
2.7
  9
$TRACEWID
 40
0.05
  9
$TEXTSTYLE
  7
STANDARD
  9
$CLAYER
  8
0
  9
$CELTYPE
  6
CONTINUOUS
  9
$CECOLOR
 62
     3
  9
$CELTSCALE
 40
1.0
  9
$DISPSILH
 70
     0
  9
$DIMSCALE
 40
2.0
  9
$DIMASZ
 40
3.0
  9
$DIMEXO
 40
3.0
  9
$DIMDLI
 40
7.0
  9
$DIMRND
 40
0.0
  9
$DIMDLE
 40
0.0
  9
$DIMEXE
 40
2.0
  9
$DIMTP
 40
0.2
  9
$DIMTM
 40
0.2
  9
$DIMTXT
 40
6.0
  9
$DIMCEN
 40
1.0
  9
$DIMTSZ
 40
0.0
  9
$DIMTOL
 70
     0
  9
$DIMLIM
 70
     0
  9
$DIMTIH
 70
     0
  9
$DIMTOH
 70
     0
  9
$DIMSE1
 70
     0
  9
$DIMSE2
 70
     0
  9
$DIMTAD
 70
     1
  9
$DIMZIN
 70
     8
  9
$DIMBLK
  1

  9
$DIMASO
 70
     1
  9
$DIMSHO
 70
     1
  9
$DIMPOST
  1

  9
$DIMAPOST
  1

  9
$DIMALT
 70
     0
  9
$DIMALTD
 70
     2
  9
$DIMALTF
 40
25.4
  9
$DIMLFAC
 40
1.0
  9
$DIMTOFL
 70
     1
  9
$DIMTVP
 40
0.0
  9
$DIMTIX
 70
     0
  9
$DIMSOXD
 70
     0
  9
$DIMSAH
 70
     1
  9
$DIMBLK1
  1
OPEN
  9
$DIMBLK2
  1
OPEN
  9
$DIMSTYLE
  2
STANDARD
  9
$DIMCLRD
 70
     4
  9
$DIMCLRE
 70
     4
  9
$DIMCLRT
 70
     3
  9
$DIMTFAC
 40
0.75
  9
$DIMGAP
 40
1.0
  9
$DIMJUST
 70
     0
  9
$DIMSD1
 70
     0
  9
$DIMSD2
 70
     0
  9
$DIMTOLJ
 70
     2
  9
$DIMTZIN
 70
     8
  9
$DIMALTZ
 70
     0
  9
$DIMALTTZ
 70
     0
  9
$DIMUPT
 70
     0
  9
$DIMDEC
 70
     4
  9
$DIMTDEC
 70
     4
  9
$DIMALTU
 70
     2
  9
$DIMALTTD
 70
     2
  9
$DIMTXSTY
  7
STANDARD
  9
$DIMAUNIT
 70
     0
  9
$DIMADEC
 70
     0
  9
$DIMALTRND
 40
0.0
  9
$DIMAZIN
 70
     0
  9
$DIMDSEP
 70
    46
  9
$DIMATFIT
 70
     3
  9
$DIMFRAC
 70
     0
  9
$DIMLDRBLK
  1
OPEN
  9
$DIMLUNIT
 70
     2
  9
$DIMLWD
 70
    -2
  9
$DIMLWE
 70
    -2
  9
$DIMTMOVE
 70
     0
  9
$LUNITS
 70
     2
  9
$LUPREC
 70
     4
  9
$SKETCHINC
 40
0.1
  9
$FILLETRAD
 40
8.0
  9
$AUNITS
 70
     0
  9
$AUPREC
 70
     0
  9
$MENU
  1
acad
  9
$ELEVATION
 40
0.0
  9
$PELEVATION
 40
0.0
  9
$THICKNESS
 40
0.0
  9
$LIMCHECK
 70
     0
  9
$CHAMFERA
 40
0.0
  9
$CHAMFERB
 40
0.0
  9
$CHAMFERC
 40
0.0
  9
$CHAMFERD
 40
0.0
  9
$SKPOLY
 70
     0
  9
$TDCREATE
 40
2450571.401945833
  9
$TDUCREATE
 40
2450571.026945834
  9
$TDUPDATE
 40
2458922.478915128
  9
$TDUUPDATE
 40
2458922.103915127
  9
$TDINDWG
 40
8.6240531713
  9
$TDUSRTIMER
 40
2457953.433394410
  9
$USRTIMER
 70
     1
  9
$ANGBASE
 50
0.0
  9
$ANGDIR
 70
     0
  9
$PDMODE
 70
     0
  9
$PDSIZE
 40
0.0
  9
$PLINEWID
 40
0.0
  9
$SPLFRAME
 70
     0
  9
$SPLINETYPE
 70
     6
  9
$SPLINESEGS
 70
     8
  9
$HANDSEED
  5
D5A5
  9
$SURFTAB1
 70
     6
  9
$SURFTAB2
 70
     6
  9
$SURFTYPE
 70
     6
  9
$SURFU
 70
     6
  9
$SURFV
 70
     6
  9
$UCSBASE
  2

  9
$UCSNAME
  2

  9
$UCSORG
 10
0.0
 20
0.0
 30
0.0
  9
$UCSXDIR
 10
1.0
 20
0.0
 30
0.0
  9
$UCSYDIR
 10
0.0
 20
1.0
 30
0.0
  9
$UCSORTHOREF
  2

  9
$UCSORTHOVIEW
 70
     0
  9
$UCSORGTOP
 10
0.0
 20
0.0
 30
0.0
  9
$UCSORGBOTTOM
 10
0.0
 20
0.0
 30
0.0
  9
$UCSORGLEFT
 10
0.0
 20
0.0
 30
0.0
  9
$UCSORGRIGHT
 10
0.0
 20
0.0
 30
0.0
  9
$UCSORGFRONT
 10
0.0
 20
0.0
 30
0.0
  9
$UCSORGBACK
 10
0.0
 20
0.0
 30
0.0
  9
$PUCSBASE
  2

  9
$PUCSNAME
  2

  9
$PUCSORG
 10
0.0
 20
0.0
 30
0.0
  9
$PUCSXDIR
 10
1.0
 20
0.0
 30
0.0
  9
$PUCSYDIR
 10
0.0
 20
1.0
 30
0.0
  9
$PUCSORTHOREF
  2

  9
$PUCSORTHOVIEW
 70
     0
  9
$PUCSORGTOP
 10
0.0
 20
0.0
 30
0.0
  9
$PUCSORGBOTTOM
 10
0.0
 20
0.0
 30
0.0
  9
$PUCSORGLEFT
 10
0.0
 20
0.0
 30
0.0
  9
$PUCSORGRIGHT
 10
0.0
 20
0.0
 30
0.0
  9
$PUCSORGFRONT
 10
0.0
 20
0.0
 30
0.0
  9
$PUCSORGBACK
 10
0.0
 20
0.0
 30
0.0
  9
$USERI1
 70
     0
  9
$USERI2
 70
     0
  9
$USERI3
 70
     0
  9
$USERI4
 70
     0
  9
$USERI5
 70
     0
  9
$USERR1
 40
0.0
  9
$USERR2
 40
0.0
  9
$USERR3
 40
0.0
  9
$USERR4
 40
0.0
  9
$USERR5
 40
0.0
  9
$WORLDVIEW
 70
     1
  9
$SHADEDGE
 70
     3
  9
$SHADEDIF
 70
    70
  9
$TILEMODE
 70
     1
  9
$MAXACTVP
 70
    16
  9
$PINSBASE
 10
0.0
 20
0.0
 30
0.0
  9
$PLIMCHECK
 70
     0
  9
$PEXTMIN
 10
4.08199158668517
 20
2.851784963607789
 30
0.0
  9
$PEXTMAX
 10
36.73792428016663
 20
25.66606467247009
 30
0.0
  9
$PLIMMIN
 10
-0.5873748779296875
 20
-0.5873749732971192
  9
$PLIMMAX
 10
41.41152343749999
 20
29.10945730209351
  9
$UNITMODE
 70
     0
  9
$VISRETAIN
 70
     0
  9
$PLINEGEN
 70
     0
  9
$PSLTSCALE
 70
     1
  9
$TREEDEPTH
 70
  3020
  9
$CMLSTYLE
  2
STANDARD
  9
$CMLJUST
 70
     0
  9
$CMLSCALE
 40
1.0
  9
$PROXYGRAPHICS
 70
     1
  9
$MEASUREMENT
 70
     1
  9
$CELWEIGHT
370
    -1
  9
$ENDCAPS
280
     0
  9
$JOINSTYLE
280
     0
  9
$LWDISPLAY
290
     0
  9
$INSUNITS
 70
     0
  9
$HYPERLINKBASE
  1

  9
$STYLESHEET
  1
ACLT.CTB
  9
$XEDIT
290
     1
  9
$CEPSNTYPE
380
     0
  9
$PSTYLEMODE
290
     1
  9
$FINGERPRINTGUID
  2
{80420BC8-F140-11D4-861C-005004B71BA0}
  9
$VERSIONGUID
  2
{CF65BC45-F811-4026-92B4-906792F10340}
  9
$EXTNAMES
290
     1
  9
$PSVPSCALE
 40
0.0
  9
$OLESTARTUP
290
     0
  0
ENDSEC
  0
SECTION
  2
CLASSES
  0
CLASS
  1
ACDBDICTIONARYWDFLT
  2
AcDbDictionaryWithDefault
  3
ObjectDBX Classes
 90
        0
280
     0
281
     0
  0
CLASS
  1
ACDBPLACEHOLDER
  2
AcDbPlaceHolder
  3
ObjectDBX Classes
 90
        0
280
     0
281
     0
  0
CLASS
  1
LAYOUT
  2
AcDbLayout
  3
ObjectDBX Classes
 90
        0
280
     0
281
     0
  0
CLASS
  1
DICTIONARYVAR
  2
AcDbDictionaryVar
  3
ObjectDBX Classes
 90
        0
280
     0
281
     0
  0
CLASS
  1
SCALE
  2
AcDbScale
  3
ObjectDBX Classes
 90
     1153
280
     0
281
     0
  0
CLASS
  1
MATERIAL
  2
AcDbMaterial
  3
ObjectDBX Classes
 90
    32768
280
     0
281
     0
  0
CLASS
  1
VISUALSTYLE
  2
AcDbVisualStyle
  3
ObjectDBX Classes
 90
    36863
280
     0
281
     0
  0
CLASS
  1
TABLESTYLE
  2
AcDbTableStyle
  3
ObjectDBX Classes
 90
    36863
280
     0
281
     0
  0
CLASS
  1
RASTERVARIABLES
  2
AcDbRasterVariables
  3
ISM
 90
        0
280
     0
281
     0
  0
CLASS
  1
SUN
  2
AcDbSun
  3
SCENEOE
 90
    33921
280
     0
281
     0
  0
ENDSEC
  0
SECTION
  2
TABLES
  0
TABLE
  2
VPORT
  5
8
330
0
100
AcDbSymbolTable
 70
     3
  0
VPORT
  5
D598
330
8
100
AcDbSymbolTableRecord
100
AcDbViewportTableRecord
  2
*Active
 70
     0
 10
0.0
 20
0.0
 11
1.0
 21
1.0
 12
379.0000018812718
 22
270.0000012898816
 13
0.0
 23
0.0
 14
1.0
 24
1.0
 15
0.0
 25
0.0
 16
0.0
 26
0.0
 36
1.0
 17
0.0
 27
0.0
 37
0.0
 40
557.9172280570453
 41
2.15906432748538
 42
50.0
 43
0.0
 44
0.0
 50
0.0
 51
0.0
 71
    16
 72
   100
 73
     1
 74
     1
 75
     0
 76
     0
 77
     0
 78
     0
281
     0
 65
     1
110
0.0
120
0.0
130
0.0
111
1.0
121
0.0
131
0.0
112
0.0
122
1.0
132
0.0
 79
     0
146
0.0
  0
ENDTAB
  0
TABLE
  2
LTYPE
  5
5
330
0
100
AcDbSymbolTable
 70
     2
  0
LTYPE
  5
13
330
5
100
AcDbSymbolTableRecord
100
AcDbLinetypeTableRecord
  2
BYBLOCK
 70
     0
  3

 72
    65
 73
     0
 40
0.0
  0
LTYPE
  5
14
330
5
100
AcDbSymbolTableRecord
100
AcDbLinetypeTableRecord
  2
BYLAYER
 70
     0
  3

 72
    65
 73
     0
 40
0.0
  0
LTYPE
  5
15
330
5
100
AcDbSymbolTableRecord
100
AcDbLinetypeTableRecord
  2
CONTINUOUS
 70
     0
  3
実線
 72
    65
 73
     0
 40
0.0
  0
LTYPE
  5
21
330
5
100
AcDbSymbolTableRecord
100
AcDbLinetypeTableRecord
  2
CENTER1
 70
     0
  3
----- - ----- - ----- - ----- - 
 72
    65
 73
     4
 40
10.0
 49
6.25
 74
     0
 49
-1.25
 74
     0
 49
1.25
 74
     0
 49
-1.25
 74
     0
  0
ENDTAB
  0
TABLE
  2
LAYER
  5
2
330
0
100
AcDbSymbolTable
 70
     2
  0
LAYER
  5
F
330
2
100
AcDbSymbolTableRecord
100
AcDbLayerTableRecord
  2
0
 70
     0
 62
     7
  6
CONTINUOUS
370
    -3
390
630E
  0
LAYER
  5
25F
330
2
100
AcDbSymbolTableRecord
100
AcDbLayerTableRecord
  2
DEFPOINTS
 70
     0
 62
     7
  6
CONTINUOUS
290
     0
370
    -3
390
630E
  0
ENDTAB
  0
TABLE
  2
STYLE
  5
3
330
0
100
AcDbSymbolTable
 70
     1
  0
STYLE
  5
10
330
3
100
AcDbSymbolTableRecord
100
AcDbTextStyleTableRecord
  2
STANDARD
 70
     0
 40
5.4
 41
0.8
 50
0.0
 71
     0
 42
2.7
  3
TXT.shx
  4
BIGFONT.shx
  0
ENDTAB
  0
TABLE
  2
VIEW
  5
6
330
0
100
AcDbSymbolTable
 70
     1
  0
VIEW
  5
D90
330
6
100
AcDbSymbolTableRecord
100
AcDbViewTableRecord
  2
OLE1
 70
     0
 40
1116.00004
 10
1068.487167009901
 20
558.00002
 41
2136.974334019802
 11
0.0
 21
0.0
 31
1.0
 12
0.0
 22
0.0
 32
0.0
 42
50.0
 43
0.0
 44
0.0
 50
0.0
 71
     0
281
     0
 72
     0
  0
ENDTAB
  0
TABLE
  2
UCS
  5
7
330
0
100
AcDbSymbolTable
 70
     0
  0
ENDTAB
  0
TABLE
  2
APPID
  5
9
330
0
100
AcDbSymbolTable
 70
     2
  0
APPID
  5
11
330
9
100
AcDbSymbolTableRecord
100
AcDbRegAppTableRecord
  2
ACAD
 70
     0
  0
APPID
  5
9607
330
9
100
AcDbSymbolTableRecord
100
AcDbRegAppTableRecord
  2
ACAD_DSTYLE_DIMRADIAL_EXTENSION
 70
     0
  0
ENDTAB
  0
TABLE
  2
DIMSTYLE
  5
A
330
0
100
AcDbSymbolTable
 70
     1
100
AcDbDimStyleTable
 71
     0
  0
DIMSTYLE
105
220
330
A
100
AcDbSymbolTableRecord
100
AcDbDimStyleTableRecord
  2
STANDARD
 70
     0
340
10
  0
ENDTAB
  0
TABLE
  2
BLOCK_RECORD
  5
1
330
0
100
AcDbSymbolTable
 70
     1
  0
BLOCK_RECORD
  5
19
330
1
100
AcDbSymbolTableRecord
100
AcDbBlockTableRecord
  2
*MODEL_SPACE
340
6311
  0
BLOCK_RECORD
  5
16
330
1
100
AcDbSymbolTableRecord
100
AcDbBlockTableRecord
  2
*PAPER_SPACE
340
6312
  0
BLOCK_RECORD
  5
24C
330
1
100
AcDbSymbolTableRecord
100
AcDbBlockTableRecord
  2
_OPEN
340
0
  0
ENDTAB
  0
ENDSEC
  0
SECTION
  2
BLOCKS
  0
BLOCK
  5
1A
330
19
100
AcDbEntity
  8
0
100
AcDbBlockBegin
  2
*MODEL_SPACE
 70
     0
 10
0.0
 20
0.0
 30
0.0
  3
*MODEL_SPACE
  1

  0
ENDBLK
  5
1B
330
19
100
AcDbEntity
  8
0
100
AcDbBlockEnd
  0
BLOCK
  5
17
330
16
100
AcDbEntity
 67
     1
  8
0
100
AcDbBlockBegin
  2
*PAPER_SPACE
 70
     0
 10
0.0
 20
0.0
 30
0.0
  3
*PAPER_SPACE
  1

  0
ENDBLK
  5
18
330
16
100
AcDbEntity
 67
     1
  8
0
100
AcDbBlockEnd
  0
BLOCK
  5
24D
330
24C
100
AcDbEntity
  8
0
100
AcDbBlockBegin
  2
_OPEN
 70
     0
 10
0.0
 20
0.0
 30
0.0
  3
_OPEN
  1

  0
LINE
  5
24E
330
24C
100
AcDbEntity
  8
0
  6
ByBlock
 62
     0
100
AcDbLine
 10
-1.0
 20
0.1666666666666666
 30
0.0
 11
0.0
 21
0.0
 31
0.0
  0
LINE
  5
24F
330
24C
100
AcDbEntity
  8
0
  6
ByBlock
 62
     0
100
AcDbLine
 10
0.0
 20
0.0
 30
0.0
 11
-1.0
 21
-0.1666666666666666
 31
0.0
  0
LINE
  5
250
330
24C
100
AcDbEntity
  8
0
  6
ByBlock
 62
     0
100
AcDbLine
 10
0.0
 20
0.0
 30
0.0
 11
-1.0
 21
0.0
 31
0.0
  0
ENDBLK
  5
251
330
24C
100
AcDbEntity
  8
0
100
AcDbBlockEnd
  0
ENDSEC
  0
SECTION
  2
ENTITIES
  0
LINE
  5
2A
330
19
100
AcDbEntity
  8
0
  6
Continuous
 62
     7
100
AcDbLine
 10
25.0
 20
547.0000000000001
 30
0.0
 11
25.0
 21
7.0
 31
0.0
  0
LINE
  5
2C
330
19
100
AcDbEntity
  8
0
  6
Continuous
 62
     7
100
AcDbLine
 10
783.0
 20
7.0
 30
0.0
 11
783.0
 21
547.0
 31
0.0
  0
LINE
  5
2D
330
19
100
AcDbEntity
  8
0
  6
Continuous
 62
     7
100
AcDbLine
 10
603.0000000000002
 20
47.00000399999999
 30
0.0
 11
783.0
 21
47.00000399999999
 31
0.0
  0
LINE
  5
2E
330
19
100
AcDbEntity
  8
0
  6
Continuous
 62
     7
100
AcDbLine
 10
603.0000000000002
 20
47.00000399999999
 30
0.0
 11
603.0000000000002
 21
7.000005999999983
 31
0.0
  0
LINE
  5
4C
330
19
100
AcDbEntity
  8
0
  6
Continuous
 62
     7
100
AcDbLine
 10
609.635415118793
 20
33.00000399999999
 30
0.0
 11
776.419285672565
 21
33.00000399999999
 31
0.0
  0
LINE
  5
236
330
19
100
AcDbEntity
  8
0
  6
Continuous
 62
     7
100
AcDbLine
 10
25.0
 20
547.0
 30
0.0
 11
783.0
 21
547.0
 31
0.0
  0
LINE
  5
238
330
19
100
AcDbEntity
  8
0
  6
Continuous
 62
     7
100
AcDbLine
 10
25.0
 20
7.0
 30
0.0
 11
783.0
 21
7.0
 31
0.0
  0
MTEXT
  5
323
330
19
100
AcDbEntity
  8
0
  6
Continuous
100
AcDbMText
 10
144.2478588099633
 20
166.822615518982
 30
0.0
 40
4.0
 41
44.65581175458782
 71
     1
 72
     5
  1

 73
     1
 44
1.0
1001
ACAD
1000
MTEXTBEGIN
1070
    73
1070
     1
1070
    44
1040
1.0
1070
    74
1070
     0
1000
MTEXTEND
  0
POINT
  5
85BA
330
19
100
AcDbEntity
  8
0
  6
Continuous
 62
     7
100
AcDbPoint
 10
-25.0
 20
-7.0
 30
0.0
  0
LINE
  5
CC6D
330
19
100
AcDbEntity
  8
0
  6
Continuous
 62
     7
370
    15
100
AcDbLine
 10
162.9343051245739
 20
257.9946075547328
 30
0.0
 11
162.9343051245739
 21
199.4645968060781
 31
0.0
  0
LINE
  5
CC6E
330
19
100
AcDbEntity
  8
0
  6
Continuous
 62
     7
370
    15
100
AcDbLine
 10
256.9343019059231
 20
199.4645968060781
 30
0.0
 11
256.9343019059231
 21
257.9946075547328
 31
0.0
  0
LINE
  5
CC70
330
19
100
AcDbEntity
  8
0
  6
CENTER1
 62
     7
100
AcDbLine
 10
239.9343042901089
 20
191.2296014707376
 30
0.0
 11
254.9343042901089
 21
191.2296014707376
 31
0.0
  0
LINE
  5
CC71
330
19
100
AcDbEntity
  8
0
  6
CENTER1
 62
     7
100
AcDbLine
 10
252.4343042901089
 20
178.7296014707376
 30
0.0
 11
267.4343042901089
 21
178.7296014707376
 31
0.0
  0
ARC
  5
CC72
330
19
100
AcDbEntity
  8
0
  6
Continuous
 62
     7
370
    15
100
AcDbCircle
 10
259.9343042901089
 20
178.7296014707376
 30
0.0
 40
10.00000000000001
100
AcDbArc
 50
200.487315114726
 51
69.51268488527553
  0
LINE
  5
CC73
330
19
100
AcDbEntity
  8
0
  6
Continuous
 62
     7
370
    15
100
AcDbLine
 10
180.6692983737518
 20
181.7296035569001
 30
0.0
 11
239.1993086567452
 21
181.7296035569001
 31
0.0
  0
LINE
  5
CC74
330
19
100
AcDbEntity
  8
0
  6
CENTER1
 62
     7
100
AcDbLine
 10
152.434304290109
 20
178.7296014707376
 30
0.0
 11
167.434304290109
 21
178.7296014707376
 31
0.0
  0
CIRCLE
  5
CC75
330
19
100
AcDbEntity
  8
0
  6
Continuous
 62
     7
370
    15
100
AcDbCircle
 10
159.9343042901089
 20
178.7296014707376
 30
0.0
 40
2.5
  0
ARC
  5
CC76
330
19
100
AcDbEntity
  8
0
  6
Continuous
 62
     7
370
    15
100
AcDbCircle
 10
152.9343042901098
 20
197.4645954659329
 30
0.0
 40
9.999999999999973
100
AcDbArc
 50
290.4873151147239
 51
354.7840914295457
  0
ARC
  5
CC77
330
19
100
AcDbEntity
  8
0
  6
Continuous
 62
     7
370
    15
100
AcDbCircle
 10
159.9343042901089
 20
178.7296014707376
 30
0.0
 40
10.00000000000001
100
AcDbArc
 50
110.4873151147239
 51
339.5126848852787
  0
LINE
  5
CC78
330
19
100
AcDbEntity
  8
0
  6
CENTER1
 62
     7
100
AcDbLine
 10
159.934304290109
 20
186.2296014707376
 30
0.0
 11
159.934304290109
 21
171.2296014707376
 31
0.0
  0
LINE
  5
CC79
330
19
100
AcDbEntity
  8
0
  6
CENTER1
 62
     7
100
AcDbLine
 10
172.434304290109
 20
198.7296014707376
 30
0.0
 11
172.434304290109
 21
183.7296014707376
 31
0.0
  0
ARC
  5
CC7A
330
19
100
AcDbEntity
  8
0
  6
Continuous
 62
     7
370
    15
100
AcDbCircle
 10
178.6692982853044
 20
171.7296014707376
 30
0.0
 40
10.00000000000005
100
AcDbArc
 50
95.21590857045588
 51
159.5126848852755
  0
LINE
  5
CC7B
330
19
100
AcDbEntity
  8
0
  6
Continuous
 62
     7
370
    15
100
AcDbLine
 10
178.6692980459263
 20
182.7295981328775
 30
0.0
 11
178.6692980459263
 21
182.6840527336885
 31
0.0
  0
LINE
  5
CC7C
330
19
100
AcDbEntity
  8
0
  6
Continuous
 62
     7
370
    15
100
AcDbLine
 10
180.6692983737518
 20
183.7296001594355
 30
0.0
 11
180.6692983737518
 21
181.7296035569001
 31
0.0
  0
LINE
  5
CC7D
330
19
100
AcDbEntity
  8
0
  6
Continuous
 62
     7
370
    15
100
AcDbLine
 10
179.6692982098391
 20
183.7296001594355
 30
0.0
 11
180.6692983737518
 21
183.7296001594355
 31
0.0
  0
ARC
  5
CC7E
330
19
100
AcDbEntity
  8
0
  6
Continuous
 62
     7
370
    15
100
AcDbCircle
 10
177.6692982853044
 20
182.6840526208409
 30
0.0
 40
1.000000000000013
100
AcDbArc
 50
275.2159085704493
 51
0.0
  0
ARC
  5
CC7F
330
19
100
AcDbEntity
  8
0
  6
Continuous
 62
     7
370
    15
100
AcDbCircle
 10
179.6692982853044
 20
182.7296014707376
 30
0.0
 40
1.000000000000085
100
AcDbArc
 50
90.0
 51
180.0
  0
LINE
  5
CC80
330
19
100
AcDbEntity
  8
0
  6
CENTER1
 62
     7
100
AcDbLine
 10
164.934304290109
 20
191.2296014707376
 30
0.0
 11
179.934304290109
 21
191.2296014707376
 31
0.0
  0
CIRCLE
  5
CC81
330
19
100
AcDbEntity
  8
0
  6
Continuous
 62
     7
370
    15
100
AcDbCircle
 10
172.4343042901089
 20
191.2296014707376
 30
0.0
 40
2.5
  0
ARC
  5
CC82
330
19
100
AcDbEntity
  8
0
  6
Continuous
 62
     7
370
    15
100
AcDbCircle
 10
163.8887554402124
 20
196.4645954659329
 30
0.0
 40
1.000000000000053
100
AcDbArc
 50
90.0
 51
174.7840914295538
  0
ARC
  5
CC83
330
19
100
AcDbEntity
  8
0
  6
Continuous
 62
     7
370
    15
100
AcDbCircle
 10
169.9343042901089
 20
189.2296014707376
 30
0.0
 40
1.000000000000013
100
AcDbArc
 50
0.0
 51
77.31961650765784
  0
LINE
  5
CC84
330
19
100
AcDbEntity
  8
0
  6
Continuous
 62
     7
370
    15
100
AcDbLine
 10
164.9343035897543
 20
199.4645968060781
 30
0.0
 11
162.9343051245739
 21
199.4645968060781
 31
0.0
  0
LINE
  5
CC85
330
19
100
AcDbEntity
  8
0
  6
Continuous
 62
     7
370
    15
100
AcDbLine
 10
164.9343035897543
 20
199.4645968060781
 30
0.0
 11
164.9343035897543
 21
198.4645947795202
 31
0.0
  0
ARC
  5
CC86
330
19
100
AcDbEntity
  8
0
  6
Continuous
 62
     7
370
    15
100
AcDbCircle
 10
163.9343042901089
 20
198.4645954659329
 30
0.0
 40
1.000000000000085
100
AcDbArc
 50
270.0
 51
0.0
  0
LINE
  5
CC87
330
19
100
AcDbEntity
  8
0
  6
Continuous
 62
     7
370
    15
100
AcDbLine
 10
163.9343034258415
 20
197.4645964782526
 30
0.0
 11
163.8887561640074
 21
197.4645964782526
 31
0.0
  0
CIRCLE
  5
CC88
330
19
100
AcDbEntity
  8
0
  6
Continuous
 62
     7
370
    15
100
AcDbCircle
 10
220.9343042901098
 20
203.2296014707377
 30
0.0
 40
2.100000000000008
  0
CIRCLE
  5
CC89
330
19
100
AcDbEntity
  8
0
  6
Continuous
 62
     7
370
    15
100
AcDbCircle
 10
220.9343042901098
 20
203.2296014707377
 30
0.0
 40
2.999999999999984
  0
CIRCLE
  5
CC8A
330
19
100
AcDbEntity
  8
0
  6
Continuous
 62
     7
370
    15
100
AcDbCircle
 10
198.9343042901089
 20
203.2296014707377
 30
0.0
 40
2.099999999999937
  0
CIRCLE
  5
CC8B
330
19
100
AcDbEntity
  8
0
  6
Continuous
 62
     7
370
    15
100
AcDbCircle
 10
198.9343042901089
 20
203.2296014707377
 30
0.0
 40
2.999999999999971
  0
LINE
  5
CC8C
330
19
100
AcDbEntity
  8
0
  6
CENTER1
 62
     7
100
AcDbLine
 10
247.4343042901089
 20
198.7296014707376
 30
0.0
 11
247.4343042901089
 21
183.7296014707376
 31
0.0
  0
ARC
  5
CC8D
330
19
100
AcDbEntity
  8
0
  6
Continuous
 62
     7
370
    15
100
AcDbCircle
 10
241.1993102949143
 20
171.7296014707376
 30
0.0
 40
10.00000000000004
100
AcDbArc
 50
20.48731511472143
 51
84.78409142955067
  0
LINE
  5
CC8E
330
19
100
AcDbEntity
  8
0
  6
Continuous
 62
     7
370
    15
100
AcDbLine
 10
239.1993086567452
 20
183.7296001594355
 30
0.0
 11
239.1993086567452
 21
181.7296035569001
 31
0.0
  0
LINE
  5
CC8F
330
19
100
AcDbEntity
  8
0
  6
Continuous
 62
     7
370
    15
100
AcDbLine
 10
241.1993089845708
 20
182.7295981328775
 30
0.0
 11
241.1993089845708
 21
182.6840527336885
 31
0.0
  0
LINE
  5
CC90
330
19
100
AcDbEntity
  8
0
  6
Continuous
 62
     7
370
    15
100
AcDbLine
 10
239.1993086567452
 20
183.7296001594355
 30
0.0
 11
240.1993106833031
 21
183.7296001594355
 31
0.0
  0
ARC
  5
CC91
330
19
100
AcDbEntity
  8
0
  6
Continuous
 62
     7
370
    15
100
AcDbCircle
 10
240.1993102949143
 20
182.7296014707376
 30
0.0
 40
1.000000000000085
100
AcDbArc
 50
0.0
 51
90.0
  0
ARC
  5
CC92
330
19
100
AcDbEntity
  8
0
  6
Continuous
 62
     7
370
    15
100
AcDbCircle
 10
242.1993102949143
 20
182.6840526208409
 30
0.0
 40
0.9999999999999824
100
AcDbArc
 50
180.0
 51
264.7840914294984
  0
CIRCLE
  5
CC93
330
19
100
AcDbEntity
  8
0
  6
Continuous
 62
     7
370
    15
100
AcDbCircle
 10
247.4343042901089
 20
191.2296014707376
 30
0.0
 40
2.5
  0
ARC
  5
CC94
330
19
100
AcDbEntity
  8
0
  6
Continuous
 62
     7
370
    15
100
AcDbCircle
 10
249.9343042901089
 20
189.2296014707376
 30
0.0
 40
1.000000000000085
100
AcDbArc
 50
102.6803834896181
 51
180.0
  0
LINE
  5
CC95
330
19
100
AcDbEntity
  8
0
  6
CENTER1
 62
     7
100
AcDbLine
 10
259.9343042901089
 20
186.2296014707376
 30
0.0
 11
259.9343042901089
 21
171.2296014707376
 31
0.0
  0
CIRCLE
  5
CC96
330
19
100
AcDbEntity
  8
0
  6
Continuous
 62
     7
370
    15
100
AcDbCircle
 10
259.9343042901089
 20
178.7296014707376
 30
0.0
 40
2.5
  0
ARC
  5
CC97
330
19
100
AcDbEntity
  8
0
  6
Continuous
 62
     7
370
    15
100
AcDbCircle
 10
255.9798531400063
 20
196.4645954659329
 30
0.0
 40
1.000000000000053
100
AcDbArc
 50
5.215908570451039
 51
90.0
  0
ARC
  5
CC98
330
19
100
AcDbEntity
  8
0
  6
Continuous
 62
     7
370
    15
100
AcDbCircle
 10
266.9343042901089
 20
197.4645954659329
 30
0.0
 40
9.999999999999973
100
AcDbArc
 50
185.2159085704542
 51
249.5126848852828
  0
LINE
  5
CC99
330
19
100
AcDbEntity
  8
0
  6
Continuous
 62
     7
370
    15
100
AcDbLine
 10
255.9343073299458
 20
197.4645964782526
 30
0.0
 11
255.9798527291348
 21
197.4645964782526
 31
0.0
  0
LINE
  5
CC9A
330
19
100
AcDbEntity
  8
0
  6
Continuous
 62
     7
370
    15
100
AcDbLine
 10
254.9343053033879
 20
199.4645968060781
 30
0.0
 11
254.9343053033879
 21
198.4645947795202
 31
0.0
  0
ARC
  5
CC9B
330
19
100
AcDbEntity
  8
0
  6
Continuous
 62
     7
370
    15
100
AcDbCircle
 10
255.9343042901098
 20
198.4645954659329
 30
0.0
 40
1.000000000000085
100
AcDbArc
 50
180.0
 51
270.0
  0
LINE
  5
CC9C
330
19
100
AcDbEntity
  8
0
  6
Continuous
 62
     7
370
    15
100
AcDbLine
 10
254.9343053033879
 20
199.4645968060781
 30
0.0
 11
256.9343019059231
 21
199.4645968060781
 31
0.0
  0
LINE
  5
CC9F
330
19
100
AcDbEntity
  8
0
  6
CENTER1
 62
     7
100
AcDbLine
 10
239.9343042901089
 20
266.2296014707376
 30
0.0
 11
254.9343042901089
 21
266.2296014707376
 31
0.0
  0
LINE
  5
CCA0
330
19
100
AcDbEntity
  8
0
  6
CENTER1
 62
     7
100
AcDbLine
 10
252.4343042901089
 20
278.7296014707376
 30
0.0
 11
267.4343042901089
 21
278.7296014707376
 31
0.0
  0
ARC
  5
CCA1
330
19
100
AcDbEntity
  8
0
  6
Continuous
 62
     7
370
    15
100
AcDbCircle
 10
259.9343042901089
 20
278.7296014707376
 30
0.0
 40
9.999999999999991
100
AcDbArc
 50
290.4873151147306
 51
159.512684885277
  0
LINE
  5
CCA3
330
19
100
AcDbEntity
  8
0
  6
Continuous
 62
     7
370
    15
100
AcDbLine
 10
188.9343042640319
 20
275.7296022008945
 30
0.0
 11
189.934304195114
 21
275.7296022008945
 31
0.0
  0
LINE
  5
CCA4
330
19
100
AcDbEntity
  8
0
  6
Continuous
 62
     7
370
    15
100
AcDbLine
 10
188.9343042640319
 20
273.729601873069
 30
0.0
 11
205.9343047222426
 21
273.729601873069
 31
0.0
  0
ARC
  5
CCA5
330
19
100
AcDbEntity
  8
0
  6
Continuous
 62
     7
370
    15
100
AcDbCircle
 10
192.9343042901098
 20
277.2296014707376
 30
0.0
 40
3.000000000000113
100
AcDbArc
 50
90.0
 51
180.0
  0
LINE
  5
CCA6
330
19
100
AcDbEntity
  8
0
  6
CENTER1
 62
     7
100
AcDbLine
 10
152.434304290109
 20
278.7296014707376
 30
0.0
 11
167.434304290109
 21
278.7296014707376
 31
0.0
  0
CIRCLE
  5
CCA7
330
19
100
AcDbEntity
  8
0
  6
Continuous
 62
     7
370
    15
100
AcDbCircle
 10
159.9343042901089
 20
278.7296014707376
 30
0.0
 40
2.5
  0
ARC
  5
CCA8
330
19
100
AcDbEntity
  8
0
  6
Continuous
 62
     7
370
    15
100
AcDbCircle
 10
152.9343042901098
 20
259.9946074755424
 30
0.0
 40
9.999999999999991
100
AcDbArc
 50
5.215908570454283
 51
69.51268488528278
  0
ARC
  5
CCA9
330
19
100
AcDbEntity
  8
0
  6
Continuous
 62
     7
370
    15
100
AcDbCircle
 10
159.9343042901089
 20
278.7296014707376
 30
0.0
 40
9.999999999999991
100
AcDbArc
 50
20.48731511472143
 51
249.5126848852828
  0
LINE
  5
CCAA
330
19
100
AcDbEntity
  8
0
  6
CENTER1
 62
     7
100
AcDbLine
 10
172.434304290109
 20
273.7296014707376
 30
0.0
 11
172.434304290109
 21
258.7296014707376
 31
0.0
  0
LINE
  5
CCAB
330
19
100
AcDbEntity
  8
0
  6
CENTER1
 62
     7
100
AcDbLine
 10
159.934304290109
 20
286.2296014707376
 30
0.0
 11
159.934304290109
 21
271.2296014707376
 31
0.0
  0
LINE
  5
CCAC
330
19
100
AcDbEntity
  8
0
  6
CENTER1
 62
     7
100
AcDbLine
 10
164.934304290109
 20
266.2296014707376
 30
0.0
 11
179.934304290109
 21
266.2296014707376
 31
0.0
  0
CIRCLE
  5
CCAD
330
19
100
AcDbEntity
  8
0
  6
Continuous
 62
     7
370
    15
100
AcDbCircle
 10
172.4343042901089
 20
266.2296014707376
 30
0.0
 40
2.5
  0
LINE
  5
CCAE
330
19
100
AcDbEntity
  8
0
  6
Continuous
 62
     7
370
    15
100
AcDbLine
 10
163.9343034258415
 20
259.994607416897
 30
0.0
 11
163.8887561640074
 21
259.994607416897
 31
0.0
  0
LINE
  5
CCAF
330
19
100
AcDbEntity
  8
0
  6
Continuous
 62
     7
370
    15
100
AcDbLine
 10
164.9343035897543
 20
257.9946075547328
 30
0.0
 11
162.9343051245739
 21
257.9946075547328
 31
0.0
  0
ARC
  5
CCB0
330
19
100
AcDbEntity
  8
0
  6
Continuous
 62
     7
370
    15
100
AcDbCircle
 10
163.8887554402124
 20
260.9946074755423
 30
0.0
 40
1.000000000000045
100
AcDbArc
 50
185.2159085704494
 51
270.0
  0
ARC
  5
CCB1
330
19
100
AcDbEntity
  8
0
  6
Continuous
 62
     7
370
    15
100
AcDbCircle
 10
163.9343042901089
 20
258.9946074755426
 30
0.0
 40
1.000000000000013
100
AcDbArc
 50
0.0
 51
90.0
  0
LINE
  5
CCB2
330
19
100
AcDbEntity
  8
0
  6
Continuous
 62
     7
370
    15
100
AcDbLine
 10
164.9343035897543
 20
258.9946072529842
 30
0.0
 11
164.9343035897543
 21
257.9946075547328
 31
0.0
  0
ARC
  5
CCB3
330
19
100
AcDbEntity
  8
0
  6
Continuous
 62
     7
370
    15
100
AcDbCircle
 10
178.6692982853044
 20
285.7296014707376
 30
0.0
 40
10.00000000000001
100
AcDbArc
 50
200.487315114726
 51
264.7840914295441
  0
LINE
  5
CCB4
330
19
100
AcDbEntity
  8
0
  6
Continuous
 62
     7
370
    15
100
AcDbLine
 10
188.9343042640319
 20
275.7296022008945
 30
0.0
 11
180.6692983737518
 21
275.7296022008945
 31
0.0
  0
LINE
  5
CCB5
330
19
100
AcDbEntity
  8
0
  6
Continuous
 62
     7
370
    15
100
AcDbLine
 10
179.6692982098391
 20
273.729601873069
 30
0.0
 11
180.6692983737518
 21
273.729601873069
 31
0.0
  0
LINE
  5
CCB6
330
19
100
AcDbEntity
  8
0
  6
Continuous
 62
     7
370
    15
100
AcDbLine
 10
180.6692983737518
 20
273.729601873069
 30
0.0
 11
180.6692983737518
 21
275.7296022008945
 31
0.0
  0
ARC
  5
CCB7
330
19
100
AcDbEntity
  8
0
  6
Continuous
 62
     7
370
    15
100
AcDbCircle
 10
179.6692982853044
 20
274.7296014707377
 30
0.0
 40
1.000000000000013
100
AcDbArc
 50
180.0
 51
270.0
  0
LINE
  5
CCB8
330
19
100
AcDbEntity
  8
0
  6
Continuous
 62
     7
370
    15
100
AcDbLine
 10
178.6692980459263
 20
274.7296020369818
 30
0.0
 11
178.6692980459263
 21
274.7751511614611
 31
0.0
  0
ARC
  5
CCB9
330
19
100
AcDbEntity
  8
0
  6
Continuous
 62
     7
370
    15
100
AcDbCircle
 10
177.6692982853044
 20
274.7751503206343
 30
0.0
 40
1.000000000000053
100
AcDbArc
 50
0.0
 51
84.78409142955067
  0
LINE
  5
CCBA
330
19
100
AcDbEntity
  8
0
  6
Continuous
 62
     7
370
    15
100
AcDbLine
 10
188.9343042640319
 20
275.7296022008945
 30
0.0
 11
188.9343042640319
 21
273.729601873069
 31
0.0
  0
LINE
  5
CCBB
330
19
100
AcDbEntity
  8
0
  6
Continuous
 62
     7
370
    15
100
AcDbLine
 10
213.9343041708996
 20
273.729601873069
 30
0.0
 11
230.9343050947716
 21
273.729601873069
 31
0.0
  0
LINE
  5
CCBC
330
19
100
AcDbEntity
  8
0
  6
Continuous
 62
     7
370
    15
100
AcDbLine
 10
226.9343044391205
 20
280.2296020071795
 30
0.0
 11
217.9343048265507
 21
280.2296020071795
 31
0.0
  0
LINE
  5
CCBD
330
19
100
AcDbEntity
  8
0
  6
Continuous
 62
     7
370
    15
100
AcDbLine
 10
204.9343045583298
 20
275.7296022008945
 30
0.0
 11
205.9343047222426
 21
275.7296022008945
 31
0.0
  0
LINE
  5
CCBE
330
19
100
AcDbEntity
  8
0
  6
Continuous
 62
     7
370
    15
100
AcDbLine
 10
206.0609971886804
 20
282.5043573956778
 30
0.0
 11
205.2254229566386
 21
282.5043573956778
 31
0.0
  0
LINE
  5
CCBF
330
19
100
AcDbEntity
  8
0
  6
Continuous
 62
     7
370
    15
100
AcDbLine
 10
204.5609969428113
 20
286.0043570380499
 30
0.0
 11
208.6621261915496
 21
286.0043570380499
 31
0.0
  0
LINE
  5
CCC0
330
19
100
AcDbEntity
  8
0
  6
Continuous
 62
     7
370
    15
100
AcDbLine
 10
204.5609969428113
 20
283.0043565463116
 30
0.0
 11
208.6621261915496
 21
283.0043565463116
 31
0.0
  0
ARC
  5
CCC1
330
19
100
AcDbEntity
  8
0
  6
Continuous
 62
     7
370
    15
100
AcDbCircle
 10
201.9343042901089
 20
277.2296014707376
 30
0.0
 40
3.000000000000113
100
AcDbArc
 50
0.0
 51
90.0
  0
ARC
  5
CCC2
330
19
100
AcDbEntity
  8
0
  6
Continuous
 62
     7
370
    15
100
AcDbCircle
 10
206.5609969644417
 20
286.0043573564587
 30
0.0
 40
1.000000000000085
100
AcDbArc
 50
90.0
 51
180.0
  0
LINE
  5
CCC3
330
19
100
AcDbEntity
  8
0
  6
Continuous
 62
     7
370
    15
100
AcDbLine
 10
204.5609969428113
 20
286.0043570380499
 30
0.0
 11
204.5609969428113
 21
283.0043565463116
 31
0.0
  0
LINE
  5
CCC4
330
19
100
AcDbEntity
  8
0
  6
Continuous
 62
     7
370
    15
100
AcDbLine
 10
201.9343040665915
 20
280.2296020071795
 30
0.0
 11
192.9343043376063
 21
280.2296020071795
 31
0.0
  0
LINE
  5
CCC5
330
19
100
AcDbEntity
  8
0
  6
Continuous
 62
     7
370
    15
100
AcDbLine
 10
189.934304195114
 20
277.2296015154411
 30
0.0
 11
189.934304195114
 21
273.729601873069
 31
0.0
  0
ARC
  5
CCC6
330
19
100
AcDbEntity
  8
0
  6
Continuous
 62
     7
370
    15
100
AcDbCircle
 10
205.6850948112958
 20
282.8874426212049
 30
0.0
 40
0.5983748858206216
100
AcDbArc
 50
168.7327411632119
 51
219.8074355653235
  0
LINE
  5
CCC7
330
19
100
AcDbEntity
  8
0
  6
Continuous
 62
     7
370
    15
100
AcDbLine
 10
204.9343045583298
 20
277.2296015154411
 30
0.0
 11
204.9343045583298
 21
273.729601873069
 31
0.0
  0
ARC
  5
CCC8
330
19
100
AcDbEntity
  8
0
  6
Continuous
 62
     7
370
    15
100
AcDbCircle
 10
205.2254226511156
 20
283.0043573564585
 30
0.0
 40
0.5000000000000428
100
AcDbArc
 50
180.0
 51
270.0
  0
LINE
  5
CCC9
330
19
100
AcDbEntity
  8
0
  6
Continuous
 62
     7
370
    15
100
AcDbLine
 10
215.5609968832066
 20
283.0043565463116
 30
0.0
 11
215.5609968832066
 21
286.0043570380499
 31
0.0
  0
LINE
  5
CCCA
330
19
100
AcDbEntity
  8
0
  6
Continuous
 62
     7
370
    15
100
AcDbLine
 10
213.9343041708996
 20
275.7296022008945
 30
0.0
 11
205.9343047222426
 21
275.7296022008945
 31
0.0
  0
LINE
  5
CCCB
330
19
100
AcDbEntity
  8
0
  6
Continuous
 62
     7
370
    15
100
AcDbLine
 10
209.0436368963053
 20
279.0043577533056
 30
0.0
 11
214.06099756866
 21
279.0043577533056
 31
0.0
  0
LINE
  5
CCCC
330
19
100
AcDbEntity
  8
0
  6
Continuous
 62
     7
370
    15
100
AcDbLine
 10
208.6621261915496
 20
283.0043565463116
 30
0.0
 11
215.3801284512808
 21
283.0043565463116
 31
0.0
  0
LINE
  5
CCCD
330
19
100
AcDbEntity
  8
0
  6
Continuous
 62
     7
370
    15
100
AcDbLine
 10
205.9343047222426
 20
273.729601873069
 30
0.0
 11
205.9343047222426
 21
275.7296022008945
 31
0.0
  0
LINE
  5
CCCE
330
19
100
AcDbEntity
  8
0
  6
Continuous
 62
     7
370
    15
100
AcDbLine
 10
206.0609971886804
 20
279.0043577533056
 30
0.0
 11
209.0436368963053
 21
279.0043577533056
 31
0.0
  0
LINE
  5
CCCF
330
19
100
AcDbEntity
  8
0
  6
Continuous
 62
     7
370
    15
100
AcDbLine
 10
209.0436368963053
 20
282.5043573956778
 30
0.0
 11
208.7892964264681
 21
282.5043573956778
 31
0.0
  0
SPLINE
  5
CCD0
330
19
100
AcDbEntity
  8
0
  6
Continuous
 62
     7
370
    15
100
AcDbSpline
210
0.0
220
0.0
230
1.0
 70
     8
 71
     3
 72
    12
 73
     8
 74
     0
 42
0.0000000001
 43
0.0000000001
 40
0.0
 40
0.0
 40
0.0
 40
0.0
 40
0.2135483151592594
 40
0.4270569230974727
 40
0.6416183658084808
 40
0.8568760814199345
 40
1.0
 40
1.0
 40
1.0
 40
1.0
 10
209.5351740500262
 20
283.0043565463116
 30
0.0
 10
209.529690864794
 20
282.9483902537149
 30
0.0
 10
209.5187255138742
 20
282.8364680749069
 30
0.0
 10
209.4335700408062
 20
282.6871277846324
 30
0.0
 10
209.3088291456195
 20
282.573839999721
 30
0.0
 10
209.1706394493629
 20
282.5131005828864
 30
0.0
 10
209.0798819647059
 20
282.5068526007801
 30
0.0
 10
209.0436368963053
 20
282.5043573956778
 30
0.0
  0
ARC
  5
CCD1
330
19
100
AcDbEntity
  8
0
  6
Continuous
 62
     7
370
    15
100
AcDbCircle
 10
208.780937556078
 20
282.9962693072605
 30
0.0
 40
0.4919829259955776
100
AcDbArc
 50
270.9735115066272
 51
0.9418732057073928
  0
LINE
  5
CCD2
330
19
100
AcDbEntity
  8
0
  6
Continuous
 62
     7
370
    15
100
AcDbLine
 10
206.0609971886804
 20
283.0043565463116
 30
0.0
 11
206.0609971886804
 21
279.0043577533056
 31
0.0
  0
ARC
  5
CCD3
330
19
100
AcDbEntity
  8
0
  6
Continuous
 62
     7
370
    15
100
AcDbCircle
 10
208.7892968974827
 20
283.0043573564585
 30
0.0
 40
0.5000000000000428
100
AcDbArc
 50
180.0
 51
270.0
  0
LINE
  5
CCD4
330
19
100
AcDbEntity
  8
0
  6
Continuous
 62
     7
370
    15
100
AcDbLine
 10
207.0609973525932
 20
279.0043577533056
 30
0.0
 11
207.0609973525932
 21
275.7296022008945
 31
0.0
  0
LINE
  5
CCD5
330
19
100
AcDbEntity
  8
0
  6
Continuous
 62
     7
370
    15
100
AcDbLine
 10
213.0609974047473
 20
275.7296022008945
 30
0.0
 11
213.0609974047473
 21
279.0043577533056
 31
0.0
  0
LINE
  5
CCD6
330
19
100
AcDbEntity
  8
0
  6
Continuous
 62
     7
370
    15
100
AcDbLine
 10
213.9343041708996
 20
275.7296022008945
 30
0.0
 11
214.9343043348124
 21
275.7296022008945
 31
0.0
  0
LINE
  5
CCD7
330
19
100
AcDbEntity
  8
0
  6
Continuous
 62
     7
370
    15
100
AcDbLine
 10
213.9343041708996
 20
275.7296022008945
 30
0.0
 11
213.9343041708996
 21
273.729601873069
 31
0.0
  0
LINE
  5
CCD8
330
19
100
AcDbEntity
  8
0
  6
Continuous
 62
     7
370
    15
100
AcDbLine
 10
214.8965708693793
 20
282.5043573956778
 30
0.0
 11
213.9294557055762
 21
282.5043573956778
 31
0.0
  0
ARC
  5
CCD9
330
19
100
AcDbEntity
  8
0
  6
Continuous
 62
     7
370
    15
100
AcDbCircle
 10
215.3562447909051
 20
282.8874431468944
 30
0.0
 40
0.5983768101420358
100
AcDbArc
 50
168.7328291970584
 51
219.8073475315171
  0
SPLINE
  5
CCDA
330
19
100
AcDbEntity
  8
0
  6
Continuous
 62
     7
370
    15
100
AcDbSpline
210
0.0
220
0.0
230
1.0
 70
     8
 71
     3
 72
    12
 73
     8
 74
     0
 42
0.0000000001
 43
0.0000000001
 40
0.0
 40
0.0
 40
0.0
 40
0.0
 40
0.2135576103150401
 40
0.427074789100118
 40
0.6416259685262837
 40
0.8568874648103863
 40
1.0
 40
1.0
 40
1.0
 40
1.0
 10
213.9294557055762
 20
282.5043573956778
 30
0.0
 10
213.9145409492555
 20
282.5098403455518
 30
0.0
 10
213.8847142603315
 20
282.5208052072467
 30
0.0
 10
213.8372163211404
 20
282.6062635707371
 30
0.0
 10
213.797845779394
 20
282.7323809545867
 30
0.0
 10
213.7752412282769
 20
282.8733290778387
 30
0.0
 10
213.7728855548355
 20
282.9669643718462
 30
0.0
 10
213.7719448438218
 20
283.0043565463116
 30
0.0
  0
LINE
  5
CCDB
330
19
100
AcDbEntity
  8
0
  6
Continuous
 62
     7
370
    15
100
AcDbLine
 10
215.3801284512808
 20
283.0043565463116
 30
0.0
 11
215.5609968832066
 21
283.0043565463116
 31
0.0
  0
ARC
  5
CCDC
330
19
100
AcDbEntity
  8
0
  6
Continuous
 62
     7
370
    15
100
AcDbCircle
 10
217.9343042901098
 20
277.2296014707376
 30
0.0
 40
3.000000000000113
100
AcDbArc
 50
90.0
 51
180.0
  0
LINE
  5
CCDD
330
19
100
AcDbEntity
  8
0
  6
Continuous
 62
     7
370
    15
100
AcDbLine
 10
214.9343043348124
 20
273.729601873069
 30
0.0
 11
214.9343043348124
 21
277.2296015154411
 31
0.0
  0
ARC
  5
CCDE
330
19
100
AcDbEntity
  8
0
  6
Continuous
 62
     7
370
    15
100
AcDbCircle
 10
214.896571277767
 20
283.0043573564585
 30
0.0
 40
0.4999999999999716
100
AcDbArc
 50
270.0
 51
0.0
  0
LINE
  5
CCDF
330
19
100
AcDbEntity
  8
0
  6
Continuous
 62
     7
370
    15
100
AcDbLine
 10
214.06099756866
 20
279.0043577533056
 30
0.0
 11
214.06099756866
 21
282.5043573956778
 31
0.0
  0
LINE
  5
CCE0
330
19
100
AcDbEntity
  8
0
  6
Continuous
 62
     7
370
    15
100
AcDbLine
 10
209.1708071312239
 20
287.0043590646078
 30
0.0
 11
213.5609965553811
 21
287.0043590646078
 31
0.0
  0
LINE
  5
CCE1
330
19
100
AcDbEntity
  8
0
  6
Continuous
 62
     7
370
    15
100
AcDbLine
 10
208.6621261915496
 20
286.0043570380499
 30
0.0
 11
215.5609968832066
 21
286.0043570380499
 31
0.0
  0
LINE
  5
CCE2
330
19
100
AcDbEntity
  8
0
  6
Continuous
 62
     7
370
    15
100
AcDbLine
 10
206.5609972706368
 20
287.0043590646078
 30
0.0
 11
209.1708071312239
 21
287.0043590646078
 31
0.0
  0
ARC
  5
CCE3
330
19
100
AcDbEntity
  8
0
  6
Continuous
 62
     7
370
    15
100
AcDbCircle
 10
213.5609969644418
 20
286.0043573564587
 30
0.0
 40
1.000000000000085
100
AcDbArc
 50
0.0
 51
90.0
  0
LINE
  5
CCE4
330
19
100
AcDbEntity
  8
0
  6
CENTER1
 62
     7
100
AcDbLine
 10
247.4343042901089
 20
273.7296014707376
 30
0.0
 11
247.4343042901089
 21
258.7296014707376
 31
0.0
  0
CIRCLE
  5
CCE5
330
19
100
AcDbEntity
  8
0
  6
Continuous
 62
     7
370
    15
100
AcDbCircle
 10
247.4343042901089
 20
266.2296014707376
 30
0.0
 40
2.5
  0
LINE
  5
CCE6
330
19
100
AcDbEntity
  8
0
  6
Continuous
 62
     7
370
    15
100
AcDbLine
 10
239.1993086567452
 20
275.7296022008945
 30
0.0
 11
230.9343050947716
 21
275.7296022008945
 31
0.0
  0
ARC
  5
CCE7
330
19
100
AcDbEntity
  8
0
  6
Continuous
 62
     7
370
    15
100
AcDbCircle
 10
226.9343042901089
 20
277.2296014707376
 30
0.0
 40
3.000000000000113
100
AcDbArc
 50
0.0
 51
90.0
  0
LINE
  5
CCE8
330
19
100
AcDbEntity
  8
0
  6
Continuous
 62
     7
370
    15
100
AcDbLine
 10
229.9343030682137
 20
275.7296022008945
 30
0.0
 11
230.9343050947716
 21
275.7296022008945
 31
0.0
  0
LINE
  5
CCE9
330
19
100
AcDbEntity
  8
0
  6
Continuous
 62
     7
370
    15
100
AcDbLine
 10
230.9343050947716
 20
273.729601873069
 30
0.0
 11
230.9343050947716
 21
275.7296022008945
 31
0.0
  0
LINE
  5
CCEA
330
19
100
AcDbEntity
  8
0
  6
Continuous
 62
     7
370
    15
100
AcDbLine
 10
229.9343030682137
 20
273.729601873069
 30
0.0
 11
229.9343030682137
 21
277.2296015154411
 31
0.0
  0
ARC
  5
CCEB
330
19
100
AcDbEntity
  8
0
  6
Continuous
 62
     7
370
    15
100
AcDbCircle
 10
241.1993102949143
 20
285.7296014707376
 30
0.0
 40
10.00000000000001
100
AcDbArc
 50
275.215908570456
 51
339.5126848852771
  0
LINE
  5
CCEC
330
19
100
AcDbEntity
  8
0
  6
Continuous
 62
     7
370
    15
100
AcDbLine
 10
241.1993089845708
 20
274.7296020369818
 30
0.0
 11
241.1993089845708
 21
274.7751511614611
 31
0.0
  0
LINE
  5
CCED
330
19
100
AcDbEntity
  8
0
  6
Continuous
 62
     7
370
    15
100
AcDbLine
 10
239.1993086567452
 20
273.729601873069
 30
0.0
 11
239.1993086567452
 21
275.7296022008945
 31
0.0
  0
LINE
  5
CCEE
330
19
100
AcDbEntity
  8
0
  6
Continuous
 62
     7
370
    15
100
AcDbLine
 10
239.1993086567452
 20
273.729601873069
 30
0.0
 11
240.1993106833031
 21
273.729601873069
 31
0.0
  0
ARC
  5
CCEF
330
19
100
AcDbEntity
  8
0
  6
Continuous
 62
     7
370
    15
100
AcDbCircle
 10
242.1993102949143
 20
274.7751503206343
 30
0.0
 40
1.000000000000053
100
AcDbArc
 50
95.21590857050169
 51
180.0
  0
ARC
  5
CCF0
330
19
100
AcDbEntity
  8
0
  6
Continuous
 62
     7
370
    15
100
AcDbCircle
 10
240.1993102949143
 20
274.7296014707377
 30
0.0
 40
1.000000000000013
100
AcDbArc
 50
270.0
 51
0.0
  0
LINE
  5
CCF1
330
19
100
AcDbEntity
  8
0
  6
CENTER1
 62
     7
100
AcDbLine
 10
259.9343042901089
 20
286.2296014707376
 30
0.0
 11
259.9343042901089
 21
271.2296014707376
 31
0.0
  0
ARC
  5
CCF2
330
19
100
AcDbEntity
  8
0
  6
Continuous
 62
     7
370
    15
100
AcDbCircle
 10
266.9343042901089
 20
259.9946074755424
 30
0.0
 40
9.999999999999991
100
AcDbArc
 50
110.4873151147172
 51
174.7840914295457
  0
LINE
  5
CCF3
330
19
100
AcDbEntity
  8
0
  6
Continuous
 62
     7
370
    15
100
AcDbLine
 10
255.9343073299458
 20
259.994607416897
 30
0.0
 11
255.9798527291348
 21
259.994607416897
 31
0.0
  0
LINE
  5
CCF4
330
19
100
AcDbEntity
  8
0
  6
Continuous
 62
     7
370
    15
100
AcDbLine
 10
254.9343053033879
 20
258.9946072529842
 30
0.0
 11
254.9343053033879
 21
257.9946075547328
 31
0.0
  0
LINE
  5
CCF5
330
19
100
AcDbEntity
  8
0
  6
Continuous
 62
     7
370
    15
100
AcDbLine
 10
254.9343053033879
 20
257.9946075547328
 30
0.0
 11
256.9343019059231
 21
257.9946075547328
 31
0.0
  0
ARC
  5
CCF6
330
19
100
AcDbEntity
  8
0
  6
Continuous
 62
     7
370
    15
100
AcDbCircle
 10
255.9343042901098
 20
258.9946074755426
 30
0.0
 40
1.000000000000013
100
AcDbArc
 50
90.0
 51
180.0
  0
ARC
  5
CCF7
330
19
100
AcDbEntity
  8
0
  6
Continuous
 62
     7
370
    15
100
AcDbCircle
 10
255.9798531400063
 20
260.9946074755423
 30
0.0
 40
1.000000000000045
100
AcDbArc
 50
270.0
 51
354.7840914295506
  0
CIRCLE
  5
CCF8
330
19
100
AcDbEntity
  8
0
  6
Continuous
 62
     7
370
    15
100
AcDbCircle
 10
259.9343042901089
 20
278.7296014707376
 30
0.0
 40
2.5
  0
LINE
  5
CCFA
330
19
100
AcDbEntity
  8
0
  6
Continuous
 62
     7
370
    15
100
AcDbLine
 10
252.9343049755623
 20
435.0586873359809
 30
0.0
 11
252.6414114764264
 21
435.0586873359809
 31
0.0
  0
LINE
  5
CCFB
330
19
100
AcDbEntity
  8
0
  6
Continuous
 62
     7
370
    15
100
AcDbLine
 10
269.9343058994343
 20
426.3515807568856
 30
0.0
 11
250.5668084850838
 21
426.3515807568856
 31
0.0
  0
LINE
  5
CCFC
330
19
100
AcDbEntity
  8
0
  6
Continuous
 62
     7
370
    15
100
AcDbLine
 10
269.9343058994343
 20
424.3515806618908
 30
0.0
 11
250.5668084850838
 21
424.3515806618908
 31
0.0
  0
LINE
  5
CCFD
330
19
100
AcDbEntity
  8
0
  6
Continuous
 62
     7
370
    15
100
AcDbLine
 10
252.9343049755623
 20
427.3515804551371
 30
0.0
 11
250.9343046477368
 21
427.3515804551371
 31
0.0
  0
LINE
  5
CCFE
330
19
100
AcDbEntity
  8
0
  6
Continuous
 62
     7
370
    15
100
AcDbLine
 10
252.9343049755623
 20
443.3515812150965
 30
0.0
 11
249.9343026211789
 21
443.3515812150965
 31
0.0
  0
LINE
  5
CCFF
330
19
100
AcDbEntity
  8
0
  6
Continuous
 62
     7
370
    15
100
AcDbLine
 10
250.9343046477368
 20
427.6444739542732
 30
0.0
 11
252.9343049755623
 21
427.6444739542732
 31
0.0
  0
LINE
  5
CD00
330
19
100
AcDbEntity
  8
0
  6
Continuous
 62
     7
370
    15
100
AcDbLine
 10
251.9343029490044
 20
439.3515805594453
 30
0.0
 11
252.9343049755623
 21
439.3515805594453
 31
0.0
  0
ARC
  5
CD01
330
19
100
AcDbEntity
  8
0
  6
Continuous
 62
     7
370
    15
100
AcDbCircle
 10
251.9343042901089
 20
435.7657942112255
 30
0.0
 40
1.000000000000047
100
AcDbArc
 50
315.000000000008
 51
0.0
  0
ARC
  5
CD02
330
19
100
AcDbEntity
  8
0
  6
Continuous
 62
     7
370
    15
100
AcDbCircle
 10
251.9343042901089
 20
438.3515806488524
 30
0.0
 40
1.000000000000013
100
AcDbArc
 50
0.0
 51
90.0
  0
LINE
  5
CD03
330
19
100
AcDbEntity
  8
0
  6
Continuous
 62
     7
370
    15
100
AcDbLine
 10
205.9343047222426
 20
426.3515807568856
 30
0.0
 11
188.9343042640319
 21
426.3515807568856
 31
0.0
  0
LINE
  5
CD04
330
19
100
AcDbEntity
  8
0
  6
Continuous
 62
     7
370
    15
100
AcDbLine
 10
188.9343042640319
 20
424.3515806618908
 30
0.0
 11
205.9343047222426
 21
424.3515806618908
 31
0.0
  0
LINE
  5
CD05
330
19
100
AcDbEntity
  8
0
  6
Continuous
 62
     7
370
    15
100
AcDbLine
 10
237.19931205421
 20
440.8515798739919
 30
0.0
 11
182.6692987015774
 21
440.8515798739919
 31
0.0
  0
ARC
  5
CD06
330
19
100
AcDbEntity
  8
0
  6
Continuous
 62
     7
370
    15
100
AcDbCircle
 10
189.9343042901089
 20
428.3515806488524
 30
0.0
 40
1.000000000000013
100
AcDbArc
 50
90.0
 51
180.0
  0
LINE
  5
CD07
330
19
100
AcDbEntity
  8
0
  6
Continuous
 62
     7
370
    15
100
AcDbLine
 10
189.934304195114
 20
427.3515804551371
 30
0.0
 11
188.9343042640319
 21
427.3515804551371
 31
0.0
  0
LINE
  5
CD08
330
19
100
AcDbEntity
  8
0
  6
Continuous
 62
     7
370
    15
100
AcDbLine
 10
248.9343043199113
 20
443.3515812150965
 30
0.0
 11
170.9343045732309
 21
443.3515812150965
 31
0.0
  0
LINE
  5
CD09
330
19
100
AcDbEntity
  8
0
  6
Continuous
 62
     7
370
    15
100
AcDbLine
 10
169.3018004080584
 20
426.3515807568856
 30
0.0
 11
149.934304856353
 21
426.3515807568856
 31
0.0
  0
LINE
  5
CD0A
330
19
100
AcDbEntity
  8
0
  6
Continuous
 62
     7
370
    15
100
AcDbLine
 10
169.3018004080584
 20
424.3515806618908
 30
0.0
 11
149.934304856353
 21
424.3515806618908
 31
0.0
  0
LINE
  5
CD0B
330
19
100
AcDbEntity
  8
0
  6
Continuous
 62
     7
370
    15
100
AcDbLine
 10
149.934304856353
 20
426.3515807568856
 30
0.0
 11
149.934304856353
 21
424.3515806618908
 31
0.0
  0
LINE
  5
CD0C
330
19
100
AcDbEntity
  8
0
  6
Continuous
 62
     7
370
    15
100
AcDbLine
 10
169.3018004080584
 20
426.3515807568856
 30
0.0
 11
177.7602070724895
 21
426.3515807568856
 31
0.0
  0
LINE
  5
CD0D
330
19
100
AcDbEntity
  8
0
  6
Continuous
 62
     7
370
    15
100
AcDbLine
 10
177.7602070724895
 20
424.3515806618908
 30
0.0
 11
169.3018004080584
 21
424.3515806618908
 31
0.0
  0
LINE
  5
CD0E
330
19
100
AcDbEntity
  8
0
  6
Continuous
 62
     7
370
    15
100
AcDbLine
 10
167.2271974167158
 20
435.0586873359809
 30
0.0
 11
174.6414117297461
 21
427.6444739542732
 31
0.0
  0
LINE
  5
CD0F
330
19
100
AcDbEntity
  8
0
  6
Continuous
 62
     7
370
    15
100
AcDbLine
 10
166.434304766946
 20
439.2515807293186
 30
0.0
 11
166.434304766946
 21
431.4515809409151
 31
0.0
  0
LINE
  5
CD10
330
19
100
AcDbEntity
  8
0
  6
Continuous
 62
     7
370
    15
100
AcDbLine
 10
164.9343035897543
 20
426.3515807568856
 30
0.0
 11
164.9343035897543
 21
438.8515814088115
 31
0.0
  0
LINE
  5
CD11
330
19
100
AcDbEntity
  8
0
  6
Continuous
 62
     7
370
    15
100
AcDbLine
 10
162.9343051245739
 20
426.3515807568856
 30
0.0
 11
162.9343051245739
 21
438.8515814088115
 31
0.0
  0
LINE
  5
CD12
330
19
100
AcDbEntity
  8
0
  6
Continuous
 62
     7
370
    15
100
AcDbLine
 10
166.9343039175799
 20
427.6444739542732
 30
0.0
 11
166.9343039175799
 21
435.0586873359809
 31
0.0
  0
LINE
  5
CD13
330
19
100
AcDbEntity
  8
0
  6
Continuous
 62
     7
370
    15
100
AcDbLine
 10
165.4343046030333
 20
432.4515811048279
 30
0.0
 11
165.4343046030333
 21
438.2515805654057
 31
0.0
  0
ARC
  5
CD14
330
19
100
AcDbEntity
  8
0
  6
Continuous
 62
     7
370
    15
100
AcDbCircle
 10
166.4343042901089
 20
432.4515806488521
 30
0.0
 40
1.000000000000085
100
AcDbArc
 50
180.0
 51
270.0
  0
LINE
  5
CD15
330
19
100
AcDbEntity
  8
0
  6
Continuous
 62
     7
370
    15
100
AcDbLine
 10
169.3018004080584
 20
424.3515806618908
 30
0.0
 11
169.3018004080584
 21
426.3515807568856
 31
0.0
  0
LINE
  5
CD16
330
19
100
AcDbEntity
  8
0
  6
Continuous
 62
     7
370
    15
100
AcDbLine
 10
166.9343039175799
 20
427.3515804551371
 30
0.0
 11
166.9343039175799
 21
427.6444739542732
 31
0.0
  0
LINE
  5
CD17
330
19
100
AcDbEntity
  8
0
  6
Continuous
 62
     7
370
    15
100
AcDbLine
 10
168.9343042454054
 20
427.6444739542732
 30
0.0
 11
168.9343042454054
 21
427.3515804551371
 31
0.0
  0
LINE
  5
CD18
330
19
100
AcDbEntity
  8
0
  6
Continuous
 62
     7
370
    15
100
AcDbLine
 10
168.9343042454054
 20
427.3515804551371
 30
0.0
 11
166.9343039175799
 21
427.3515804551371
 31
0.0
  0
LINE
  5
CD19
330
19
100
AcDbEntity
  8
0
  6
Continuous
 62
     7
370
    15
100
AcDbLine
 10
168.9343042454054
 20
433.3515805072913
 30
0.0
 11
168.9343042454054
 21
427.6444739542732
 31
0.0
  0
LINE
  5
CD1A
330
19
100
AcDbEntity
  8
0
  6
Continuous
 62
     7
370
    15
100
AcDbLine
 10
166.9343039175799
 20
427.6444739542732
 30
0.0
 11
168.9343042454054
 21
427.6444739542732
 31
0.0
  0
LINE
  5
CD1B
330
19
100
AcDbEntity
  8
0
  6
Continuous
 62
     7
370
    15
100
AcDbLine
 10
168.9343042454054
 20
433.2515806771645
 30
0.0
 11
169.0343040755322
 21
433.2515806771645
 31
0.0
  0
LINE
  5
CD1C
330
19
100
AcDbEntity
  8
0
  6
Continuous
 62
     7
370
    15
100
AcDbLine
 10
166.434304766946
 20
431.4515809409151
 30
0.0
 11
166.9343039175799
 21
431.4515809409151
 31
0.0
  0
ARC
  5
CD1D
330
19
100
AcDbEntity
  8
0
  6
Continuous
 62
     7
370
    15
100
AcDbCircle
 10
166.4343042901089
 20
438.2515806488521
 30
0.0
 40
1.000000000000013
100
AcDbArc
 50
90.0
 51
180.0
  0
LINE
  5
CD1E
330
19
100
AcDbEntity
  8
0
  6
Continuous
 62
     7
370
    15
100
AcDbLine
 10
164.9343035897543
 20
440.8515798739919
 30
0.0
 11
164.9343035897543
 21
438.8515814088115
 31
0.0
  0
LINE
  5
CD1F
330
19
100
AcDbEntity
  8
0
  6
Continuous
 62
     7
370
    15
100
AcDbLine
 10
162.9343051245739
 20
440.8515798739919
 30
0.0
 11
164.9343035897543
 21
440.8515798739919
 31
0.0
  0
LINE
  5
CD20
330
19
100
AcDbEntity
  8
0
  6
Continuous
 62
     7
370
    15
100
AcDbLine
 10
162.9343051245739
 20
438.8515814088115
 30
0.0
 11
162.9343051245739
 21
440.8515798739919
 31
0.0
  0
LINE
  5
CD21
330
19
100
AcDbEntity
  8
0
  6
Continuous
 62
     7
370
    15
100
AcDbLine
 10
164.9343035897543
 20
438.8515814088115
 30
0.0
 11
162.9343051245739
 21
438.8515814088115
 31
0.0
  0
LINE
  5
CD22
330
19
100
AcDbEntity
  8
0
  6
Continuous
 62
     7
370
    15
100
AcDbLine
 10
167.2271974167158
 20
435.0586873359809
 30
0.0
 11
166.9343039175799
 21
435.0586873359809
 31
0.0
  0
LINE
  5
CD23
330
19
100
AcDbEntity
  8
0
  6
Continuous
 62
     7
370
    15
100
AcDbLine
 10
169.9343044093182
 20
443.3515812150965
 30
0.0
 11
166.9343039175799
 21
443.3515812150965
 31
0.0
  0
LINE
  5
CD24
330
19
100
AcDbEntity
  8
0
  6
Continuous
 62
     7
370
    15
100
AcDbLine
 10
169.9343044093182
 20
441.3515808872708
 30
0.0
 11
168.9343042454054
 21
441.3515808872708
 31
0.0
  0
LINE
  5
CD25
330
19
100
AcDbEntity
  8
0
  6
Continuous
 62
     7
370
    15
100
AcDbLine
 10
166.9343039175799
 20
439.3515805594453
 30
0.0
 11
166.9343039175799
 21
443.3515812150965
 31
0.0
  0
LINE
  5
CD26
330
19
100
AcDbEntity
  8
0
  6
Continuous
 62
     7
370
    15
100
AcDbLine
 10
168.9343042454054
 20
441.3515808872708
 30
0.0
 11
168.9343042454054
 21
439.3515805594453
 31
0.0
  0
LINE
  5
CD27
330
19
100
AcDbEntity
  8
0
  6
Continuous
 62
     7
370
    15
100
AcDbLine
 10
169.9343044093182
 20
443.3515812150965
 30
0.0
 11
170.9343045732309
 21
443.3515812150965
 31
0.0
  0
LINE
  5
CD28
330
19
100
AcDbEntity
  8
0
  6
Continuous
 62
     7
370
    15
100
AcDbLine
 10
170.9343045732309
 20
441.3515808872708
 30
0.0
 11
169.9343044093182
 21
441.3515808872708
 31
0.0
  0
LINE
  5
CD29
330
19
100
AcDbEntity
  8
0
  6
Continuous
 62
     7
370
    15
100
AcDbLine
 10
169.9343044093182
 20
441.3515808872708
 30
0.0
 11
169.9343044093182
 21
443.3515812150965
 31
0.0
  0
LINE
  5
CD2A
330
19
100
AcDbEntity
  8
0
  6
Continuous
 62
     7
370
    15
100
AcDbLine
 10
166.9343039175799
 20
435.0586873359809
 30
0.0
 11
166.9343039175799
 21
435.7657940007577
 31
0.0
  0
LINE
  5
CD2B
330
19
100
AcDbEntity
  8
0
  6
Continuous
 62
     7
370
    15
100
AcDbLine
 10
166.9343039175799
 20
438.3515803955326
 30
0.0
 11
166.9343039175799
 21
439.3515805594453
 31
0.0
  0
LINE
  5
CD2C
330
19
100
AcDbEntity
  8
0
  6
Continuous
 62
     7
370
    15
100
AcDbLine
 10
166.9343039175799
 20
439.3515805594453
 30
0.0
 11
167.9343040814926
 21
439.3515805594453
 31
0.0
  0
LINE
  5
CD2D
330
19
100
AcDbEntity
  8
0
  6
Continuous
 62
     7
370
    15
100
AcDbLine
 10
166.9343039175799
 20
438.3515803955326
 30
0.0
 11
166.9343039175799
 21
435.7657940007577
 31
0.0
  0
ARC
  5
CD2E
330
19
100
AcDbEntity
  8
0
  6
Continuous
 62
     7
370
    15
100
AcDbCircle
 10
167.9343042901098
 20
435.7657942112255
 30
0.0
 40
0.9999999999999978
100
AcDbArc
 50
180.0
 51
224.9999999999908
  0
LINE
  5
CD2F
330
19
100
AcDbEntity
  8
0
  6
Continuous
 62
     7
370
    15
100
AcDbLine
 10
170.9343045732309
 20
440.3515807233581
 30
0.0
 11
170.9343045732309
 21
443.3515812150965
 31
0.0
  0
ARC
  5
CD30
330
19
100
AcDbEntity
  8
0
  6
Continuous
 62
     7
370
    15
100
AcDbCircle
 10
169.9343042901089
 20
440.3515806488524
 30
0.0
 40
1.000000000000013
100
AcDbArc
 50
270.0
 51
0.0
  0
LINE
  5
CD31
330
19
100
AcDbEntity
  8
0
  6
Continuous
 62
     7
370
    15
100
AcDbLine
 10
167.9343040814926
 20
439.3515805594453
 30
0.0
 11
169.9343044093182
 21
439.3515805594453
 31
0.0
  0
ARC
  5
CD32
330
19
100
AcDbEntity
  8
0
  6
Continuous
 62
     7
370
    15
100
AcDbCircle
 10
167.9343042901098
 20
438.3515806488524
 30
0.0
 40
0.9999999999999431
100
AcDbArc
 50
90.0
 51
180.0
  0
LINE
  5
CD33
330
19
100
AcDbEntity
  8
0
  6
Continuous
 62
     7
370
    15
100
AcDbLine
 10
166.9343039175799
 20
439.2515807293186
 30
0.0
 11
166.434304766946
 21
439.2515807293186
 31
0.0
  0
LINE
  5
CD34
330
19
100
AcDbEntity
  8
0
  6
Continuous
 62
     7
370
    15
100
AcDbLine
 10
180.6692983737518
 20
424.3515806618908
 30
0.0
 11
180.6692983737518
 21
438.8515814088115
 31
0.0
  0
LINE
  5
CD35
330
19
100
AcDbEntity
  8
0
  6
Continuous
 62
     7
370
    15
100
AcDbLine
 10
188.9343042640319
 20
424.3515806618908
 30
0.0
 11
180.6692983737518
 21
424.3515806618908
 31
0.0
  0
LINE
  5
CD36
330
19
100
AcDbEntity
  8
0
  6
Continuous
 62
     7
370
    15
100
AcDbLine
 10
179.6692982098391
 20
426.3515807568856
 30
0.0
 11
180.6692983737518
 21
426.3515807568856
 31
0.0
  0
LINE
  5
CD37
330
19
100
AcDbEntity
  8
0
  6
Continuous
 62
     7
370
    15
100
AcDbLine
 10
179.6692982098391
 20
424.3515806618908
 30
0.0
 11
180.6692983737518
 21
424.3515806618908
 31
0.0
  0
LINE
  5
CD38
330
19
100
AcDbEntity
  8
0
  6
Continuous
 62
     7
370
    15
100
AcDbLine
 10
178.6692980459263
 20
426.3515807568856
 30
0.0
 11
179.6692982098391
 21
426.3515807568856
 31
0.0
  0
LINE
  5
CD39
330
19
100
AcDbEntity
  8
0
  6
Continuous
 62
     7
370
    15
100
AcDbLine
 10
179.6692982098391
 20
424.3515806618908
 30
0.0
 11
178.6692980459263
 21
424.3515806618908
 31
0.0
  0
LINE
  5
CD3A
330
19
100
AcDbEntity
  8
0
  6
Continuous
 62
     7
370
    15
100
AcDbLine
 10
179.6692982098391
 20
426.3515807568856
 30
0.0
 11
179.6692982098391
 21
424.3515806618908
 31
0.0
  0
LINE
  5
CD3B
330
19
100
AcDbEntity
  8
0
  6
Continuous
 62
     7
370
    15
100
AcDbLine
 10
177.7602070724895
 20
426.3515807568856
 30
0.0
 11
178.6692980459263
 21
426.3515807568856
 31
0.0
  0
LINE
  5
CD3C
330
19
100
AcDbEntity
  8
0
  6
Continuous
 62
     7
370
    15
100
AcDbLine
 10
178.6692980459263
 20
424.3515806618908
 30
0.0
 11
177.7602070724895
 21
424.3515806618908
 31
0.0
  0
LINE
  5
CD3D
330
19
100
AcDbEntity
  8
0
  6
Continuous
 62
     7
370
    15
100
AcDbLine
 10
178.6692980459263
 20
426.3515807568856
 30
0.0
 11
178.6692980459263
 21
424.3515806618908
 31
0.0
  0
LINE
  5
CD3E
330
19
100
AcDbEntity
  8
0
  6
Continuous
 62
     7
370
    15
100
AcDbLine
 10
177.7602070724895
 20
424.3515806618908
 30
0.0
 11
177.7602070724895
 21
426.3515807568856
 31
0.0
  0
ARC
  5
CD3F
330
19
100
AcDbEntity
  8
0
  6
Continuous
 62
     7
370
    15
100
AcDbCircle
 10
175.3485178524822
 20
428.3515806488524
 30
0.0
 40
1.000000000000047
100
AcDbArc
 50
224.9999999999896
 51
270.0
  0
LINE
  5
CD40
330
19
100
AcDbEntity
  8
0
  6
Continuous
 62
     7
370
    15
100
AcDbLine
 10
180.6692983737518
 20
427.3515804551371
 30
0.0
 11
175.3485183945229
 21
427.3515804551371
 31
0.0
  0
LINE
  5
CD41
330
19
100
AcDbEntity
  8
0
  6
Continuous
 62
     7
370
    15
100
AcDbLine
 10
188.9343042640319
 20
428.3515806190499
 30
0.0
 11
188.9343042640319
 21
424.3515806618908
 31
0.0
  0
ARC
  5
CD42
330
19
100
AcDbEntity
  8
0
  6
Continuous
 62
     7
370
    15
100
AcDbCircle
 10
182.6692982853044
 20
438.8515806488522
 30
0.0
 40
2.000000000000027
100
AcDbArc
 50
90.0
 51
180.0
  0
LINE
  5
CD43
330
19
100
AcDbEntity
  8
0
  6
Continuous
 62
     7
370
    15
100
AcDbLine
 10
230.9343050947716
 20
426.3515807568856
 30
0.0
 11
213.9343041708996
 21
426.3515807568856
 31
0.0
  0
LINE
  5
CD44
330
19
100
AcDbEntity
  8
0
  6
Continuous
 62
     7
370
    15
100
AcDbLine
 10
213.9343041708996
 20
424.3515806618908
 30
0.0
 11
230.9343050947716
 21
424.3515806618908
 31
0.0
  0
LINE
  5
CD45
330
19
100
AcDbEntity
  8
0
  6
Continuous
 62
     7
370
    15
100
AcDbLine
 10
226.9343044391205
 20
427.3515804551371
 30
0.0
 11
217.9343048265507
 21
427.3515804551371
 31
0.0
  0
LINE
  5
CD46
330
19
100
AcDbEntity
  8
0
  6
Continuous
 62
     7
370
    15
100
AcDbLine
 10
226.9343044391205
 20
429.3515807829628
 30
0.0
 11
217.9343048265507
 21
429.3515807829628
 31
0.0
  0
LINE
  5
CD47
330
19
100
AcDbEntity
  8
0
  6
Continuous
 62
     7
370
    15
100
AcDbLine
 10
205.9343047222426
 20
427.9515808328817
 30
0.0
 11
204.9343045583298
 21
427.9515808328817
 31
0.0
  0
ARC
  5
CD48
330
19
100
AcDbEntity
  8
0
  6
Continuous
 62
     7
370
    15
100
AcDbCircle
 10
204.9343042901089
 20
428.3515806488524
 30
0.0
 40
0.9999999999999431
100
AcDbArc
 50
0.0
 51
90.0
  0
CIRCLE
  5
CD49
330
19
100
AcDbEntity
  8
0
  6
Continuous
 62
     7
370
    15
100
AcDbCircle
 10
210.0609969644409
 20
434.6119678015553
 30
0.0
 40
5.499999999999992
  0
LINE
  5
CD4A
330
19
100
AcDbEntity
  8
0
  6
Continuous
 62
     7
370
    15
100
AcDbLine
 10
201.9343040665915
 20
429.3515807829628
 30
0.0
 11
192.9343043376063
 21
429.3515807829628
 31
0.0
  0
LINE
  5
CD4B
330
19
100
AcDbEntity
  8
0
  6
Continuous
 62
     7
370
    15
100
AcDbLine
 10
201.9343040665915
 20
427.3515804551371
 30
0.0
 11
192.9343043376063
 21
427.3515804551371
 31
0.0
  0
LINE
  5
CD4C
330
19
100
AcDbEntity
  8
0
  6
Continuous
 62
     7
370
    15
100
AcDbLine
 10
195.9343044800987
 20
426.3515807568856
 30
0.0
 11
195.9343044800987
 21
427.3515804551371
 31
0.0
  0
LINE
  5
CD4D
330
19
100
AcDbEntity
  8
0
  6
Continuous
 62
     7
370
    15
100
AcDbLine
 10
193.9343043851038
 20
426.3515807568856
 30
0.0
 11
193.9343043851038
 21
427.3515804551371
 31
0.0
  0
LINE
  5
CD4E
330
19
100
AcDbEntity
  8
0
  6
Continuous
 62
     7
370
    15
100
AcDbLine
 10
189.934304195114
 20
429.3515807829628
 30
0.0
 11
192.9343043376063
 21
429.3515807829628
 31
0.0
  0
LINE
  5
CD4F
330
19
100
AcDbEntity
  8
0
  6
Continuous
 62
     7
370
    15
100
AcDbLine
 10
189.934304195114
 20
427.3515804551371
 30
0.0
 11
189.934304195114
 21
429.3515807829628
 31
0.0
  0
LINE
  5
CD50
330
19
100
AcDbEntity
  8
0
  6
Continuous
 62
     7
370
    15
100
AcDbLine
 10
192.9343043376063
 20
427.3515804551371
 30
0.0
 11
189.934304195114
 21
427.3515804551371
 31
0.0
  0
LINE
  5
CD51
330
19
100
AcDbEntity
  8
0
  6
Continuous
 62
     7
370
    15
100
AcDbLine
 10
192.9343043376063
 20
429.3515807829628
 30
0.0
 11
192.9343043376063
 21
427.3515804551371
 31
0.0
  0
LINE
  5
CD52
330
19
100
AcDbEntity
  8
0
  6
Continuous
 62
     7
370
    15
100
AcDbLine
 10
199.9343046700885
 20
427.3515804551371
 30
0.0
 11
199.9343046700885
 21
426.3515807568856
 31
0.0
  0
LINE
  5
CD53
330
19
100
AcDbEntity
  8
0
  6
Continuous
 62
     7
370
    15
100
AcDbLine
 10
201.9343040665915
 20
429.3515807829628
 30
0.0
 11
204.9343045583298
 21
429.3515807829628
 31
0.0
  0
LINE
  5
CD54
330
19
100
AcDbEntity
  8
0
  6
Continuous
 62
     7
370
    15
100
AcDbLine
 10
201.9343040665915
 20
427.3515804551371
 30
0.0
 11
201.9343040665915
 21
429.3515807829628
 31
0.0
  0
LINE
  5
CD55
330
19
100
AcDbEntity
  8
0
  6
Continuous
 62
     7
370
    15
100
AcDbLine
 10
204.9343045583298
 20
427.3515804551371
 30
0.0
 11
201.9343040665915
 21
427.3515804551371
 31
0.0
  0
LINE
  5
CD56
330
19
100
AcDbEntity
  8
0
  6
Continuous
 62
     7
370
    15
100
AcDbLine
 10
204.9343045583298
 20
429.3515807829628
 30
0.0
 11
204.9343045583298
 21
427.3515804551371
 31
0.0
  0
CIRCLE
  5
CD57
330
19
100
AcDbEntity
  8
0
  6
Continuous
 62
     7
370
    15
100
AcDbCircle
 10
210.0609969644409
 20
434.6119678015553
 30
0.0
 40
4.500000000000038
  0
CIRCLE
  5
CD58
330
19
100
AcDbEntity
  8
0
  6
Continuous
 62
     7
370
    15
100
AcDbCircle
 10
210.0609969644409
 20
434.6119678015553
 30
0.0
 40
3.500000000000063
  0
LINE
  5
CD59
330
19
100
AcDbEntity
  8
0
  6
Continuous
 62
     7
370
    15
100
AcDbLine
 10
213.9343041708996
 20
424.3515806618908
 30
0.0
 11
205.9343047222426
 21
424.3515806618908
 31
0.0
  0
LINE
  5
CD5A
330
19
100
AcDbEntity
  8
0
  6
Continuous
 62
     7
370
    15
100
AcDbLine
 10
205.9343047222426
 20
428.3515806190499
 30
0.0
 11
205.9343047222426
 21
424.3515806618908
 31
0.0
  0
LINE
  5
CD5B
330
19
100
AcDbEntity
  8
0
  6
Continuous
 62
     7
370
    15
100
AcDbLine
 10
214.9343043348124
 20
427.9515808328817
 30
0.0
 11
213.9343041708996
 21
427.9515808328817
 31
0.0
  0
LINE
  5
CD5C
330
19
100
AcDbEntity
  8
0
  6
Continuous
 62
     7
370
    15
100
AcDbLine
 10
213.9343041708996
 20
428.3515806190499
 30
0.0
 11
213.9343041708996
 21
424.3515806618908
 31
0.0
  0
ARC
  5
CD5D
330
19
100
AcDbEntity
  8
0
  6
Continuous
 62
     7
370
    15
100
AcDbCircle
 10
214.9343042901089
 20
428.3515806488524
 30
0.0
 40
1.000000000000013
100
AcDbArc
 50
90.0
 51
180.0
  0
LINE
  5
CD5E
330
19
100
AcDbEntity
  8
0
  6
Continuous
 62
     7
370
    15
100
AcDbLine
 10
219.9343051543763
 20
427.3515804551371
 30
0.0
 11
219.9343051543763
 21
426.3515807568856
 31
0.0
  0
LINE
  5
CD5F
330
19
100
AcDbEntity
  8
0
  6
Continuous
 62
     7
370
    15
100
AcDbLine
 10
214.9343043348124
 20
429.3515807829628
 30
0.0
 11
217.9343048265507
 21
429.3515807829628
 31
0.0
  0
LINE
  5
CD60
330
19
100
AcDbEntity
  8
0
  6
Continuous
 62
     7
370
    15
100
AcDbLine
 10
214.9343043348124
 20
427.3515804551371
 30
0.0
 11
214.9343043348124
 21
429.3515807829628
 31
0.0
  0
LINE
  5
CD61
330
19
100
AcDbEntity
  8
0
  6
Continuous
 62
     7
370
    15
100
AcDbLine
 10
217.9343048265507
 20
427.3515804551371
 30
0.0
 11
214.9343043348124
 21
427.3515804551371
 31
0.0
  0
LINE
  5
CD62
330
19
100
AcDbEntity
  8
0
  6
Continuous
 62
     7
370
    15
100
AcDbLine
 10
217.9343048265507
 20
429.3515807829628
 30
0.0
 11
217.9343048265507
 21
427.3515804551371
 31
0.0
  0
LINE
  5
CD63
330
19
100
AcDbEntity
  8
0
  6
Continuous
 62
     7
370
    15
100
AcDbLine
 10
239.1993086567452
 20
424.3515806618908
 30
0.0
 11
230.9343050947716
 21
424.3515806618908
 31
0.0
  0
LINE
  5
CD64
330
19
100
AcDbEntity
  8
0
  6
Continuous
 62
     7
370
    15
100
AcDbLine
 10
226.9343044391205
 20
429.3515807829628
 30
0.0
 11
229.9343030682137
 21
429.3515807829628
 31
0.0
  0
LINE
  5
CD65
330
19
100
AcDbEntity
  8
0
  6
Continuous
 62
     7
370
    15
100
AcDbLine
 10
229.9343030682137
 20
427.3515804551371
 30
0.0
 11
226.9343044391205
 21
427.3515804551371
 31
0.0
  0
LINE
  5
CD66
330
19
100
AcDbEntity
  8
0
  6
Continuous
 62
     7
370
    15
100
AcDbLine
 10
223.9343058100274
 20
427.3515804551371
 30
0.0
 11
223.9343058100274
 21
426.3515807568856
 31
0.0
  0
LINE
  5
CD67
330
19
100
AcDbEntity
  8
0
  6
Continuous
 62
     7
370
    15
100
AcDbLine
 10
225.9343061378529
 20
426.3515807568856
 30
0.0
 11
225.9343061378529
 21
427.3515804551371
 31
0.0
  0
LINE
  5
CD68
330
19
100
AcDbEntity
  8
0
  6
Continuous
 62
     7
370
    15
100
AcDbLine
 10
226.9343044391205
 20
427.3515804551371
 30
0.0
 11
226.9343044391205
 21
429.3515807829628
 31
0.0
  0
ARC
  5
CD69
330
19
100
AcDbEntity
  8
0
  6
Continuous
 62
     7
370
    15
100
AcDbCircle
 10
229.9343042901089
 20
428.3515806488524
 30
0.0
 40
1.000000000000085
100
AcDbArc
 50
0.0
 51
90.0
  0
LINE
  5
CD6A
330
19
100
AcDbEntity
  8
0
  6
Continuous
 62
     7
370
    15
100
AcDbLine
 10
230.9343050947716
 20
428.3515806190499
 30
0.0
 11
230.9343050947716
 21
424.3515806618908
 31
0.0
  0
LINE
  5
CD6B
330
19
100
AcDbEntity
  8
0
  6
Continuous
 62
     7
370
    15
100
AcDbLine
 10
230.9343050947716
 20
427.3515804551371
 30
0.0
 11
229.9343030682137
 21
427.3515804551371
 31
0.0
  0
LINE
  5
CD6C
330
19
100
AcDbEntity
  8
0
  6
Continuous
 62
     7
370
    15
100
AcDbLine
 10
229.9343030682137
 20
429.3515807829628
 30
0.0
 11
229.9343030682137
 21
427.3515804551371
 31
0.0
  0
LINE
  5
CD6D
330
19
100
AcDbEntity
  8
0
  6
Continuous
 62
     7
370
    15
100
AcDbLine
 10
239.1993086567452
 20
438.8515814088115
 30
0.0
 11
239.1993086567452
 21
424.3515806618908
 31
0.0
  0
LINE
  5
CD6E
330
19
100
AcDbEntity
  8
0
  6
Continuous
 62
     7
370
    15
100
AcDbLine
 10
245.2271971633961
 20
427.6444739542732
 30
0.0
 11
252.6414114764264
 21
435.0586873359809
 31
0.0
  0
LINE
  5
CD6F
330
19
100
AcDbEntity
  8
0
  6
Continuous
 62
     7
370
    15
100
AcDbLine
 10
242.1084027519753
 20
426.3515807568856
 30
0.0
 11
250.5668084850838
 21
426.3515807568856
 31
0.0
  0
LINE
  5
CD70
330
19
100
AcDbEntity
  8
0
  6
Continuous
 62
     7
370
    15
100
AcDbLine
 10
250.5668084850838
 20
424.3515806618908
 30
0.0
 11
242.1084027519753
 21
424.3515806618908
 31
0.0
  0
ARC
  5
CD71
330
19
100
AcDbEntity
  8
0
  6
Continuous
 62
     7
370
    15
100
AcDbCircle
 10
244.5200907277365
 20
428.3515806488524
 30
0.0
 40
1.000000000000047
100
AcDbArc
 50
270.0
 51
314.9999999999643
  0
LINE
  5
CD72
330
19
100
AcDbEntity
  8
0
  6
Continuous
 62
     7
370
    15
100
AcDbLine
 10
240.1993106833031
 20
426.3515807568856
 30
0.0
 11
239.1993086567452
 21
426.3515807568856
 31
0.0
  0
LINE
  5
CD73
330
19
100
AcDbEntity
  8
0
  6
Continuous
 62
     7
370
    15
100
AcDbLine
 10
239.1993086567452
 20
424.3515806618908
 30
0.0
 11
240.1993106833031
 21
424.3515806618908
 31
0.0
  0
LINE
  5
CD74
330
19
100
AcDbEntity
  8
0
  6
Continuous
 62
     7
370
    15
100
AcDbLine
 10
240.1993106833031
 20
426.3515807568856
 30
0.0
 11
241.1993089845708
 21
426.3515807568856
 31
0.0
  0
LINE
  5
CD75
330
19
100
AcDbEntity
  8
0
  6
Continuous
 62
     7
370
    15
100
AcDbLine
 10
241.1993089845708
 20
424.3515806618908
 30
0.0
 11
240.1993106833031
 21
424.3515806618908
 31
0.0
  0
LINE
  5
CD76
330
19
100
AcDbEntity
  8
0
  6
Continuous
 62
     7
370
    15
100
AcDbLine
 10
240.1993106833031
 20
424.3515806618908
 30
0.0
 11
240.1993106833031
 21
426.3515807568856
 31
0.0
  0
LINE
  5
CD77
330
19
100
AcDbEntity
  8
0
  6
Continuous
 62
     7
370
    15
100
AcDbLine
 10
241.1993089845708
 20
426.3515807568856
 30
0.0
 11
242.1084027519753
 21
426.3515807568856
 31
0.0
  0
LINE
  5
CD78
330
19
100
AcDbEntity
  8
0
  6
Continuous
 62
     7
370
    15
100
AcDbLine
 10
242.1084027519753
 20
424.3515806618908
 30
0.0
 11
241.1993089845708
 21
424.3515806618908
 31
0.0
  0
LINE
  5
CD79
330
19
100
AcDbEntity
  8
0
  6
Continuous
 62
     7
370
    15
100
AcDbLine
 10
241.1993089845708
 20
424.3515806618908
 30
0.0
 11
241.1993089845708
 21
426.3515807568856
 31
0.0
  0
LINE
  5
CD7A
330
19
100
AcDbEntity
  8
0
  6
Continuous
 62
     7
370
    15
100
AcDbLine
 10
242.1084027519753
 20
426.3515807568856
 30
0.0
 11
242.1084027519753
 21
424.3515806618908
 31
0.0
  0
LINE
  5
CD7B
330
19
100
AcDbEntity
  8
0
  6
Continuous
 62
     7
370
    15
100
AcDbLine
 10
244.5200923612645
 20
427.3515804551371
 30
0.0
 11
239.1993086567452
 21
427.3515804551371
 31
0.0
  0
LINE
  5
CD7C
330
19
100
AcDbEntity
  8
0
  6
Continuous
 62
     7
370
    15
100
AcDbLine
 10
250.5668084850838
 20
426.3515807568856
 30
0.0
 11
250.5668084850838
 21
424.3515806618908
 31
0.0
  0
LINE
  5
CD7D
330
19
100
AcDbEntity
  8
0
  6
Continuous
 62
     7
370
    15
100
AcDbLine
 10
250.9343046477368
 20
427.3515804551371
 30
0.0
 11
250.9343046477368
 21
427.6444739542732
 31
0.0
  0
LINE
  5
CD7E
330
19
100
AcDbEntity
  8
0
  6
Continuous
 62
     7
370
    15
100
AcDbLine
 10
250.9343046477368
 20
427.6444739542732
 30
0.0
 11
250.9343046477368
 21
433.3515805072913
 31
0.0
  0
LINE
  5
CD7F
330
19
100
AcDbEntity
  8
0
  6
Continuous
 62
     7
370
    15
100
AcDbLine
 10
250.8343029549649
 20
433.2515806771645
 30
0.0
 11
250.9343046477368
 21
433.2515806771645
 31
0.0
  0
ARC
  5
CD80
330
19
100
AcDbEntity
  8
0
  6
Continuous
 62
     7
370
    15
100
AcDbCircle
 10
237.1993102949143
 20
438.8515806488522
 30
0.0
 40
2.000000000000027
100
AcDbArc
 50
0.0
 51
90.0
  0
LINE
  5
CD81
330
19
100
AcDbEntity
  8
0
  6
Continuous
 62
     7
370
    15
100
AcDbLine
 10
250.9343046477368
 20
441.3515808872708
 30
0.0
 11
249.9343026211789
 21
441.3515808872708
 31
0.0
  0
LINE
  5
CD82
330
19
100
AcDbEntity
  8
0
  6
Continuous
 62
     7
370
    15
100
AcDbLine
 10
250.9343046477368
 20
439.3515805594453
 30
0.0
 11
250.9343046477368
 21
441.3515808872708
 31
0.0
  0
LINE
  5
CD83
330
19
100
AcDbEntity
  8
0
  6
Continuous
 62
     7
370
    15
100
AcDbLine
 10
248.9343043199113
 20
443.3515812150965
 30
0.0
 11
249.9343026211789
 21
443.3515812150965
 31
0.0
  0
LINE
  5
CD84
330
19
100
AcDbEntity
  8
0
  6
Continuous
 62
     7
370
    15
100
AcDbLine
 10
249.9343026211789
 20
441.3515808872708
 30
0.0
 11
248.9343043199113
 21
441.3515808872708
 31
0.0
  0
LINE
  5
CD85
330
19
100
AcDbEntity
  8
0
  6
Continuous
 62
     7
370
    15
100
AcDbLine
 10
249.9343026211789
 20
443.3515812150965
 30
0.0
 11
249.9343026211789
 21
441.3515808872708
 31
0.0
  0
LINE
  5
CD86
330
19
100
AcDbEntity
  8
0
  6
Continuous
 62
     7
370
    15
100
AcDbLine
 10
248.9343043199113
 20
440.3515807233581
 30
0.0
 11
248.9343043199113
 21
443.3515812150965
 31
0.0
  0
LINE
  5
CD87
330
19
100
AcDbEntity
  8
0
  6
Continuous
 62
     7
370
    15
100
AcDbLine
 10
249.9343026211789
 20
439.3515805594453
 30
0.0
 11
251.9343029490044
 21
439.3515805594453
 31
0.0
  0
ARC
  5
CD88
330
19
100
AcDbEntity
  8
0
  6
Continuous
 62
     7
370
    15
100
AcDbCircle
 10
249.9343042901089
 20
440.3515806488524
 30
0.0
 40
1.000000000000013
100
AcDbArc
 50
180.0
 51
270.0
  0
LINE
  5
CD89
330
19
100
AcDbEntity
  8
0
  6
Continuous
 62
     7
370
    15
100
AcDbLine
 10
253.4343059888413
 20
431.4515809409151
 30
0.0
 11
253.4343059888413
 21
439.2515807293186
 31
0.0
  0
LINE
  5
CD8A
330
19
100
AcDbEntity
  8
0
  6
Continuous
 62
     7
370
    15
100
AcDbLine
 10
256.9343019059231
 20
426.3515807568856
 30
0.0
 11
256.9343019059231
 21
438.8515814088115
 31
0.0
  0
LINE
  5
CD8B
330
19
100
AcDbEntity
  8
0
  6
Continuous
 62
     7
370
    15
100
AcDbLine
 10
254.9343053033879
 20
426.3515807568856
 30
0.0
 11
254.9343053033879
 21
438.8515814088115
 31
0.0
  0
LINE
  5
CD8C
330
19
100
AcDbEntity
  8
0
  6
Continuous
 62
     7
370
    15
100
AcDbLine
 10
252.9343049755623
 20
435.0586873359809
 30
0.0
 11
252.9343049755623
 21
427.6444739542732
 31
0.0
  0
LINE
  5
CD8D
330
19
100
AcDbEntity
  8
0
  6
Continuous
 62
     7
370
    15
100
AcDbLine
 10
254.4343042901089
 20
438.2515805654057
 30
0.0
 11
254.4343042901089
 21
432.4515811048279
 31
0.0
  0
LINE
  5
CD8E
330
19
100
AcDbEntity
  8
0
  6
Continuous
 62
     7
370
    15
100
AcDbLine
 10
252.9343049755623
 20
427.6444739542732
 30
0.0
 11
252.9343049755623
 21
427.3515804551371
 31
0.0
  0
LINE
  5
CD8F
330
19
100
AcDbEntity
  8
0
  6
Continuous
 62
     7
370
    15
100
AcDbLine
 10
252.9343049755623
 20
431.4515809409151
 30
0.0
 11
253.4343059888413
 21
431.4515809409151
 31
0.0
  0
ARC
  5
CD90
330
19
100
AcDbEntity
  8
0
  6
Continuous
 62
     7
370
    15
100
AcDbCircle
 10
253.4343042901089
 20
432.4515806488521
 30
0.0
 40
1.000000000000085
100
AcDbArc
 50
270.0
 51
0.0
  0
LINE
  5
CD91
330
19
100
AcDbEntity
  8
0
  6
Continuous
 62
     7
370
    15
100
AcDbLine
 10
256.9343019059231
 20
440.8515798739919
 30
0.0
 11
256.9343019059231
 21
438.8515814088115
 31
0.0
  0
LINE
  5
CD92
330
19
100
AcDbEntity
  8
0
  6
Continuous
 62
     7
370
    15
100
AcDbLine
 10
254.9343053033879
 20
438.8515814088115
 30
0.0
 11
254.9343053033879
 21
440.8515798739919
 31
0.0
  0
LINE
  5
CD93
330
19
100
AcDbEntity
  8
0
  6
Continuous
 62
     7
370
    15
100
AcDbLine
 10
256.9343019059231
 20
438.8515814088115
 30
0.0
 11
254.9343053033879
 21
438.8515814088115
 31
0.0
  0
LINE
  5
CD94
330
19
100
AcDbEntity
  8
0
  6
Continuous
 62
     7
370
    15
100
AcDbLine
 10
254.9343053033879
 20
440.8515798739919
 30
0.0
 11
256.9343019059231
 21
440.8515798739919
 31
0.0
  0
LINE
  5
CD95
330
19
100
AcDbEntity
  8
0
  6
Continuous
 62
     7
370
    15
100
AcDbLine
 10
252.9343049755623
 20
439.3515805594453
 30
0.0
 11
252.9343049755623
 21
443.3515812150965
 31
0.0
  0
LINE
  5
CD96
330
19
100
AcDbEntity
  8
0
  6
Continuous
 62
     7
370
    15
100
AcDbLine
 10
252.9343049755623
 20
435.7657940007577
 30
0.0
 11
252.9343049755623
 21
435.0586873359809
 31
0.0
  0
LINE
  5
CD97
330
19
100
AcDbEntity
  8
0
  6
Continuous
 62
     7
370
    15
100
AcDbLine
 10
252.9343049755623
 20
439.3515805594453
 30
0.0
 11
252.9343049755623
 21
438.3515803955326
 31
0.0
  0
LINE
  5
CD98
330
19
100
AcDbEntity
  8
0
  6
Continuous
 62
     7
370
    15
100
AcDbLine
 10
252.9343049755623
 20
438.3515803955326
 30
0.0
 11
252.9343049755623
 21
435.7657940007577
 31
0.0
  0
LINE
  5
CD99
330
19
100
AcDbEntity
  8
0
  6
Continuous
 62
     7
370
    15
100
AcDbLine
 10
253.4343059888413
 20
439.2515807293186
 30
0.0
 11
252.9343049755623
 21
439.2515807293186
 31
0.0
  0
ARC
  5
CD9A
330
19
100
AcDbEntity
  8
0
  6
Continuous
 62
     7
370
    15
100
AcDbCircle
 10
253.4343042901089
 20
438.2515806488521
 30
0.0
 40
1.000000000000013
100
AcDbArc
 50
0.0
 51
90.0
  0
LINE
  5
CD9B
330
19
100
AcDbEntity
  8
0
  6
Continuous
 62
     7
370
    15
100
AcDbLine
 10
269.9343058994343
 20
424.3515806618908
 30
0.0
 11
269.9343058994343
 21
426.3515807568856
 31
0.0
  0
LINE
  5
CD9D
330
19
100
AcDbEntity
  8
0
  6
Continuous
 62
     7
370
    15
100
AcDbLine
 10
513.8379300829268
 20
201.4645971339037
 30
0.0
 11
513.8379300829268
 21
255.9946074597378
 31
0.0
  0
LINE
  5
CD9E
330
19
100
AcDbEntity
  8
0
  6
Continuous
 62
     7
370
    15
100
AcDbLine
 10
515.8379266854622
 20
201.4645971339037
 30
0.0
 11
515.8379266854622
 21
255.9946074597378
 31
0.0
  0
LINE
  5
CD9F
330
19
100
AcDbEntity
  8
0
  6
Continuous
 62
     7
370
    15
100
AcDbLine
 10
607.8379268642761
 20
255.9946074597378
 30
0.0
 11
607.8379268642761
 21
201.4645971339037
 31
0.0
  0
LINE
  5
CDA0
330
19
100
AcDbEntity
  8
0
  6
Continuous
 62
     7
370
    15
100
AcDbLine
 10
605.8379283990957
 20
255.9946074597378
 30
0.0
 11
605.8379283990957
 21
201.4645971339037
 31
0.0
  0
LINE
  5
CDA4
330
19
100
AcDbEntity
  8
0
  6
Continuous
 62
     7
370
    15
100
AcDbLine
 10
603.8379280712701
 20
190.2295984309008
 30
0.0
 11
603.8379280712701
 21
268.2296019028713
 31
0.0
  0
CIRCLE
  5
CDA5
330
19
100
AcDbEntity
  8
0
  6
Continuous
 62
     7
370
    15
100
AcDbCircle
 10
560.8379276987411
 20
229.2296014707376
 30
0.0
 40
30.0
  0
LINE
  5
CDA6
330
19
100
AcDbEntity
  8
0
  6
Continuous
 62
     7
370
    15
100
AcDbLine
 10
517.8379270132876
 20
190.2295984309008
 30
0.0
 11
517.8379270132876
 21
268.2296019028713
 31
0.0
  0
LINE
  5
CDA7
330
19
100
AcDbEntity
  8
0
  6
Continuous
 62
     7
370
    15
100
AcDbLine
 10
399.6160594536871
 20
199.4645968060781
 30
0.0
 11
399.6160594536871
 21
257.9946075547328
 31
0.0
  0
LINE
  5
CDA8
330
19
100
AcDbEntity
  8
0
  6
Continuous
 62
     7
370
    15
100
AcDbLine
 10
416.1160586657882
 20
201.4645971339037
 30
0.0
 11
416.1160586657882
 21
255.9946074597378
 31
0.0
  0
LINE
  5
CDA9
330
19
100
AcDbEntity
  8
0
  6
Continuous
 62
     7
370
    15
100
AcDbLine
 10
418.6160600068927
 20
190.2295984309008
 30
0.0
 11
418.6160600068927
 21
268.2296019028713
 31
0.0
  0
ARC
  5
CDAB
330
19
100
AcDbEntity
  8
0
  6
Continuous
 62
     7
370
    15
100
AcDbCircle
 10
510.8379276987411
 20
178.7296014707376
 30
0.0
 40
10.00000000000007
100
AcDbArc
 50
110.4873151147314
 51
339.5126848852755
  0
LINE
  5
CDAC
330
19
100
AcDbEntity
  8
0
  6
Continuous
 62
     7
370
    15
100
AcDbLine
 10
406.7160597327113
 20
185.7296042125513
 30
0.0
 11
414.5160595211148
 21
185.7296042125513
 31
0.0
  0
LINE
  5
CDAD
330
19
100
AcDbEntity
  8
0
  6
Continuous
 62
     7
370
    15
100
AcDbLine
 10
414.1160602006078
 20
199.4645968060781
 30
0.0
 11
399.6160594536871
 21
199.4645968060781
 31
0.0
  0
LINE
  5
CDAE
330
19
100
AcDbEntity
  8
0
  6
Continuous
 62
     7
370
    15
100
AcDbLine
 10
411.0302727925539
 20
186.2295977752496
 30
0.0
 11
410.3231661277771
 21
186.2295977752496
 31
0.0
  0
LINE
  5
CDAF
330
19
100
AcDbEntity
  8
0
  6
Continuous
 62
     7
370
    15
100
AcDbLine
 10
410.3231661277771
 20
188.2296018283655
 30
0.0
 11
411.0302727925539
 21
188.2296018283655
 31
0.0
  0
ARC
  5
CDB0
330
19
100
AcDbEntity
  8
0
  6
Continuous
 62
     7
370
    15
100
AcDbCircle
 10
411.0302730030218
 20
189.3296014707378
 30
0.0
 40
1.000000000000013
100
AcDbArc
 50
224.9999999999908
 51
270.0
  0
LINE
  5
CDB1
330
19
100
AcDbEntity
  8
0
  6
Continuous
 62
     7
370
    15
100
AcDbLine
 10
413.5160593572019
 20
184.7296021859934
 30
0.0
 11
407.7160598966241
 21
184.7296021859934
 31
0.0
  0
LINE
  5
CDB2
330
19
100
AcDbEntity
  8
0
  6
Continuous
 62
     7
370
    15
100
AcDbLine
 10
401.616059548682
 20
168.729599563389
 30
0.0
 11
401.616059548682
 21
188.0971007030298
 31
0.0
  0
LINE
  5
CDB3
330
19
100
AcDbEntity
  8
0
  6
Continuous
 62
     7
370
    15
100
AcDbLine
 10
399.6160594536871
 20
168.729599563389
 30
0.0
 11
399.6160594536871
 21
188.0971007030298
 31
0.0
  0
LINE
  5
CDB4
330
19
100
AcDbEntity
  8
0
  6
Continuous
 62
     7
370
    15
100
AcDbLine
 10
406.6160599025845
 20
183.7296001594355
 30
0.0
 11
406.6160599025845
 21
186.2295977752496
 31
0.0
  0
LINE
  5
CDB5
330
19
100
AcDbEntity
  8
0
  6
Continuous
 62
     7
370
    15
100
AcDbLine
 10
406.7160597327113
 20
186.2295977752496
 30
0.0
 11
406.7160597327113
 21
185.7296042125513
 31
0.0
  0
LINE
  5
CDB6
330
19
100
AcDbEntity
  8
0
  6
Continuous
 62
     7
370
    15
100
AcDbLine
 10
399.6160594536871
 20
168.729599563389
 30
0.0
 11
401.616059548682
 21
168.729599563389
 31
0.0
  0
LINE
  5
CDB7
330
19
100
AcDbEntity
  8
0
  6
Continuous
 62
     7
370
    15
100
AcDbLine
 10
407.6160602006076
 20
183.7296001594355
 30
0.0
 11
401.616059548682
 21
183.7296001594355
 31
0.0
  0
LINE
  5
CDB8
330
19
100
AcDbEntity
  8
0
  6
Continuous
 62
     7
370
    15
100
AcDbLine
 10
407.6160602006076
 20
181.7296035569001
 30
0.0
 11
401.616059548682
 21
181.7296035569001
 31
0.0
  0
LINE
  5
CDB9
330
19
100
AcDbEntity
  8
0
  6
Continuous
 62
     7
370
    15
100
AcDbLine
 10
407.6160602006076
 20
183.7296001594355
 30
0.0
 11
409.616058665788
 21
183.7296001594355
 31
0.0
  0
LINE
  5
CDBA
330
19
100
AcDbEntity
  8
0
  6
Continuous
 62
     7
370
    15
100
AcDbLine
 10
407.6160602006076
 20
181.7296035569001
 30
0.0
 11
407.6160602006076
 21
183.7296001594355
 31
0.0
  0
LINE
  5
CDBB
330
19
100
AcDbEntity
  8
0
  6
Continuous
 62
     7
370
    15
100
AcDbLine
 10
409.616058665788
 20
181.7296035569001
 30
0.0
 11
407.6160602006076
 21
181.7296035569001
 31
0.0
  0
LINE
  5
CDBC
330
19
100
AcDbEntity
  8
0
  6
Continuous
 62
     7
370
    15
100
AcDbLine
 10
409.616058665788
 20
183.7296001594355
 30
0.0
 11
409.616058665788
 21
181.7296035569001
 31
0.0
  0
LINE
  5
CDBD
330
19
100
AcDbEntity
  8
0
  6
Continuous
 62
     7
370
    15
100
AcDbLine
 10
409.4160598027468
 20
184.7296021859934
 30
0.0
 11
408.2160590472578
 21
183.7296001594355
 31
0.0
  0
ARC
  5
CDBE
330
19
100
AcDbEntity
  8
0
  6
Continuous
 62
     7
370
    15
100
AcDbCircle
 10
407.7160594406489
 20
185.7296014707376
 30
0.0
 40
1.000000000000013
100
AcDbArc
 50
179.999999999987
 51
270.0
  0
LINE
  5
CDBF
330
19
100
AcDbEntity
  8
0
  6
Continuous
 62
     7
370
    15
100
AcDbLine
 10
401.616059548682
 20
197.4645964782526
 30
0.0
 11
401.616059548682
 21
196.555502710848
 31
0.0
  0
LINE
  5
CDC0
330
19
100
AcDbEntity
  8
0
  6
Continuous
 62
     7
370
    15
100
AcDbLine
 10
399.6160594536871
 20
196.555502710848
 30
0.0
 11
399.6160594536871
 21
197.4645964782526
 31
0.0
  0
LINE
  5
CDC1
330
19
100
AcDbEntity
  8
0
  6
Continuous
 62
     7
370
    15
100
AcDbLine
 10
402.6160592469333
 20
199.4645968060781
 30
0.0
 11
402.6160592469333
 21
196.7438161354353
 31
0.0
  0
ARC
  5
CDC2
330
19
100
AcDbEntity
  8
0
  6
Continuous
 62
     7
370
    15
100
AcDbCircle
 10
403.2160594406489
 20
189.8296014707378
 30
0.0
 40
1.600000000000108
100
AcDbArc
 50
180.0
 51
269.9999999948541
  0
LINE
  5
CDC3
330
19
100
AcDbEntity
  8
0
  6
Continuous
 62
     7
370
    15
100
AcDbLine
 10
401.616059548682
 20
189.8295991103936
 30
0.0
 11
403.2160596246779
 21
189.8295991103936
 31
0.0
  0
LINE
  5
CDC4
330
19
100
AcDbEntity
  8
0
  6
Continuous
 62
     7
370
    15
100
AcDbLine
 10
401.616059548682
 20
191.8296031635096
 30
0.0
 11
403.2160596246779
 21
191.8296031635096
 31
0.0
  0
LINE
  5
CDC5
330
19
100
AcDbEntity
  8
0
  6
Continuous
 62
     7
370
    15
100
AcDbLine
 10
402.9089527460694
 20
186.2295977752496
 30
0.0
 11
402.6160592469333
 21
186.2295977752496
 31
0.0
  0
LINE
  5
CDC6
330
19
100
AcDbEntity
  8
0
  6
Continuous
 62
     7
370
    15
100
AcDbLine
 10
402.6160592469333
 20
188.2296018283655
 30
0.0
 11
402.9089527460694
 21
188.2296018283655
 31
0.0
  0
ARC
  5
CDC7
330
19
100
AcDbEntity
  8
0
  6
Continuous
 62
     7
370
    15
100
AcDbCircle
 10
403.6160594406493
 20
196.7438150331109
 30
0.0
 40
1.000000000000047
100
AcDbArc
 50
180.0
 51
224.9999999999355
  0
LINE
  5
CDC8
330
19
100
AcDbEntity
  8
0
  6
Continuous
 62
     7
370
    15
100
AcDbLine
 10
401.616059548682
 20
196.555502710848
 30
0.0
 11
401.616059548682
 21
188.0971007030298
 31
0.0
  0
LINE
  5
CDC9
330
19
100
AcDbEntity
  8
0
  6
Continuous
 62
     7
370
    15
100
AcDbLine
 10
399.6160594536871
 20
188.0971007030298
 30
0.0
 11
399.6160594536871
 21
196.555502710848
 31
0.0
  0
LINE
  5
CDCA
330
19
100
AcDbEntity
  8
0
  6
Continuous
 62
     7
370
    15
100
AcDbLine
 10
401.616059548682
 20
196.555502710848
 30
0.0
 11
399.6160594536871
 21
196.555502710848
 31
0.0
  0
LINE
  5
CDCB
330
19
100
AcDbEntity
  8
0
  6
Continuous
 62
     7
370
    15
100
AcDbLine
 10
401.616059548682
 20
188.0971007030298
 30
0.0
 11
399.6160594536871
 21
188.0971007030298
 31
0.0
  0
LINE
  5
CDCC
330
19
100
AcDbEntity
  8
0
  6
Continuous
 62
     7
370
    15
100
AcDbLine
 10
402.6160592469333
 20
186.2295977752496
 30
0.0
 11
402.6160592469333
 21
188.2296018283655
 31
0.0
  0
LINE
  5
CDCD
330
19
100
AcDbEntity
  8
0
  6
Continuous
 62
     7
370
    15
100
AcDbLine
 10
409.2160592111707
 20
189.7296048682024
 30
0.0
 11
408.5160594689607
 21
189.7296048682024
 31
0.0
  0
LINE
  5
CDCE
330
19
100
AcDbEntity
  8
0
  6
Continuous
 62
     7
370
    15
100
AcDbLine
 10
405.2160594868421
 20
193.7296017985632
 30
0.0
 11
405.2160594868421
 21
192.2296024840166
 31
0.0
  0
LINE
  5
CDCF
330
19
100
AcDbEntity
  8
0
  6
Continuous
 62
     7
370
    15
100
AcDbLine
 10
405.2160594868421
 20
192.2296024840166
 30
0.0
 11
403.2160596246779
 21
192.2296024840166
 31
0.0
  0
LINE
  5
CDD0
330
19
100
AcDbEntity
  8
0
  6
Continuous
 62
     7
370
    15
100
AcDbLine
 10
403.2160596246779
 20
194.2296028118422
 30
0.0
 11
403.2160596246779
 21
195.7296021263887
 31
0.0
  0
LINE
  5
CDD1
330
19
100
AcDbEntity
  8
0
  6
Continuous
 62
     7
370
    15
100
AcDbLine
 10
403.2160596246779
 20
194.2296028118422
 30
0.0
 11
404.7160594048857
 21
194.2296028118422
 31
0.0
  0
LINE
  5
CDD2
330
19
100
AcDbEntity
  8
0
  6
Continuous
 62
     7
370
    15
100
AcDbLine
 10
406.6160599025845
 20
189.8295991103936
 30
0.0
 11
406.6160599025845
 21
192.3296004514982
 31
0.0
  0
LINE
  5
CDD3
330
19
100
AcDbEntity
  8
0
  6
Continuous
 62
     7
370
    15
100
AcDbLine
 10
408.5261615249276
 20
189.8295991103936
 30
0.0
 11
403.2160596246779
 21
189.8295991103936
 31
0.0
  0
LINE
  5
CDD4
330
19
100
AcDbEntity
  8
0
  6
Continuous
 62
     7
370
    15
100
AcDbLine
 10
403.2160596246779
 20
191.8296031635096
 30
0.0
 11
403.2160596246779
 21
189.8295991103936
 31
0.0
  0
LINE
  5
CDD5
330
19
100
AcDbEntity
  8
0
  6
Continuous
 62
     7
370
    15
100
AcDbLine
 10
403.2160596246779
 20
195.7296021263887
 30
0.0
 11
403.2160596246779
 21
191.8296031635096
 31
0.0
  0
LINE
  5
CDD6
330
19
100
AcDbEntity
  8
0
  6
Continuous
 62
     7
370
    15
100
AcDbLine
 10
410.3231661277771
 20
186.2295977752496
 30
0.0
 11
402.9089527460694
 21
186.2295977752496
 31
0.0
  0
LINE
  5
CDD7
330
19
100
AcDbEntity
  8
0
  6
Continuous
 62
     7
370
    15
100
AcDbLine
 10
402.9089527460694
 20
188.2296018283655
 30
0.0
 11
410.3231661277771
 21
188.2296018283655
 31
0.0
  0
LINE
  5
CDD8
330
19
100
AcDbEntity
  8
0
  6
Continuous
 62
     7
370
    15
100
AcDbLine
 10
402.9089527460694
 20
188.2296018283655
 30
0.0
 11
402.9089527460694
 21
186.2295977752496
 31
0.0
  0
LINE
  5
CDD9
330
19
100
AcDbEntity
  8
0
  6
Continuous
 62
     7
370
    15
100
AcDbLine
 10
410.3231661277771
 20
186.2295977752496
 30
0.0
 11
410.3231661277771
 21
188.2296018283655
 31
0.0
  0
LINE
  5
CDDA
330
19
100
AcDbEntity
  8
0
  6
Continuous
 62
     7
370
    15
100
AcDbLine
 10
402.9089527460694
 20
196.0367076080133
 30
0.0
 11
410.3231661277771
 21
188.6224932949831
 31
0.0
  0
ARC
  5
CDDB
330
19
100
AcDbEntity
  8
0
  6
Continuous
 62
     7
370
    15
100
AcDbCircle
 10
409.0160594406491
 20
189.7296014707377
 30
0.0
 40
0.5000000000000479
100
AcDbArc
 50
118.570059810507
 51
180.0
  0
LINE
  5
CDDC
330
19
100
AcDbEntity
  8
0
  6
Continuous
 62
     7
370
    15
100
AcDbLine
 10
408.5160594689607
 20
189.7296048682024
 30
0.0
 11
408.5160594689607
 21
188.2296018283655
 31
0.0
  0
LINE
  5
CDDD
330
19
100
AcDbEntity
  8
0
  6
Continuous
 62
     7
370
    15
100
AcDbLine
 10
401.616059548682
 20
199.4645968060781
 30
0.0
 11
401.616059548682
 21
198.4645947795202
 31
0.0
  0
LINE
  5
CDDE
330
19
100
AcDbEntity
  8
0
  6
Continuous
 62
     7
370
    15
100
AcDbLine
 10
399.6160594536871
 20
199.4645968060781
 30
0.0
 11
399.6160594536871
 21
198.4645947795202
 31
0.0
  0
LINE
  5
CDDF
330
19
100
AcDbEntity
  8
0
  6
Continuous
 62
     7
370
    15
100
AcDbLine
 10
401.616059548682
 20
198.4645947795202
 30
0.0
 11
401.616059548682
 21
197.4645964782526
 31
0.0
  0
LINE
  5
CDE0
330
19
100
AcDbEntity
  8
0
  6
Continuous
 62
     7
370
    15
100
AcDbLine
 10
399.6160594536871
 20
197.4645964782526
 30
0.0
 11
399.6160594536871
 21
198.4645947795202
 31
0.0
  0
LINE
  5
CDE1
330
19
100
AcDbEntity
  8
0
  6
Continuous
 62
     7
370
    15
100
AcDbLine
 10
399.6160594536871
 20
198.4645947795202
 30
0.0
 11
401.616059548682
 21
198.4645947795202
 31
0.0
  0
LINE
  5
CDE2
330
19
100
AcDbEntity
  8
0
  6
Continuous
 62
     7
370
    15
100
AcDbLine
 10
399.6160594536871
 20
197.4645964782526
 30
0.0
 11
401.616059548682
 21
197.4645964782526
 31
0.0
  0
LINE
  5
CDE3
330
19
100
AcDbEntity
  8
0
  6
Continuous
 62
     7
370
    15
100
AcDbLine
 10
414.5160595211148
 20
185.7296042125513
 30
0.0
 11
414.5160595211148
 21
186.2295977752496
 31
0.0
  0
ARC
  5
CDE4
330
19
100
AcDbEntity
  8
0
  6
Continuous
 62
     7
370
    15
100
AcDbCircle
 10
413.5160594406499
 20
185.7296014707376
 30
0.0
 40
1.000000000000013
100
AcDbArc
 50
270.0
 51
0.0000000000130276
  0
LINE
  5
CDE5
330
19
100
AcDbEntity
  8
0
  6
Continuous
 62
     7
370
    15
100
AcDbLine
 10
415.6160595151543
 20
186.2295977752496
 30
0.0
 11
418.6160600068927
 21
186.2295977752496
 31
0.0
  0
LINE
  5
CDE6
330
19
100
AcDbEntity
  8
0
  6
Continuous
 62
     7
370
    15
100
AcDbLine
 10
418.6160600068927
 20
189.2296038549234
 30
0.0
 11
416.6160596790671
 21
189.2296038549234
 31
0.0
  0
LINE
  5
CDE7
330
19
100
AcDbEntity
  8
0
  6
Continuous
 62
     7
370
    15
100
AcDbLine
 10
414.6160593512416
 20
190.2295984309008
 30
0.0
 11
418.6160600068927
 21
190.2295984309008
 31
0.0
  0
ARC
  5
CDE8
330
19
100
AcDbEntity
  8
0
  6
Continuous
 62
     7
370
    15
100
AcDbCircle
 10
413.7160594406489
 20
189.8296014707378
 30
0.0
 40
1.600000000000035
100
AcDbArc
 50
270.0
 51
0.0000000058705406
  0
LINE
  5
CDE9
330
19
100
AcDbEntity
  8
0
  6
Continuous
 62
     7
370
    15
100
AcDbLine
 10
415.3160600247741
 20
189.8295991103936
 30
0.0
 11
415.3160600247741
 21
190.2295984309008
 31
0.0
  0
LINE
  5
CDEA
330
19
100
AcDbEntity
  8
0
  6
Continuous
 62
     7
370
    15
100
AcDbLine
 10
415.6160595151543
 20
188.2296018283655
 30
0.0
 11
416.6160596790671
 21
188.2296018283655
 31
0.0
  0
LINE
  5
CDEB
330
19
100
AcDbEntity
  8
0
  6
Continuous
 62
     7
370
    15
100
AcDbLine
 10
416.6160596790671
 20
188.2296018283655
 30
0.0
 11
416.6160596790671
 21
189.2296038549234
 31
0.0
  0
LINE
  5
CDEC
330
19
100
AcDbEntity
  8
0
  6
Continuous
 62
     7
370
    15
100
AcDbLine
 10
415.6160595151543
 20
186.2295977752496
 30
0.0
 11
414.6160593512416
 21
186.2295977752496
 31
0.0
  0
LINE
  5
CDED
330
19
100
AcDbEntity
  8
0
  6
Continuous
 62
     7
370
    15
100
AcDbLine
 10
414.6160593512416
 20
188.2296018283655
 30
0.0
 11
415.6160595151543
 21
188.2296018283655
 31
0.0
  0
LINE
  5
CDEE
330
19
100
AcDbEntity
  8
0
  6
Continuous
 62
     7
370
    15
100
AcDbLine
 10
415.6160595151543
 20
188.2296018283655
 30
0.0
 11
415.6160595151543
 21
186.2295977752496
 31
0.0
  0
LINE
  5
CDEF
330
19
100
AcDbEntity
  8
0
  6
Continuous
 62
     7
370
    15
100
AcDbLine
 10
416.6160596790671
 20
189.2296038549234
 30
0.0
 11
416.6160596790671
 21
190.2295984309008
 31
0.0
  0
LINE
  5
CDF0
330
19
100
AcDbEntity
  8
0
  6
Continuous
 62
     7
370
    15
100
AcDbLine
 10
411.0302727925539
 20
186.2295977752496
 30
0.0
 11
413.6160591873288
 21
186.2295977752496
 31
0.0
  0
LINE
  5
CDF1
330
19
100
AcDbEntity
  8
0
  6
Continuous
 62
     7
370
    15
100
AcDbLine
 10
413.6160591873288
 20
188.2296018283655
 30
0.0
 11
411.0302727925539
 21
188.2296018283655
 31
0.0
  0
LINE
  5
CDF2
330
19
100
AcDbEntity
  8
0
  6
Continuous
 62
     7
370
    15
100
AcDbLine
 10
411.0302727925539
 20
188.2296018283655
 30
0.0
 11
411.0302727925539
 21
186.2295977752496
 31
0.0
  0
LINE
  5
CDF3
330
19
100
AcDbEntity
  8
0
  6
Continuous
 62
     7
370
    15
100
AcDbLine
 10
414.6160593512416
 20
186.2295977752496
 30
0.0
 11
413.6160591873288
 21
186.2295977752496
 31
0.0
  0
LINE
  5
CDF4
330
19
100
AcDbEntity
  8
0
  6
Continuous
 62
     7
370
    15
100
AcDbLine
 10
413.6160591873288
 20
188.2296018283655
 30
0.0
 11
414.6160593512416
 21
188.2296018283655
 31
0.0
  0
LINE
  5
CDF5
330
19
100
AcDbEntity
  8
0
  6
Continuous
 62
     7
370
    15
100
AcDbLine
 10
413.6160591873288
 20
186.2295977752496
 30
0.0
 11
413.6160591873288
 21
188.2296018283655
 31
0.0
  0
LINE
  5
CDF6
330
19
100
AcDbEntity
  8
0
  6
Continuous
 62
     7
370
    15
100
AcDbLine
 10
414.6160593512416
 20
188.2296018283655
 30
0.0
 11
414.6160593512416
 21
186.2295977752496
 31
0.0
  0
LINE
  5
CDF7
330
19
100
AcDbEntity
  8
0
  6
Continuous
 62
     7
370
    15
100
AcDbLine
 10
413.6160591873288
 20
188.3296035211374
 30
0.0
 11
411.0302727925539
 21
188.3296035211374
 31
0.0
  0
ARC
  5
CDF8
330
19
100
AcDbEntity
  8
0
  6
Continuous
 62
     7
370
    15
100
AcDbCircle
 10
413.6160594406493
 20
189.3296014707378
 30
0.0
 40
1.000000000000085
100
AcDbArc
 50
270.0
 51
0.0
  0
LINE
  5
CDF9
330
19
100
AcDbEntity
  8
0
  6
Continuous
 62
     7
370
    15
100
AcDbLine
 10
414.6160593512416
 20
190.2295984309008
 30
0.0
 11
414.6160593512416
 21
189.3295980971148
 31
0.0
  0
LINE
  5
CDFA
330
19
100
AcDbEntity
  8
0
  6
Continuous
 62
     7
370
    15
100
AcDbLine
 10
412.7160597848654
 20
188.2296018283655
 30
0.0
 11
412.7160597848654
 21
188.3296035211374
 31
0.0
  0
LINE
  5
CDFB
330
19
100
AcDbEntity
  8
0
  6
Continuous
 62
     7
370
    15
100
AcDbLine
 10
418.6160600068927
 20
186.2295977752496
 30
0.0
 11
418.6160600068927
 21
189.2296038549234
 31
0.0
  0
LINE
  5
CDFC
330
19
100
AcDbEntity
  8
0
  6
Continuous
 62
     7
370
    15
100
AcDbLine
 10
418.6160600068927
 20
190.2295984309008
 30
0.0
 11
418.6160600068927
 21
189.2296038549234
 31
0.0
  0
ARC
  5
CDFD
330
19
100
AcDbEntity
  8
0
  6
Continuous
 62
     7
370
    15
100
AcDbCircle
 10
414.1160594406485
 20
201.464595465933
 30
0.0
 40
2.000000000000027
100
AcDbArc
 50
270.0
 51
0.0
  0
LINE
  5
CDFE
330
19
100
AcDbEntity
  8
0
  6
Continuous
 62
     7
370
    15
100
AcDbLine
 10
588.1029332872726
 20
183.7296001594355
 30
0.0
 11
533.5729199346401
 21
183.7296001594355
 31
0.0
  0
LINE
  5
CDFF
330
19
100
AcDbEntity
  8
0
  6
Continuous
 62
     7
370
    15
100
AcDbLine
 10
588.1029332872726
 20
181.7296035569001
 30
0.0
 11
533.5729199346401
 21
181.7296035569001
 31
0.0
  0
LINE
  5
CE04
330
19
100
AcDbEntity
  8
0
  6
Continuous
 62
     7
370
    15
100
AcDbLine
 10
521.8379276689388
 20
186.2295977752496
 30
0.0
 11
599.837927415619
 21
186.2295977752496
 31
0.0
  0
LINE
  5
CE0D
330
19
100
AcDbEntity
  8
0
  6
CENTER1
 62
     7
100
AcDbLine
 10
523.3379276987411
 20
199.2296014707376
 30
0.0
 11
538.3379276987411
 21
199.2296014707376
 31
0.0
  0
LINE
  5
CE0E
330
19
100
AcDbEntity
  8
0
  6
Continuous
 62
     7
370
    15
100
AcDbLine
 10
535.8379262384272
 20
185.7296042125513
 30
0.0
 11
539.7379289265968
 21
185.7296042125513
 31
0.0
  0
LINE
  5
CE0F
330
19
100
AcDbEntity
  8
0
  6
Continuous
 62
     7
370
    15
100
AcDbLine
 10
538.7379269000389
 20
184.7296021859934
 30
0.0
 11
535.8379262384272
 21
184.7296021859934
 31
0.0
  0
LINE
  5
CE10
330
19
100
AcDbEntity
  8
0
  6
Continuous
 62
     7
370
    15
100
AcDbLine
 10
531.937927275548
 20
186.2295977752496
 30
0.0
 11
531.937927275548
 21
185.7296042125513
 31
0.0
  0
ARC
  5
CE11
330
19
100
AcDbEntity
  8
0
  6
Continuous
 62
     7
370
    15
100
AcDbCircle
 10
529.5729216939356
 20
171.7296014707376
 30
0.0
 40
10.00000000000002
100
AcDbArc
 50
95.21590857045588
 51
159.5126848852755
  0
CIRCLE
  5
CE12
330
19
100
AcDbEntity
  8
0
  6
Continuous
 62
     7
370
    15
100
AcDbCircle
 10
510.8379276987411
 20
178.7296014707376
 30
0.0
 40
2.5
  0
ARC
  5
CE13
330
19
100
AcDbEntity
  8
0
  6
Continuous
 62
     7
370
    15
100
AcDbCircle
 10
528.5729216939357
 20
182.6840526208409
 30
0.0
 40
0.999999999999976
100
AcDbArc
 50
275.2159085704493
 51
0.0
  0
LINE
  5
CE14
330
19
100
AcDbEntity
  8
0
  6
Continuous
 62
     7
370
    15
100
AcDbLine
 10
531.937927275548
 20
185.7296042125513
 30
0.0
 11
535.8379262384272
 21
185.7296042125513
 31
0.0
  0
LINE
  5
CE15
330
19
100
AcDbEntity
  8
0
  6
Continuous
 62
     7
370
    15
100
AcDbLine
 10
529.5729230042793
 20
182.7295981328775
 30
0.0
 11
529.5729230042793
 21
182.6840527336885
 31
0.0
  0
ARC
  5
CE16
330
19
100
AcDbEntity
  8
0
  6
Continuous
 62
     7
370
    15
100
AcDbCircle
 10
530.5729216939356
 20
182.7296014707376
 30
0.0
 40
1.000000000000227
100
AcDbArc
 50
90.0
 51
180.0
  0
LINE
  5
CE17
330
19
100
AcDbEntity
  8
0
  6
Continuous
 62
     7
370
    15
100
AcDbLine
 10
531.5729233321047
 20
183.7296001594355
 30
0.0
 11
530.5729213055468
 21
183.7296001594355
 31
0.0
  0
LINE
  5
CE18
330
19
100
AcDbEntity
  8
0
  6
Continuous
 62
     7
370
    15
100
AcDbLine
 10
531.5729233321047
 20
183.7296001594355
 30
0.0
 11
533.5729199346401
 21
183.7296001594355
 31
0.0
  0
LINE
  5
CE19
330
19
100
AcDbEntity
  8
0
  6
Continuous
 62
     7
370
    15
100
AcDbLine
 10
533.5729199346401
 20
181.7296035569001
 30
0.0
 11
531.5729233321047
 21
181.7296035569001
 31
0.0
  0
LINE
  5
CE1A
330
19
100
AcDbEntity
  8
0
  6
Continuous
 62
     7
370
    15
100
AcDbLine
 10
531.5729233321047
 20
181.7296035569001
 30
0.0
 11
531.5729233321047
 21
183.7296001594355
 31
0.0
  0
LINE
  5
CE1B
330
19
100
AcDbEntity
  8
0
  6
Continuous
 62
     7
370
    15
100
AcDbLine
 10
533.5729199346401
 20
183.7296001594355
 30
0.0
 11
533.5729199346401
 21
181.7296035569001
 31
0.0
  0
LINE
  5
CE1C
330
19
100
AcDbEntity
  8
0
  6
Continuous
 62
     7
370
    15
100
AcDbLine
 10
535.8379262384272
 20
184.7296021859934
 30
0.0
 11
532.9379293021061
 21
184.7296021859934
 31
0.0
  0
ARC
  5
CE1D
330
19
100
AcDbEntity
  8
0
  6
Continuous
 62
     7
370
    15
100
AcDbCircle
 10
532.9379276987406
 20
185.7296014707376
 30
0.0
 40
1.000000000000013
100
AcDbArc
 50
180.0
 51
270.0
  0
ARC
  5
CE1E
330
19
100
AcDbEntity
  8
0
  6
Continuous
 62
     7
370
    15
100
AcDbCircle
 10
523.3379276987411
 20
191.2296014707376
 30
0.0
 40
2.50000000000022
100
AcDbArc
 50
204.1895141490905
 51
233.1301023592116
  0
LINE
  5
CE1F
330
19
100
AcDbEntity
  8
0
  6
Continuous
 62
     7
370
    15
100
AcDbLine
 10
521.8379276689388
 20
186.2295977752496
 30
0.0
 11
520.8379293676712
 21
186.2295977752496
 31
0.0
  0
LINE
  5
CE20
330
19
100
AcDbEntity
  8
0
  6
Continuous
 62
     7
370
    15
100
AcDbLine
 10
520.8379293676712
 20
188.2296018283655
 30
0.0
 11
521.8379276689388
 21
188.2296018283655
 31
0.0
  0
ARC
  5
CE21
330
19
100
AcDbEntity
  8
0
  6
Continuous
 62
     7
370
    15
100
AcDbCircle
 10
520.8379276987411
 20
189.2296014707376
 30
0.0
 40
1.000000000000085
100
AcDbArc
 50
0.0
 51
90.0
  0
ARC
  5
CE22
330
19
100
AcDbEntity
  8
0
  6
Continuous
 62
     7
370
    15
100
AcDbCircle
 10
514.7923788488436
 20
196.4645954659329
 30
0.0
 40
1.000000000000053
100
AcDbArc
 50
90.0
 51
174.7840914295489
  0
ARC
  5
CE23
330
19
100
AcDbEntity
  8
0
  6
Continuous
 62
     7
370
    15
100
AcDbCircle
 10
503.8379276987411
 20
197.4645954659329
 30
0.0
 40
9.999999999999973
100
AcDbArc
 50
290.4873151147239
 51
354.7840914295457
  0
LINE
  5
CE24
330
19
100
AcDbEntity
  8
0
  6
Continuous
 62
     7
370
    15
100
AcDbLine
 10
518.8379290398456
 20
186.2295977752496
 30
0.0
 11
517.8379270132876
 21
186.2295977752496
 31
0.0
  0
LINE
  5
CE25
330
19
100
AcDbEntity
  8
0
  6
Continuous
 62
     7
370
    15
100
AcDbLine
 10
517.8379270132876
 20
188.2296018283655
 30
0.0
 11
518.8379290398456
 21
188.2296018283655
 31
0.0
  0
LINE
  5
CE26
330
19
100
AcDbEntity
  8
0
  6
Continuous
 62
     7
370
    15
100
AcDbLine
 10
517.8379270132876
 20
186.2295977752496
 30
0.0
 11
517.8379270132876
 21
188.2296018283655
 31
0.0
  0
LINE
  5
CE27
330
19
100
AcDbEntity
  8
0
  6
Continuous
 62
     7
370
    15
100
AcDbLine
 10
517.8379270132876
 20
190.2295984309008
 30
0.0
 11
517.8379270132876
 21
189.3295980971148
 31
0.0
  0
LINE
  5
CE28
330
19
100
AcDbEntity
  8
0
  6
Continuous
 62
     7
370
    15
100
AcDbLine
 10
519.8379273411132
 20
190.2295984309008
 30
0.0
 11
519.8379273411132
 21
189.3295980971148
 31
0.0
  0
LINE
  5
CE29
330
19
100
AcDbEntity
  8
0
  6
Continuous
 62
     7
370
    15
100
AcDbLine
 10
517.8379270132876
 20
188.3296035211374
 30
0.0
 11
517.8379270132876
 21
189.3295980971148
 31
0.0
  0
LINE
  5
CE2A
330
19
100
AcDbEntity
  8
0
  6
Continuous
 62
     7
370
    15
100
AcDbLine
 10
519.8379273411132
 20
189.3295980971148
 30
0.0
 11
519.8379273411132
 21
188.3296035211374
 31
0.0
  0
LINE
  5
CE2B
330
19
100
AcDbEntity
  8
0
  6
Continuous
 62
     7
370
    15
100
AcDbLine
 10
517.8379270132876
 20
189.3295980971148
 30
0.0
 11
519.8379273411132
 21
189.3295980971148
 31
0.0
  0
LINE
  5
CE2C
330
19
100
AcDbEntity
  8
0
  6
Continuous
 62
     7
370
    15
100
AcDbLine
 10
519.8379273411132
 20
188.3296035211374
 30
0.0
 11
517.8379270132876
 21
188.3296035211374
 31
0.0
  0
LINE
  5
CE2D
330
19
100
AcDbEntity
  8
0
  6
Continuous
 62
     7
370
    15
100
AcDbLine
 10
518.8379290398456
 20
186.2295977752496
 30
0.0
 11
520.8379293676712
 21
186.2295977752496
 31
0.0
  0
LINE
  5
CE2E
330
19
100
AcDbEntity
  8
0
  6
Continuous
 62
     7
370
    15
100
AcDbLine
 10
518.8379290398456
 20
188.2296018283655
 30
0.0
 11
520.8379293676712
 21
188.2296018283655
 31
0.0
  0
LINE
  5
CE2F
330
19
100
AcDbEntity
  8
0
  6
Continuous
 62
     7
370
    15
100
AcDbLine
 10
518.8379290398456
 20
188.2296018283655
 30
0.0
 11
518.8379290398456
 21
186.2295977752496
 31
0.0
  0
LINE
  5
CE30
330
19
100
AcDbEntity
  8
0
  6
Continuous
 62
     7
370
    15
100
AcDbLine
 10
520.8379293676712
 20
186.2295977752496
 30
0.0
 11
520.8379293676712
 21
188.2296018283655
 31
0.0
  0
LINE
  5
CE31
330
19
100
AcDbEntity
  8
0
  6
Continuous
 62
     7
370
    15
100
AcDbLine
 10
520.8379293676712
 20
190.2295984309008
 30
0.0
 11
517.8379270132876
 21
190.2295984309008
 31
0.0
  0
LINE
  5
CE32
330
19
100
AcDbEntity
  8
0
  6
Continuous
 62
     7
370
    15
100
AcDbLine
 10
515.8379266854622
 20
199.4645968060781
 30
0.0
 11
515.8379266854622
 21
198.4645947795202
 31
0.0
  0
ARC
  5
CE33
330
19
100
AcDbEntity
  8
0
  6
Continuous
 62
     7
370
    15
100
AcDbCircle
 10
514.8379276987393
 20
198.4645954659329
 30
0.0
 40
1.000000000000227
100
AcDbArc
 50
270.0
 51
0.0
  0
LINE
  5
CE34
330
19
100
AcDbEntity
  8
0
  6
Continuous
 62
     7
370
    15
100
AcDbLine
 10
514.8379246589041
 20
197.4645964782526
 30
0.0
 11
514.7923792597151
 21
197.4645964782526
 31
0.0
  0
LINE
  5
CE35
330
19
100
AcDbEntity
  8
0
  6
Continuous
 62
     7
370
    15
100
AcDbLine
 10
515.8379266854622
 20
201.4645971339037
 30
0.0
 11
515.8379266854622
 21
199.4645968060781
 31
0.0
  0
LINE
  5
CE36
330
19
100
AcDbEntity
  8
0
  6
Continuous
 62
     7
370
    15
100
AcDbLine
 10
513.8379300829268
 20
201.4645971339037
 30
0.0
 11
515.8379266854622
 21
201.4645971339037
 31
0.0
  0
LINE
  5
CE37
330
19
100
AcDbEntity
  8
0
  6
Continuous
 62
     7
370
    15
100
AcDbLine
 10
513.8379300829268
 20
199.4645968060781
 30
0.0
 11
513.8379300829268
 21
201.4645971339037
 31
0.0
  0
LINE
  5
CE38
330
19
100
AcDbEntity
  8
0
  6
Continuous
 62
     7
370
    15
100
AcDbLine
 10
515.8379266854622
 20
199.4645968060781
 30
0.0
 11
513.8379300829268
 21
199.4645968060781
 31
0.0
  0
LINE
  5
CE39
330
19
100
AcDbEntity
  8
0
  6
CENTER1
 62
     7
100
AcDbLine
 10
530.8379276987412
 20
206.7296014707376
 30
0.0
 11
530.8379276987412
 21
191.7296014707376
 31
0.0
  0
CIRCLE
  5
CE3A
330
19
100
AcDbEntity
  8
0
  6
Continuous
 62
     7
370
    15
100
AcDbCircle
 10
530.8379276987412
 20
199.2296014707376
 30
0.0
 40
2.999999999999828
  0
LINE
  5
CE3B
330
19
100
AcDbEntity
  8
0
  6
Continuous
 62
     7
370
    15
100
AcDbLine
 10
521.8379276689388
 20
186.2295977752496
 30
0.0
 11
521.8379276689388
 21
189.2296038549234
 31
0.0
  0
LINE
  5
CE3C
330
19
100
AcDbEntity
  8
0
  6
Continuous
 62
     7
370
    15
100
AcDbLine
 10
556.3379268046714
 20
186.2295977752496
 30
0.0
 11
556.3379268046714
 21
183.7296001594355
 31
0.0
  0
LINE
  5
CE3D
330
19
100
AcDbEntity
  8
0
  6
Continuous
 62
     7
370
    15
100
AcDbLine
 10
565.3379273485637
 20
183.7296001594355
 30
0.0
 11
565.3379273485637
 21
186.2295977752496
 31
0.0
  0
LINE
  5
CE3E
330
19
100
AcDbEntity
  8
0
  6
Continuous
 62
     7
370
    15
100
AcDbLine
 10
539.7379289265968
 20
185.7296042125513
 30
0.0
 11
539.7379289265968
 21
186.2295977752496
 31
0.0
  0
ARC
  5
CE3F
330
19
100
AcDbEntity
  8
0
  6
Continuous
 62
     7
370
    15
100
AcDbCircle
 10
538.7379276987408
 20
185.7296014707376
 30
0.0
 40
1.000000000000227
100
AcDbArc
 50
270.0
 51
0.0000000000130276
  0
LINE
  5
CE94
330
19
100
AcDbEntity
  8
0
  6
Continuous
 62
     7
370
    15
100
AcDbLine
 10
517.3379260000086
 20
233.1296019237329
 30
0.0
 11
517.3379260000086
 21
229.2296010982086
 31
0.0
  0
LINE
  5
CE95
330
19
100
AcDbEntity
  8
0
  6
Continuous
 62
     7
370
    15
100
AcDbLine
 10
516.3379276987411
 20
229.2296010982086
 30
0.0
 11
516.3379276987411
 21
232.1296017598202
 31
0.0
  0
LINE
  5
CE96
330
19
100
AcDbEntity
  8
0
  6
Continuous
 62
     7
370
    15
100
AcDbLine
 10
517.3379260000086
 20
229.2296010982086
 30
0.0
 11
517.3379260000086
 21
225.3296021353294
 31
0.0
  0
LINE
  5
CE97
330
19
100
AcDbEntity
  8
0
  6
Continuous
 62
     7
370
    15
100
AcDbLine
 10
516.3379276987411
 20
226.3296022992422
 30
0.0
 11
516.3379276987411
 21
229.2296010982086
 31
0.0
  0
ARC
  5
CE98
330
19
100
AcDbEntity
  8
0
  6
Continuous
 62
     7
370
    15
100
AcDbCircle
 10
517.3379276987393
 20
226.3296014707376
 30
0.0
 40
1.000000000000013
100
AcDbArc
 50
180.0
 51
270.0
  0
LINE
  5
CE99
330
19
100
AcDbEntity
  8
0
  6
Continuous
 62
     7
370
    15
100
AcDbLine
 10
517.3379260000086
 20
225.3296021353294
 30
0.0
 11
517.8379270132876
 21
225.3296021353294
 31
0.0
  0
ARC
  5
CE9A
330
19
100
AcDbEntity
  8
0
  6
Continuous
 62
     7
370
    15
100
AcDbCircle
 10
517.3379276987393
 20
232.1296014707378
 30
0.0
 40
0.9999999999999431
100
AcDbArc
 50
90.0
 51
180.0
  0
LINE
  5
CE9B
330
19
100
AcDbEntity
  8
0
  6
Continuous
 62
     7
370
    15
100
AcDbLine
 10
517.8379270132876
 20
233.1296019237329
 30
0.0
 11
517.3379260000086
 21
233.1296019237329
 31
0.0
  0
ARC
  5
CEEE
330
19
100
AcDbEntity
  8
0
  6
Continuous
 62
     7
370
    15
100
AcDbCircle
 10
592.1029337035456
 20
171.7296014707376
 30
0.0
 40
10.00000000000005
100
AcDbArc
 50
20.48731511472448
 51
84.7840914295441
  0
ARC
  5
CEEF
330
19
100
AcDbEntity
  8
0
  6
Continuous
 62
     7
370
    15
100
AcDbCircle
 10
598.3379276987403
 20
191.2296014707376
 30
0.0
 40
2.50000000000025
100
AcDbArc
 50
306.8698976462844
 51
335.8104858455683
  0
LINE
  5
CEF0
330
19
100
AcDbEntity
  8
0
  6
Continuous
 62
     7
370
    15
100
AcDbLine
 10
600.8379275795317
 20
186.2295977752496
 30
0.0
 11
599.837927415619
 21
186.2295977752496
 31
0.0
  0
LINE
  5
CEF1
330
19
100
AcDbEntity
  8
0
  6
Continuous
 62
     7
370
    15
100
AcDbLine
 10
599.837927415619
 20
188.2296018283655
 30
0.0
 11
600.8379275795317
 21
188.2296018283655
 31
0.0
  0
ARC
  5
CEF2
330
19
100
AcDbEntity
  8
0
  6
Continuous
 62
     7
370
    15
100
AcDbCircle
 10
600.8379276987402
 20
189.2296014707376
 30
0.0
 40
1.000000000000085
100
AcDbArc
 50
90.0
 51
180.0
  0
LINE
  5
CEF3
330
19
100
AcDbEntity
  8
0
  6
Continuous
 62
     7
370
    15
100
AcDbLine
 10
589.7379278090097
 20
185.7296042125513
 30
0.0
 11
589.7379278090097
 21
186.2295977752496
 31
0.0
  0
LINE
  5
CEF4
330
19
100
AcDbEntity
  8
0
  6
Continuous
 62
     7
370
    15
100
AcDbLine
 10
581.9379277877755
 20
186.2295977752496
 30
0.0
 11
581.9379277877755
 21
185.7296042125513
 31
0.0
  0
LINE
  5
CEF5
330
19
100
AcDbEntity
  8
0
  6
Continuous
 62
     7
370
    15
100
AcDbLine
 10
581.9379277877755
 20
185.7296042125513
 30
0.0
 11
585.8379279148079
 21
185.7296042125513
 31
0.0
  0
LINE
  5
CEF6
330
19
100
AcDbEntity
  8
0
  6
Continuous
 62
     7
370
    15
100
AcDbLine
 10
585.8379279148079
 20
184.7296021859934
 30
0.0
 11
582.9379277188577
 21
184.7296021859934
 31
0.0
  0
ARC
  5
CEF7
330
19
100
AcDbEntity
  8
0
  6
Continuous
 62
     7
370
    15
100
AcDbCircle
 10
582.9379276987406
 20
185.7296014707376
 30
0.0
 40
1.000000000000013
100
AcDbArc
 50
180.0
 51
270.0
  0
ARC
  5
CEF8
330
19
100
AcDbEntity
  8
0
  6
Continuous
 62
     7
370
    15
100
AcDbCircle
 10
591.1029337035447
 20
182.7296014707376
 30
0.0
 40
1.000000000000227
100
AcDbArc
 50
0.0
 51
90.0
  0
ARC
  5
CEF9
330
19
100
AcDbEntity
  8
0
  6
Continuous
 62
     7
370
    15
100
AcDbCircle
 10
593.1029337035456
 20
182.6840526208409
 30
0.0
 40
0.999999999999976
100
AcDbArc
 50
180.0
 51
264.7840914295507
  0
LINE
  5
CEFA
330
19
100
AcDbEntity
  8
0
  6
Continuous
 62
     7
370
    15
100
AcDbLine
 10
585.8379279148079
 20
185.7296042125513
 30
0.0
 11
589.7379278090097
 21
185.7296042125513
 31
0.0
  0
LINE
  5
CEFB
330
19
100
AcDbEntity
  8
0
  6
Continuous
 62
     7
370
    15
100
AcDbLine
 10
590.1029336150982
 20
183.7296001594355
 30
0.0
 11
591.1029337790108
 21
183.7296001594355
 31
0.0
  0
LINE
  5
CEFC
330
19
100
AcDbEntity
  8
0
  6
Continuous
 62
     7
370
    15
100
AcDbLine
 10
588.1029332872726
 20
183.7296001594355
 30
0.0
 11
590.1029336150982
 21
183.7296001594355
 31
0.0
  0
LINE
  5
CEFD
330
19
100
AcDbEntity
  8
0
  6
Continuous
 62
     7
370
    15
100
AcDbLine
 10
588.1029332872726
 20
181.7296035569001
 30
0.0
 11
588.1029332872726
 21
183.7296001594355
 31
0.0
  0
LINE
  5
CEFE
330
19
100
AcDbEntity
  8
0
  6
Continuous
 62
     7
370
    15
100
AcDbLine
 10
590.1029336150982
 20
181.7296035569001
 30
0.0
 11
588.1029332872726
 21
181.7296035569001
 31
0.0
  0
LINE
  5
CEFF
330
19
100
AcDbEntity
  8
0
  6
Continuous
 62
     7
370
    15
100
AcDbLine
 10
590.1029336150982
 20
183.7296001594355
 30
0.0
 11
590.1029336150982
 21
181.7296035569001
 31
0.0
  0
LINE
  5
CF00
330
19
100
AcDbEntity
  8
0
  6
Continuous
 62
     7
370
    15
100
AcDbLine
 10
588.7379276450968
 20
184.7296021859934
 30
0.0
 11
585.8379279148079
 21
184.7296021859934
 31
0.0
  0
ARC
  5
CF01
330
19
100
AcDbEntity
  8
0
  6
Continuous
 62
     7
370
    15
100
AcDbCircle
 10
588.7379276987408
 20
185.7296014707376
 30
0.0
 40
1.000000000000013
100
AcDbArc
 50
270.0
 51
0.0000000000130276
  0
LINE
  5
CF02
330
19
100
AcDbEntity
  8
0
  6
Continuous
 62
     7
370
    15
100
AcDbLine
 10
592.1029339429237
 20
182.7295981328775
 30
0.0
 11
592.1029339429237
 21
182.6840527336885
 31
0.0
  0
LINE
  5
CF03
330
19
100
AcDbEntity
  8
0
  6
CENTER1
 62
     7
100
AcDbLine
 10
583.3379276987402
 20
199.2296014707376
 30
0.0
 11
598.3379276987403
 21
199.2296014707376
 31
0.0
  0
LINE
  5
CF27
330
19
100
AcDbEntity
  8
0
  6
CENTER1
 62
     7
100
AcDbLine
 10
590.8379276987402
 20
206.7296014707376
 30
0.0
 11
590.8379276987402
 21
191.7296014707376
 31
0.0
  0
CIRCLE
  5
CF28
330
19
100
AcDbEntity
  8
0
  6
Continuous
 62
     7
370
    15
100
AcDbCircle
 10
590.8379276987402
 20
199.2296014707376
 30
0.0
 40
3.000000000000397
  0
LINE
  5
CF29
330
19
100
AcDbEntity
  8
0
  6
Continuous
 62
     7
370
    15
100
AcDbLine
 10
599.837927415619
 20
189.2296038549234
 30
0.0
 11
599.837927415619
 21
186.2295977752496
 31
0.0
  0
ARC
  5
CF2A
330
19
100
AcDbEntity
  8
0
  6
Continuous
 62
     7
370
    15
100
AcDbCircle
 10
610.8379276987403
 20
178.7296014707376
 30
0.0
 40
10.00000000000007
100
AcDbArc
 50
200.4873151147245
 51
69.5126848852761
  0
CIRCLE
  5
CF2B
330
19
100
AcDbEntity
  8
0
  6
Continuous
 62
     7
370
    15
100
AcDbCircle
 10
610.8379276987403
 20
178.7296014707376
 30
0.0
 40
2.5
  0
ARC
  5
CF2C
330
19
100
AcDbEntity
  8
0
  6
Continuous
 62
     7
370
    15
100
AcDbCircle
 10
606.8834765486376
 20
196.4645954659329
 30
0.0
 40
1.000000000000053
100
AcDbArc
 50
5.215908570449419
 51
90.0
  0
ARC
  5
CF2D
330
19
100
AcDbEntity
  8
0
  6
Continuous
 62
     7
370
    15
100
AcDbCircle
 10
617.8379276987402
 20
197.4645954659329
 30
0.0
 40
9.999999999999973
100
AcDbArc
 50
185.2159085704542
 51
249.5126848852761
  0
LINE
  5
CF2E
330
19
100
AcDbEntity
  8
0
  6
Continuous
 62
     7
370
    15
100
AcDbLine
 10
600.8379275795317
 20
186.2295977752496
 30
0.0
 11
602.8379279073574
 21
186.2295977752496
 31
0.0
  0
LINE
  5
CF2F
330
19
100
AcDbEntity
  8
0
  6
Continuous
 62
     7
370
    15
100
AcDbLine
 10
602.8379279073574
 20
188.2296018283655
 30
0.0
 11
600.8379275795317
 21
188.2296018283655
 31
0.0
  0
LINE
  5
CF30
330
19
100
AcDbEntity
  8
0
  6
Continuous
 62
     7
370
    15
100
AcDbLine
 10
603.8379280712701
 20
189.3295980971148
 30
0.0
 11
603.8379280712701
 21
188.3296035211374
 31
0.0
  0
LINE
  5
CF31
330
19
100
AcDbEntity
  8
0
  6
Continuous
 62
     7
370
    15
100
AcDbLine
 10
601.8379277434446
 20
188.3296035211374
 30
0.0
 11
601.8379277434446
 21
189.3295980971148
 31
0.0
  0
LINE
  5
CF32
330
19
100
AcDbEntity
  8
0
  6
Continuous
 62
     7
370
    15
100
AcDbLine
 10
603.8379280712701
 20
188.3296035211374
 30
0.0
 11
601.8379277434446
 21
188.3296035211374
 31
0.0
  0
LINE
  5
CF33
330
19
100
AcDbEntity
  8
0
  6
Continuous
 62
     7
370
    15
100
AcDbLine
 10
603.8379280712701
 20
189.3295980971148
 30
0.0
 11
603.8379280712701
 21
190.2295984309008
 31
0.0
  0
LINE
  5
CF34
330
19
100
AcDbEntity
  8
0
  6
Continuous
 62
     7
370
    15
100
AcDbLine
 10
601.8379277434446
 20
190.2295984309008
 30
0.0
 11
601.8379277434446
 21
189.3295980971148
 31
0.0
  0
LINE
  5
CF35
330
19
100
AcDbEntity
  8
0
  6
Continuous
 62
     7
370
    15
100
AcDbLine
 10
601.8379277434446
 20
189.3295980971148
 30
0.0
 11
603.8379280712701
 21
189.3295980971148
 31
0.0
  0
LINE
  5
CF36
330
19
100
AcDbEntity
  8
0
  6
Continuous
 62
     7
370
    15
100
AcDbLine
 10
603.8379280712701
 20
186.2295977752496
 30
0.0
 11
602.8379279073574
 21
186.2295977752496
 31
0.0
  0
LINE
  5
CF37
330
19
100
AcDbEntity
  8
0
  6
Continuous
 62
     7
370
    15
100
AcDbLine
 10
602.8379279073574
 20
188.2296018283655
 30
0.0
 11
603.8379280712701
 21
188.2296018283655
 31
0.0
  0
LINE
  5
CF38
330
19
100
AcDbEntity
  8
0
  6
Continuous
 62
     7
370
    15
100
AcDbLine
 10
603.8379280712701
 20
188.2296018283655
 30
0.0
 11
603.8379280712701
 21
186.2295977752496
 31
0.0
  0
LINE
  5
CF39
330
19
100
AcDbEntity
  8
0
  6
Continuous
 62
     7
370
    15
100
AcDbLine
 10
602.8379279073574
 20
186.2295977752496
 30
0.0
 11
602.8379279073574
 21
188.2296018283655
 31
0.0
  0
LINE
  5
CF3A
330
19
100
AcDbEntity
  8
0
  6
Continuous
 62
     7
370
    15
100
AcDbLine
 10
600.8379275795317
 20
188.2296018283655
 30
0.0
 11
600.8379275795317
 21
186.2295977752496
 31
0.0
  0
LINE
  5
CF3B
330
19
100
AcDbEntity
  8
0
  6
Continuous
 62
     7
370
    15
100
AcDbLine
 10
603.8379280712701
 20
190.2295984309008
 30
0.0
 11
600.8379275795317
 21
190.2295984309008
 31
0.0
  0
LINE
  5
CF3C
330
19
100
AcDbEntity
  8
0
  6
Continuous
 62
     7
370
    15
100
AcDbLine
 10
607.8379268642761
 20
199.4645968060781
 30
0.0
 11
605.8379283990957
 21
199.4645968060781
 31
0.0
  0
LINE
  5
CF3D
330
19
100
AcDbEntity
  8
0
  6
Continuous
 62
     7
370
    15
100
AcDbLine
 10
605.8379283990957
 20
201.4645971339037
 30
0.0
 11
607.8379268642761
 21
201.4645971339037
 31
0.0
  0
LINE
  5
CF3E
330
19
100
AcDbEntity
  8
0
  6
Continuous
 62
     7
370
    15
100
AcDbLine
 10
606.8379285630085
 20
197.4645964782526
 30
0.0
 11
606.8834758248426
 21
197.4645964782526
 31
0.0
  0
ARC
  5
CF3F
330
19
100
AcDbEntity
  8
0
  6
Continuous
 62
     7
370
    15
100
AcDbCircle
 10
606.8379276987402
 20
198.4645954659329
 30
0.0
 40
1.000000000000227
100
AcDbArc
 50
180.0
 51
270.0
  0
LINE
  5
CF40
330
19
100
AcDbEntity
  8
0
  6
Continuous
 62
     7
370
    15
100
AcDbLine
 10
605.8379283990957
 20
198.4645947795202
 30
0.0
 11
605.8379283990957
 21
199.4645968060781
 31
0.0
  0
LINE
  5
CF41
330
19
100
AcDbEntity
  8
0
  6
Continuous
 62
     7
370
    15
100
AcDbLine
 10
605.8379283990957
 20
199.4645968060781
 30
0.0
 11
605.8379283990957
 21
201.4645971339037
 31
0.0
  0
LINE
  5
CF42
330
19
100
AcDbEntity
  8
0
  6
Continuous
 62
     7
370
    15
100
AcDbLine
 10
607.8379268642761
 20
201.4645971339037
 30
0.0
 11
607.8379268642761
 21
199.4645968060781
 31
0.0
  0
LINE
  5
CF49
330
19
100
AcDbEntity
  8
0
  6
Continuous
 62
     7
370
    15
100
AcDbLine
 10
604.337927221904
 20
225.3296021353294
 30
0.0
 11
604.337927221904
 21
233.1296019237329
 31
0.0
  0
LINE
  5
CF4A
330
19
100
AcDbEntity
  8
0
  6
Continuous
 62
     7
370
    15
100
AcDbLine
 10
605.3379273858167
 20
232.1296017598202
 30
0.0
 11
605.3379273858167
 21
226.3296022992422
 31
0.0
  0
LINE
  5
CF4B
330
19
100
AcDbEntity
  8
0
  6
Continuous
 62
     7
370
    15
100
AcDbLine
 10
603.8379280712701
 20
225.3296021353294
 30
0.0
 11
604.337927221904
 21
225.3296021353294
 31
0.0
  0
ARC
  5
CF4C
330
19
100
AcDbEntity
  8
0
  6
Continuous
 62
     7
370
    15
100
AcDbCircle
 10
604.3379276987402
 20
226.3296014707376
 30
0.0
 40
1.000000000000013
100
AcDbArc
 50
270.0
 51
0.0
  0
LINE
  5
CF4D
330
19
100
AcDbEntity
  8
0
  6
Continuous
 62
     7
370
    15
100
AcDbLine
 10
604.337927221904
 20
233.1296019237329
 30
0.0
 11
603.8379280712701
 21
233.1296019237329
 31
0.0
  0
ARC
  5
CF4E
330
19
100
AcDbEntity
  8
0
  6
Continuous
 62
     7
370
    15
100
AcDbCircle
 10
604.3379276987402
 20
232.1296014707378
 30
0.0
 40
0.9999999999999431
100
AcDbArc
 50
0.0
 51
90.0
  0
ARC
  5
CF5A
330
19
100
AcDbEntity
  8
0
  6
Continuous
 62
     7
370
    15
100
AcDbCircle
 10
510.8379276987411
 20
278.7296014707376
 30
0.0
 40
10.00000000000007
100
AcDbArc
 50
20.48731511472448
 51
249.5126848852686
  0
LINE
  5
CF5C
330
19
100
AcDbEntity
  8
0
  6
Continuous
 62
     7
370
    15
100
AcDbLine
 10
414.5160595211148
 20
272.7296017091562
 30
0.0
 11
406.7160597327113
 21
272.7296017091562
 31
0.0
  0
LINE
  5
CF5D
330
19
100
AcDbEntity
  8
0
  6
Continuous
 62
     7
370
    15
100
AcDbLine
 10
414.1160602006078
 20
275.7296022008945
 30
0.0
 11
401.616059548682
 21
275.7296022008945
 31
0.0
  0
LINE
  5
CF5E
330
19
100
AcDbEntity
  8
0
  6
Continuous
 62
     7
370
    15
100
AcDbLine
 10
414.1160602006078
 20
273.729601873069
 30
0.0
 11
401.616059548682
 21
273.729601873069
 31
0.0
  0
LINE
  5
CF5F
330
19
100
AcDbEntity
  8
0
  6
Continuous
 62
     7
370
    15
100
AcDbLine
 10
399.6160594536871
 20
257.9946075547328
 30
0.0
 11
414.1160602006078
 21
257.9946075547328
 31
0.0
  0
LINE
  5
CF60
330
19
100
AcDbEntity
  8
0
  6
Continuous
 62
     7
370
    15
100
AcDbLine
 10
405.8764468203246
 20
279.0043577533056
 30
0.0
 11
413.8764458033204
 21
279.0043577533056
 31
0.0
  0
LINE
  5
CF61
330
19
100
AcDbEntity
  8
0
  6
Continuous
 62
     7
370
    15
100
AcDbLine
 10
406.3764464366197
 20
287.0043590646078
 30
0.0
 11
413.3764466526866
 21
287.0043590646078
 31
0.0
  0
LINE
  5
CF62
330
19
100
AcDbEntity
  8
0
  6
Continuous
 62
     7
370
    15
100
AcDbLine
 10
408.4775762888551
 20
283.0043565463116
 30
0.0
 11
415.1955785485863
 21
283.0043565463116
 31
0.0
  0
LINE
  5
CF63
330
19
100
AcDbEntity
  8
0
  6
Continuous
 62
     7
370
    15
100
AcDbLine
 10
404.3764465744555
 20
286.0043570380499
 30
0.0
 11
415.3764469805121
 21
286.0043570380499
 31
0.0
  0
LINE
  5
CF64
330
19
100
AcDbEntity
  8
0
  6
Continuous
 62
     7
370
    15
100
AcDbLine
 10
410.3231661277771
 20
272.2296006958773
 30
0.0
 11
411.0302727925539
 21
272.2296006958773
 31
0.0
  0
LINE
  5
CF65
330
19
100
AcDbEntity
  8
0
  6
Continuous
 62
     7
370
    15
100
AcDbLine
 10
411.0302727925539
 20
270.2296022306969
 30
0.0
 11
410.3231661277771
 21
270.2296022306969
 31
0.0
  0
ARC
  5
CF66
330
19
100
AcDbEntity
  8
0
  6
Continuous
 62
     7
370
    15
100
AcDbCircle
 10
411.0302730030218
 20
269.1296014707377
 30
0.0
 40
1.000000000000047
100
AcDbArc
 50
90.0
 51
135.0000000000092
  0
LINE
  5
CF67
330
19
100
AcDbEntity
  8
0
  6
Continuous
 62
     7
370
    15
100
AcDbLine
 10
401.616059548682
 20
269.3621041234424
 30
0.0
 11
401.616059548682
 21
288.7296006064703
 31
0.0
  0
LINE
  5
CF68
330
19
100
AcDbEntity
  8
0
  6
Continuous
 62
     7
370
    15
100
AcDbLine
 10
399.6160594536871
 20
269.3621041234424
 30
0.0
 11
399.6160594536871
 21
288.7296006064703
 31
0.0
  0
LINE
  5
CF69
330
19
100
AcDbEntity
  8
0
  6
Continuous
 62
     7
370
    15
100
AcDbLine
 10
404.616059574759
 20
272.2296006958773
 30
0.0
 11
404.616059574759
 21
273.729601873069
 31
0.0
  0
LINE
  5
CF6A
330
19
100
AcDbEntity
  8
0
  6
Continuous
 62
     7
370
    15
100
AcDbLine
 10
402.6160592469333
 20
272.2296006958773
 30
0.0
 11
402.6160592469333
 21
273.729601873069
 31
0.0
  0
LINE
  5
CF6B
330
19
100
AcDbEntity
  8
0
  6
Continuous
 62
     7
370
    15
100
AcDbLine
 10
406.7160597327113
 20
272.7296017091562
 30
0.0
 11
406.7160597327113
 21
272.2296006958773
 31
0.0
  0
LINE
  5
CF6C
330
19
100
AcDbEntity
  8
0
  6
Continuous
 62
     7
370
    15
100
AcDbLine
 10
401.616059548682
 20
269.3621041234424
 30
0.0
 11
401.616059548682
 21
260.9036983903338
 31
0.0
  0
LINE
  5
CF6D
330
19
100
AcDbEntity
  8
0
  6
Continuous
 62
     7
370
    15
100
AcDbLine
 10
399.6160594536871
 20
260.9036983903338
 30
0.0
 11
399.6160594536871
 21
269.3621041234424
 31
0.0
  0
ARC
  5
CF6E
330
19
100
AcDbEntity
  8
0
  6
Continuous
 62
     7
370
    15
100
AcDbCircle
 10
403.6160594406493
 20
261.7153879083644
 30
0.0
 40
1.000000000000047
100
AcDbArc
 50
135.0000000000633
 51
180.0
  0
LINE
  5
CF6F
330
19
100
AcDbEntity
  8
0
  6
Continuous
 62
     7
370
    15
100
AcDbLine
 10
401.616059548682
 20
258.9946072529842
 30
0.0
 11
401.616059548682
 21
257.9946075547328
 31
0.0
  0
LINE
  5
CF70
330
19
100
AcDbEntity
  8
0
  6
Continuous
 62
     7
370
    15
100
AcDbLine
 10
399.6160594536871
 20
258.9946072529842
 30
0.0
 11
399.6160594536871
 21
257.9946075547328
 31
0.0
  0
LINE
  5
CF71
330
19
100
AcDbEntity
  8
0
  6
Continuous
 62
     7
370
    15
100
AcDbLine
 10
401.616059548682
 20
259.994607416897
 30
0.0
 11
401.616059548682
 21
258.9946072529842
 31
0.0
  0
LINE
  5
CF72
330
19
100
AcDbEntity
  8
0
  6
Continuous
 62
     7
370
    15
100
AcDbLine
 10
399.6160594536871
 20
258.9946072529842
 30
0.0
 11
399.6160594536871
 21
259.994607416897
 31
0.0
  0
LINE
  5
CF73
330
19
100
AcDbEntity
  8
0
  6
Continuous
 62
     7
370
    15
100
AcDbLine
 10
401.616059548682
 20
258.9946072529842
 30
0.0
 11
399.6160594536871
 21
258.9946072529842
 31
0.0
  0
LINE
  5
CF74
330
19
100
AcDbEntity
  8
0
  6
Continuous
 62
     7
370
    15
100
AcDbLine
 10
401.616059548682
 20
260.9036983903338
 30
0.0
 11
401.616059548682
 21
259.994607416897
 31
0.0
  0
LINE
  5
CF75
330
19
100
AcDbEntity
  8
0
  6
Continuous
 62
     7
370
    15
100
AcDbLine
 10
399.6160594536871
 20
259.994607416897
 30
0.0
 11
399.6160594536871
 21
260.9036983903338
 31
0.0
  0
LINE
  5
CF76
330
19
100
AcDbEntity
  8
0
  6
Continuous
 62
     7
370
    15
100
AcDbLine
 10
401.616059548682
 20
259.994607416897
 30
0.0
 11
399.6160594536871
 21
259.994607416897
 31
0.0
  0
LINE
  5
CF77
330
19
100
AcDbEntity
  8
0
  6
Continuous
 62
     7
370
    15
100
AcDbLine
 10
399.6160594536871
 20
260.9036983903338
 30
0.0
 11
401.616059548682
 21
260.9036983903338
 31
0.0
  0
LINE
  5
CF78
330
19
100
AcDbEntity
  8
0
  6
Continuous
 62
     7
370
    15
100
AcDbLine
 10
402.6160592469333
 20
261.7153879236271
 30
0.0
 11
402.6160592469333
 21
257.9946075547328
 31
0.0
  0
LINE
  5
CF79
330
19
100
AcDbEntity
  8
0
  6
Continuous
 62
     7
370
    15
100
AcDbLine
 10
402.6160592469333
 20
272.2296006958773
 30
0.0
 11
402.9089527460694
 21
272.2296006958773
 31
0.0
  0
LINE
  5
CF7A
330
19
100
AcDbEntity
  8
0
  6
Continuous
 62
     7
370
    15
100
AcDbLine
 10
402.9089527460694
 20
270.2296022306969
 30
0.0
 11
402.6160592469333
 21
270.2296022306969
 31
0.0
  0
LINE
  5
CF7B
330
19
100
AcDbEntity
  8
0
  6
Continuous
 62
     7
370
    15
100
AcDbLine
 10
399.6160594536871
 20
269.3621041234424
 30
0.0
 11
401.616059548682
 21
269.3621041234424
 31
0.0
  0
LINE
  5
CF7C
330
19
100
AcDbEntity
  8
0
  6
Continuous
 62
     7
370
    15
100
AcDbLine
 10
402.6160592469333
 20
270.2296022306969
 30
0.0
 11
402.6160592469333
 21
272.2296006958773
 31
0.0
  0
LINE
  5
CF7D
330
19
100
AcDbEntity
  8
0
  6
Continuous
 62
     7
370
    15
100
AcDbLine
 10
408.5160594689607
 20
268.7296010535051
 30
0.0
 11
409.2160592111707
 21
268.7296010535051
 31
0.0
  0
LINE
  5
CF7E
330
19
100
AcDbEntity
  8
0
  6
Continuous
 62
     7
370
    15
100
AcDbLine
 10
402.9089527460694
 20
272.2296006958773
 30
0.0
 11
410.3231661277771
 21
272.2296006958773
 31
0.0
  0
LINE
  5
CF7F
330
19
100
AcDbEntity
  8
0
  6
Continuous
 62
     7
370
    15
100
AcDbLine
 10
410.3231661277771
 20
270.2296022306969
 30
0.0
 11
402.9089527460694
 21
270.2296022306969
 31
0.0
  0
LINE
  5
CF80
330
19
100
AcDbEntity
  8
0
  6
Continuous
 62
     7
370
    15
100
AcDbLine
 10
402.9089527460694
 20
272.2296006958773
 30
0.0
 11
402.9089527460694
 21
270.2296022306969
 31
0.0
  0
LINE
  5
CF81
330
19
100
AcDbEntity
  8
0
  6
Continuous
 62
     7
370
    15
100
AcDbLine
 10
410.3231661277771
 20
270.2296022306969
 30
0.0
 11
410.3231661277771
 21
272.2296006958773
 31
0.0
  0
LINE
  5
CF82
330
19
100
AcDbEntity
  8
0
  6
Continuous
 62
     7
370
    15
100
AcDbLine
 10
410.3231661277771
 20
269.8367079701116
 30
0.0
 11
402.9089527460694
 21
262.4224945884039
 31
0.0
  0
LINE
  5
CF83
330
19
100
AcDbEntity
  8
0
  6
Continuous
 62
     7
370
    15
100
AcDbLine
 10
406.8764465185761
 20
270.2296022306969
 30
0.0
 11
406.8764465185761
 21
266.3899883609106
 31
0.0
  0
ARC
  5
CF84
330
19
100
AcDbEntity
  8
0
  6
Continuous
 62
     7
370
    15
100
AcDbCircle
 10
409.0160594406491
 20
268.7296014707377
 30
0.0
 40
0.5000000000000479
100
AcDbArc
 50
180.0
 51
241.4299401894926
  0
LINE
  5
CF85
330
19
100
AcDbEntity
  8
0
  6
Continuous
 62
     7
370
    15
100
AcDbLine
 10
408.5160594689607
 20
270.2296022306969
 30
0.0
 11
408.5160594689607
 21
268.7296010535051
 31
0.0
  0
LINE
  5
CF86
330
19
100
AcDbEntity
  8
0
  6
Continuous
 62
     7
370
    15
100
AcDbLine
 10
404.3764465744555
 20
286.0043570380499
 30
0.0
 11
404.3764465744555
 21
283.0043565463116
 31
0.0
  0
LINE
  5
CF87
330
19
100
AcDbEntity
  8
0
  6
Continuous
 62
     7
370
    15
100
AcDbLine
 10
402.6160592469333
 20
280.2296020071795
 30
0.0
 11
404.616059574759
 21
280.2296020071795
 31
0.0
  0
LINE
  5
CF88
330
19
100
AcDbEntity
  8
0
  6
Continuous
 62
     7
370
    15
100
AcDbLine
 10
404.616059574759
 20
277.2296015154411
 30
0.0
 11
402.6160592469333
 21
277.2296015154411
 31
0.0
  0
LINE
  5
CF89
330
19
100
AcDbEntity
  8
0
  6
Continuous
 62
     7
370
    15
100
AcDbLine
 10
402.6160592469333
 20
275.7296022008945
 30
0.0
 11
402.6160592469333
 21
277.2296015154411
 31
0.0
  0
LINE
  5
CF8A
330
19
100
AcDbEntity
  8
0
  6
Continuous
 62
     7
370
    15
100
AcDbLine
 10
402.6160592469333
 20
277.2296015154411
 30
0.0
 11
402.6160592469333
 21
280.2296020071795
 31
0.0
  0
ARC
  5
CF8B
330
19
100
AcDbEntity
  8
0
  6
Continuous
 62
     7
370
    15
100
AcDbCircle
 10
405.5005472559217
 20
282.8874429085549
 30
0.0
 40
0.5983775884425122
100
AcDbArc
 50
168.7328207740433
 51
219.8072557168976
  0
LINE
  5
CF8C
330
19
100
AcDbEntity
  8
0
  6
Continuous
 62
     7
370
    15
100
AcDbLine
 10
405.8764468203246
 20
282.5043573956778
 30
0.0
 11
405.0408721226215
 21
282.5043573956778
 31
0.0
  0
SPLINE
  5
CF8D
330
19
100
AcDbEntity
  8
0
  6
Continuous
 62
     7
370
    15
100
AcDbSpline
210
0.0
220
0.0
230
1.0
 70
     8
 71
     3
 72
    12
 73
     8
 74
     0
 42
0.0000000001
 43
0.0000000001
 40
0.0
 40
0.0
 40
0.0
 40
0.0
 40
0.2135485738060924
 40
0.4270573570055084
 40
0.6416190188540272
 40
0.8568756504589758
 40
1.0
 40
1.0
 40
1.0
 40
1.0
 10
409.3506232160091
 20
283.0043565463116
 30
0.0
 10
409.3451400354472
 20
282.9483902619813
 30
0.0
 10
409.3341746960051
 20
282.8364681215449
 30
0.0
 10
409.2490191826593
 20
282.6871277323103
 30
0.0
 10
409.1242786071082
 20
282.5738403506737
 30
0.0
 10
408.98608906294
 20
282.5131004198628
 30
0.0
 10
408.8953320491484
 20
282.5068525628731
 30
0.0
 10
408.8590869936108
 20
282.5043573956778
 30
0.0
  0
LINE
  5
CF8E
330
19
100
AcDbEntity
  8
0
  6
Continuous
 62
     7
370
    15
100
AcDbLine
 10
408.6047465237736
 20
282.5043573956778
 30
0.0
 11
408.8590869936108
 21
282.5043573956778
 31
0.0
  0
ARC
  5
CF8F
330
19
100
AcDbEntity
  8
0
  6
Continuous
 62
     7
370
    15
100
AcDbCircle
 10
408.5963857523622
 20
282.9962711457692
 30
0.0
 40
0.4919847965412652
100
AcDbArc
 50
270.9737292268713
 51
0.9416554855666081
  0
LINE
  5
CF90
330
19
100
AcDbEntity
  8
0
  6
Continuous
 62
     7
370
    15
100
AcDbLine
 10
404.3764465744555
 20
283.0043565463116
 30
0.0
 11
408.4775762888551
 21
283.0043565463116
 31
0.0
  0
LINE
  5
CF91
330
19
100
AcDbEntity
  8
0
  6
Continuous
 62
     7
370
    15
100
AcDbLine
 10
404.616059574759
 20
275.7296022008945
 30
0.0
 11
404.616059574759
 21
277.2296015154411
 31
0.0
  0
LINE
  5
CF92
330
19
100
AcDbEntity
  8
0
  6
Continuous
 62
     7
370
    15
100
AcDbLine
 10
404.616059574759
 20
280.2296020071795
 30
0.0
 11
404.616059574759
 21
277.2296015154411
 31
0.0
  0
ARC
  5
CF93
330
19
100
AcDbEntity
  8
0
  6
Continuous
 62
     7
370
    15
100
AcDbCircle
 10
405.0408722800268
 20
283.0043573564585
 30
0.0
 40
0.4999999999999716
100
AcDbArc
 50
180.0
 51
270.0
  0
LINE
  5
CF94
330
19
100
AcDbEntity
  8
0
  6
Continuous
 62
     7
370
    15
100
AcDbLine
 10
405.8764468203246
 20
283.0043565463116
 30
0.0
 11
405.8764468203246
 21
279.0043577533056
 31
0.0
  0
ARC
  5
CF95
330
19
100
AcDbEntity
  8
0
  6
Continuous
 62
     7
370
    15
100
AcDbCircle
 10
408.604746526393
 20
283.0043573564585
 30
0.0
 40
0.4999999999999716
100
AcDbArc
 50
180.0
 51
270.0
  0
LINE
  5
CF96
330
19
100
AcDbEntity
  8
0
  6
Continuous
 62
     7
370
    15
100
AcDbLine
 10
406.8764465185761
 20
273.729601873069
 30
0.0
 11
406.8764465185761
 21
273.272786287575
 31
0.0
  0
LINE
  5
CF97
330
19
100
AcDbEntity
  8
0
  6
Continuous
 62
     7
370
    15
100
AcDbLine
 10
406.8764465185761
 20
279.0043577533056
 30
0.0
 11
406.8764465185761
 21
275.7296022008945
 31
0.0
  0
ARC
  5
CF98
330
19
100
AcDbEntity
  8
0
  6
Continuous
 62
     7
370
    15
100
AcDbCircle
 10
407.7160594406489
 20
272.7296014707377
 30
0.0
 40
0.9999999999999431
100
AcDbArc
 50
90.0
 51
180.0
  0
LINE
  5
CF99
330
19
100
AcDbEntity
  8
0
  6
Continuous
 62
     7
370
    15
100
AcDbLine
 10
401.616059548682
 20
288.7296006064703
 30
0.0
 11
399.6160594536871
 21
288.7296006064703
 31
0.0
  0
ARC
  5
CF9A
330
19
100
AcDbEntity
  8
0
  6
Continuous
 62
     7
370
    15
100
AcDbCircle
 10
406.3764465933521
 20
286.0043573564587
 30
0.0
 40
1.000000000000085
100
AcDbArc
 50
90.0
 51
180.0
  0
LINE
  5
CF9B
330
19
100
AcDbEntity
  8
0
  6
Continuous
 62
     7
370
    15
100
AcDbLine
 10
414.5160595211148
 20
272.2296006958773
 30
0.0
 11
414.5160595211148
 21
272.7296017091562
 31
0.0
  0
ARC
  5
CF9C
330
19
100
AcDbEntity
  8
0
  6
Continuous
 62
     7
370
    15
100
AcDbCircle
 10
414.1160594406485
 20
255.9946074755424
 30
0.0
 40
2.000000000000027
100
AcDbArc
 50
0.0
 51
90.0
  0
LINE
  5
CF9D
330
19
100
AcDbEntity
  8
0
  6
Continuous
 62
     7
370
    15
100
AcDbLine
 10
415.6160595151543
 20
272.2296006958773
 30
0.0
 11
418.6160600068927
 21
272.2296006958773
 31
0.0
  0
LINE
  5
CF9E
330
19
100
AcDbEntity
  8
0
  6
Continuous
 62
     7
370
    15
100
AcDbLine
 10
416.6160596790671
 20
269.2296011354615
 30
0.0
 11
418.6160600068927
 21
269.2296011354615
 31
0.0
  0
LINE
  5
CF9F
330
19
100
AcDbEntity
  8
0
  6
Continuous
 62
     7
370
    15
100
AcDbLine
 10
414.6160593512416
 20
268.2296019028713
 30
0.0
 11
418.6160600068927
 21
268.2296019028713
 31
0.0
  0
LINE
  5
CFA0
330
19
100
AcDbEntity
  8
0
  6
Continuous
 62
     7
370
    15
100
AcDbLine
 10
416.6160596790671
 20
270.2296022306969
 30
0.0
 11
415.6160595151543
 21
270.2296022306969
 31
0.0
  0
LINE
  5
CFA1
330
19
100
AcDbEntity
  8
0
  6
Continuous
 62
     7
370
    15
100
AcDbLine
 10
416.6160596790671
 20
269.2296011354615
 30
0.0
 11
416.6160596790671
 21
270.2296022306969
 31
0.0
  0
LINE
  5
CFA2
330
19
100
AcDbEntity
  8
0
  6
Continuous
 62
     7
370
    15
100
AcDbLine
 10
414.6160593512416
 20
272.2296006958773
 30
0.0
 11
415.6160595151543
 21
272.2296006958773
 31
0.0
  0
LINE
  5
CFA3
330
19
100
AcDbEntity
  8
0
  6
Continuous
 62
     7
370
    15
100
AcDbLine
 10
415.6160595151543
 20
270.2296022306969
 30
0.0
 11
414.6160593512416
 21
270.2296022306969
 31
0.0
  0
LINE
  5
CFA4
330
19
100
AcDbEntity
  8
0
  6
Continuous
 62
     7
370
    15
100
AcDbLine
 10
415.6160595151543
 20
272.2296006958773
 30
0.0
 11
415.6160595151543
 21
270.2296022306969
 31
0.0
  0
LINE
  5
CFA5
330
19
100
AcDbEntity
  8
0
  6
Continuous
 62
     7
370
    15
100
AcDbLine
 10
416.6160596790671
 20
268.2296019028713
 30
0.0
 11
416.6160596790671
 21
269.2296011354615
 31
0.0
  0
LINE
  5
CFA6
330
19
100
AcDbEntity
  8
0
  6
Continuous
 62
     7
370
    15
100
AcDbLine
 10
413.6160591873288
 20
272.2296006958773
 30
0.0
 11
411.0302727925539
 21
272.2296006958773
 31
0.0
  0
LINE
  5
CFA7
330
19
100
AcDbEntity
  8
0
  6
Continuous
 62
     7
370
    15
100
AcDbLine
 10
413.6160591873288
 20
270.2296022306969
 30
0.0
 11
411.0302727925539
 21
270.2296022306969
 31
0.0
  0
LINE
  5
CFA8
330
19
100
AcDbEntity
  8
0
  6
Continuous
 62
     7
370
    15
100
AcDbLine
 10
411.0302727925539
 20
272.2296006958773
 30
0.0
 11
411.0302727925539
 21
270.2296022306969
 31
0.0
  0
LINE
  5
CFA9
330
19
100
AcDbEntity
  8
0
  6
Continuous
 62
     7
370
    15
100
AcDbLine
 10
413.6160591873288
 20
272.2296006958773
 30
0.0
 11
414.6160593512416
 21
272.2296006958773
 31
0.0
  0
LINE
  5
CFAA
330
19
100
AcDbEntity
  8
0
  6
Continuous
 62
     7
370
    15
100
AcDbLine
 10
414.6160593512416
 20
270.2296022306969
 30
0.0
 11
413.6160591873288
 21
270.2296022306969
 31
0.0
  0
LINE
  5
CFAB
330
19
100
AcDbEntity
  8
0
  6
Continuous
 62
     7
370
    15
100
AcDbLine
 10
413.6160591873288
 20
270.2296022306969
 30
0.0
 11
413.6160591873288
 21
272.2296006958773
 31
0.0
  0
LINE
  5
CFAC
330
19
100
AcDbEntity
  8
0
  6
Continuous
 62
     7
370
    15
100
AcDbLine
 10
414.6160593512416
 20
272.2296006958773
 30
0.0
 11
414.6160593512416
 21
270.2296022306969
 31
0.0
  0
LINE
  5
CFAD
330
19
100
AcDbEntity
  8
0
  6
Continuous
 62
     7
370
    15
100
AcDbLine
 10
414.6160593512416
 20
269.1296013053348
 30
0.0
 11
414.6160593512416
 21
268.2296019028713
 31
0.0
  0
ARC
  5
CFAE
330
19
100
AcDbEntity
  8
0
  6
Continuous
 62
     7
370
    15
100
AcDbCircle
 10
413.6160594406493
 20
269.1296014707377
 30
0.0
 40
1.000000000000085
100
AcDbArc
 50
0.0
 51
90.0
  0
LINE
  5
CFAF
330
19
100
AcDbEntity
  8
0
  6
Continuous
 62
     7
370
    15
100
AcDbLine
 10
413.6160591873288
 20
270.1296024005701
 30
0.0
 11
411.0302727925539
 21
270.1296024005701
 31
0.0
  0
LINE
  5
CFB0
330
19
100
AcDbEntity
  8
0
  6
Continuous
 62
     7
370
    15
100
AcDbLine
 10
412.8764465707302
 20
270.1296024005701
 30
0.0
 11
412.8764465707302
 21
270.2296022306969
 31
0.0
  0
LINE
  5
CFB1
330
19
100
AcDbEntity
  8
0
  6
Continuous
 62
     7
370
    15
100
AcDbLine
 10
412.7160597848654
 20
270.1296024005701
 30
0.0
 11
412.7160597848654
 21
270.2296022306969
 31
0.0
  0
LINE
  5
CFB2
330
19
100
AcDbEntity
  8
0
  6
Continuous
 62
     7
370
    15
100
AcDbLine
 10
418.6160600068927
 20
269.2296011354615
 30
0.0
 11
418.6160600068927
 21
272.2296006958773
 31
0.0
  0
LINE
  5
CFB3
330
19
100
AcDbEntity
  8
0
  6
Continuous
 62
     7
370
    15
100
AcDbLine
 10
418.6160600068927
 20
269.2296011354615
 30
0.0
 11
418.6160600068927
 21
268.2296019028713
 31
0.0
  0
LINE
  5
CFB4
330
19
100
AcDbEntity
  8
0
  6
Continuous
 62
     7
370
    15
100
AcDbLine
 10
415.3764469805121
 20
283.0043565463116
 30
0.0
 11
415.3764469805121
 21
286.0043570380499
 31
0.0
  0
LINE
  5
CFB5
330
19
100
AcDbEntity
  8
0
  6
Continuous
 62
     7
370
    15
100
AcDbLine
 10
414.1160602006078
 20
275.7296022008945
 30
0.0
 11
416.1160586657882
 21
275.7296022008945
 31
0.0
  0
LINE
  5
CFB6
330
19
100
AcDbEntity
  8
0
  6
Continuous
 62
     7
370
    15
100
AcDbLine
 10
416.1160586657882
 20
273.729601873069
 30
0.0
 11
414.1160602006078
 21
273.729601873069
 31
0.0
  0
LINE
  5
CFB7
330
19
100
AcDbEntity
  8
0
  6
Continuous
 62
     7
370
    15
100
AcDbLine
 10
416.1160586657882
 20
275.7296022008945
 30
0.0
 11
416.1160586657882
 21
273.729601873069
 31
0.0
  0
LINE
  5
CFB8
330
19
100
AcDbEntity
  8
0
  6
Continuous
 62
     7
370
    15
100
AcDbLine
 10
414.1160602006078
 20
273.729601873069
 30
0.0
 11
414.1160602006078
 21
275.7296022008945
 31
0.0
  0
LINE
  5
CFB9
330
19
100
AcDbEntity
  8
0
  6
Continuous
 62
     7
370
    15
100
AcDbLine
 10
414.7120209666848
 20
282.5043573956778
 30
0.0
 11
413.7449058028817
 21
282.5043573956778
 31
0.0
  0
ARC
  5
CFBA
330
19
100
AcDbEntity
  8
0
  6
Continuous
 62
     7
370
    15
100
AcDbCircle
 10
415.1716948882105
 20
282.8874431468944
 30
0.0
 40
0.5983768101419682
100
AcDbArc
 50
168.7328291970632
 51
219.8073475315079
  0
SPLINE
  5
CFBB
330
19
100
AcDbEntity
  8
0
  6
Continuous
 62
     7
370
    15
100
AcDbSpline
210
0.0
220
0.0
230
1.0
 70
     8
 71
     3
 72
    12
 73
     8
 74
     0
 42
0.0000000001
 43
0.0000000001
 40
0.0
 40
0.0
 40
0.0
 40
0.0
 40
0.2135567751615129
 40
0.4270749160036286
 40
0.6416260666045363
 40
0.8568875339679491
 40
1.0
 40
1.0
 40
1.0
 40
1.0
 10
413.7449058028817
 20
282.5043573956778
 30
0.0
 10
413.7299906155479
 20
282.5098404280871
 30
0.0
 10
413.70016293917
 20
282.5208055009766
 30
0.0
 10
413.6526656740344
 20
282.6062632622651
 30
0.0
 10
413.613295024352
 20
282.732380990444
 30
0.0
 10
413.5906900103146
 20
282.8733290441576
 30
0.0
 10
413.5883352766533
 20
282.9669643678343
 30
0.0
 10
413.5873949411273
 20
283.0043565463116
 30
0.0
  0
LINE
  5
CFBC
330
19
100
AcDbEntity
  8
0
  6
Continuous
 62
     7
370
    15
100
AcDbLine
 10
415.1955785485863
 20
283.0043565463116
 30
0.0
 11
415.3764469805121
 21
283.0043565463116
 31
0.0
  0
ARC
  5
CFBD
330
19
100
AcDbEntity
  8
0
  6
Continuous
 62
     7
370
    15
100
AcDbCircle
 10
414.7120209066781
 20
283.0043573564585
 30
0.0
 40
0.4999999999999716
100
AcDbArc
 50
270.0
 51
0.0
  0
LINE
  5
CFBE
330
19
100
AcDbEntity
  8
0
  6
Continuous
 62
     7
370
    15
100
AcDbLine
 10
413.8764458033204
 20
279.0043577533056
 30
0.0
 11
413.8764458033204
 21
282.5043573956778
 31
0.0
  0
LINE
  5
CFBF
330
19
100
AcDbEntity
  8
0
  6
Continuous
 62
     7
370
    15
100
AcDbLine
 10
412.8764465707302
 20
275.7296022008945
 30
0.0
 11
412.8764465707302
 21
279.0043577533056
 31
0.0
  0
ARC
  5
CFC0
330
19
100
AcDbEntity
  8
0
  6
Continuous
 62
     7
370
    15
100
AcDbCircle
 10
413.5160594406499
 20
272.7296014707377
 30
0.0
 40
0.9999999999999431
100
AcDbArc
 50
0.0
 51
90.0
  0
ARC
  5
CFC1
330
19
100
AcDbEntity
  8
0
  6
Continuous
 62
     7
370
    15
100
AcDbCircle
 10
413.3764465933529
 20
286.0043573564587
 30
0.0
 40
1.000000000000085
100
AcDbArc
 50
0.0
 51
90.0
  0
LINE
  5
CFC3
330
19
100
AcDbEntity
  8
0
  6
Continuous
 62
     7
370
    15
100
AcDbLine
 10
533.5729199346401
 20
273.729601873069
 30
0.0
 11
588.1029332872726
 21
273.729601873069
 31
0.0
  0
LINE
  5
CFC4
330
19
100
AcDbEntity
  8
0
  6
Continuous
 62
     7
370
    15
100
AcDbLine
 10
533.5729199346401
 20
275.7296022008945
 30
0.0
 11
588.1029332872726
 21
275.7296022008945
 31
0.0
  0
ARC
  5
CFC5
330
19
100
AcDbEntity
  8
0
  6
Continuous
 62
     7
370
    15
100
AcDbCircle
 10
568.8379276987411
 20
277.2296014707376
 30
0.0
 40
3.000000000000113
100
AcDbArc
 50
90.0
 51
180.0
  0
LINE
  5
CFC6
330
19
100
AcDbEntity
  8
0
  6
Continuous
 62
     7
370
    15
100
AcDbLine
 10
521.8379276689388
 20
272.2296006958773
 30
0.0
 11
599.837927415619
 21
272.2296006958773
 31
0.0
  0
LINE
  5
CFC7
330
19
100
AcDbEntity
  8
0
  6
CENTER1
 62
     7
100
AcDbLine
 10
523.3379276987411
 20
259.2296014707376
 30
0.0
 11
538.3379276987411
 21
259.2296014707376
 31
0.0
  0
LINE
  5
CFC8
330
19
100
AcDbEntity
  8
0
  6
Continuous
 62
     7
370
    15
100
AcDbLine
 10
539.7379289265968
 20
272.7296017091562
 30
0.0
 11
535.8379262384272
 21
272.7296017091562
 31
0.0
  0
LINE
  5
CFC9
330
19
100
AcDbEntity
  8
0
  6
Continuous
 62
     7
370
    15
100
AcDbLine
 10
531.937927275548
 20
272.7296017091562
 30
0.0
 11
531.937927275548
 21
272.2296006958773
 31
0.0
  0
LINE
  5
CFCA
330
19
100
AcDbEntity
  8
0
  6
Continuous
 62
     7
370
    15
100
AcDbLine
 10
520.8379293676712
 20
272.2296006958773
 30
0.0
 11
521.8379276689388
 21
272.2296006958773
 31
0.0
  0
LINE
  5
CFCB
330
19
100
AcDbEntity
  8
0
  6
Continuous
 62
     7
370
    15
100
AcDbLine
 10
521.8379276689388
 20
270.2296022306969
 30
0.0
 11
520.8379293676712
 21
270.2296022306969
 31
0.0
  0
ARC
  5
CFCC
330
19
100
AcDbEntity
  8
0
  6
Continuous
 62
     7
370
    15
100
AcDbCircle
 10
520.8379276987411
 20
269.2296014707376
 30
0.0
 40
0.9999999999999431
100
AcDbArc
 50
270.0
 51
0.0
  0
ARC
  5
CFCD
330
19
100
AcDbEntity
  8
0
  6
Continuous
 62
     7
370
    15
100
AcDbCircle
 10
503.8379276987411
 20
259.9946074755424
 30
0.0
 40
9.999999999999976
100
AcDbArc
 50
5.215908570454283
 51
69.5126848852897
  0
ARC
  5
CFCE
330
19
100
AcDbEntity
  8
0
  6
Continuous
 62
     7
370
    15
100
AcDbCircle
 10
514.7923788488436
 20
260.9946074755423
 30
0.0
 40
1.000000000000045
100
AcDbArc
 50
185.2159085704494
 51
270.0
  0
LINE
  5
CFCF
330
19
100
AcDbEntity
  8
0
  6
Continuous
 62
     7
370
    15
100
AcDbLine
 10
514.8379246589041
 20
259.994607416897
 30
0.0
 11
514.7923792597151
 21
259.994607416897
 31
0.0
  0
ARC
  5
CFD0
330
19
100
AcDbEntity
  8
0
  6
Continuous
 62
     7
370
    15
100
AcDbCircle
 10
514.8379276987393
 20
258.9946074755426
 30
0.0
 40
1.000000000000227
100
AcDbArc
 50
0.0
 51
90.0
  0
LINE
  5
CFD1
330
19
100
AcDbEntity
  8
0
  6
Continuous
 62
     7
370
    15
100
AcDbLine
 10
515.8379266854622
 20
258.9946072529842
 30
0.0
 11
515.8379266854622
 21
257.9946075547328
 31
0.0
  0
LINE
  5
CFD2
330
19
100
AcDbEntity
  8
0
  6
Continuous
 62
     7
370
    15
100
AcDbLine
 10
515.8379266854622
 20
257.9946075547328
 30
0.0
 11
515.8379266854622
 21
255.9946074597378
 31
0.0
  0
LINE
  5
CFD3
330
19
100
AcDbEntity
  8
0
  6
Continuous
 62
     7
370
    15
100
AcDbLine
 10
513.8379300829268
 20
257.9946075547328
 30
0.0
 11
515.8379266854622
 21
257.9946075547328
 31
0.0
  0
LINE
  5
CFD4
330
19
100
AcDbEntity
  8
0
  6
Continuous
 62
     7
370
    15
100
AcDbLine
 10
513.8379300829268
 20
255.9946074597378
 30
0.0
 11
513.8379300829268
 21
257.9946075547328
 31
0.0
  0
LINE
  5
CFD5
330
19
100
AcDbEntity
  8
0
  6
Continuous
 62
     7
370
    15
100
AcDbLine
 10
515.8379266854622
 20
255.9946074597378
 30
0.0
 11
513.8379300829268
 21
255.9946074597378
 31
0.0
  0
LINE
  5
CFD6
330
19
100
AcDbEntity
  8
0
  6
Continuous
 62
     7
370
    15
100
AcDbLine
 10
517.8379270132876
 20
272.2296006958773
 30
0.0
 11
518.8379290398456
 21
272.2296006958773
 31
0.0
  0
LINE
  5
CFD7
330
19
100
AcDbEntity
  8
0
  6
Continuous
 62
     7
370
    15
100
AcDbLine
 10
518.8379290398456
 20
270.2296022306969
 30
0.0
 11
517.8379270132876
 21
270.2296022306969
 31
0.0
  0
LINE
  5
CFD8
330
19
100
AcDbEntity
  8
0
  6
Continuous
 62
     7
370
    15
100
AcDbLine
 10
517.8379270132876
 20
270.2296022306969
 30
0.0
 11
517.8379270132876
 21
272.2296006958773
 31
0.0
  0
LINE
  5
CFD9
330
19
100
AcDbEntity
  8
0
  6
Continuous
 62
     7
370
    15
100
AcDbLine
 10
517.8379270132876
 20
269.1296013053348
 30
0.0
 11
517.8379270132876
 21
268.2296019028713
 31
0.0
  0
LINE
  5
CFDA
330
19
100
AcDbEntity
  8
0
  6
Continuous
 62
     7
370
    15
100
AcDbLine
 10
519.8379273411132
 20
268.2296019028713
 30
0.0
 11
519.8379273411132
 21
269.1296013053348
 31
0.0
  0
LINE
  5
CFDB
330
19
100
AcDbEntity
  8
0
  6
Continuous
 62
     7
370
    15
100
AcDbLine
 10
517.8379270132876
 20
269.1296013053348
 30
0.0
 11
517.8379270132876
 21
270.1296024005701
 31
0.0
  0
LINE
  5
CFDC
330
19
100
AcDbEntity
  8
0
  6
Continuous
 62
     7
370
    15
100
AcDbLine
 10
519.8379273411132
 20
270.1296024005701
 30
0.0
 11
519.8379273411132
 21
269.1296013053348
 31
0.0
  0
LINE
  5
CFDD
330
19
100
AcDbEntity
  8
0
  6
Continuous
 62
     7
370
    15
100
AcDbLine
 10
517.8379270132876
 20
270.1296024005701
 30
0.0
 11
519.8379273411132
 21
270.1296024005701
 31
0.0
  0
LINE
  5
CFDE
330
19
100
AcDbEntity
  8
0
  6
Continuous
 62
     7
370
    15
100
AcDbLine
 10
519.8379273411132
 20
269.1296013053348
 30
0.0
 11
517.8379270132876
 21
269.1296013053348
 31
0.0
  0
LINE
  5
CFDF
330
19
100
AcDbEntity
  8
0
  6
Continuous
 62
     7
370
    15
100
AcDbLine
 10
520.8379293676712
 20
272.2296006958773
 30
0.0
 11
518.8379290398456
 21
272.2296006958773
 31
0.0
  0
LINE
  5
CFE0
330
19
100
AcDbEntity
  8
0
  6
Continuous
 62
     7
370
    15
100
AcDbLine
 10
518.8379290398456
 20
270.2296022306969
 30
0.0
 11
520.8379293676712
 21
270.2296022306969
 31
0.0
  0
LINE
  5
CFE1
330
19
100
AcDbEntity
  8
0
  6
Continuous
 62
     7
370
    15
100
AcDbLine
 10
518.8379290398456
 20
272.2296006958773
 30
0.0
 11
518.8379290398456
 21
270.2296022306969
 31
0.0
  0
LINE
  5
CFE2
330
19
100
AcDbEntity
  8
0
  6
Continuous
 62
     7
370
    15
100
AcDbLine
 10
520.8379293676712
 20
270.2296022306969
 30
0.0
 11
520.8379293676712
 21
272.2296006958773
 31
0.0
  0
LINE
  5
CFE3
330
19
100
AcDbEntity
  8
0
  6
Continuous
 62
     7
370
    15
100
AcDbLine
 10
517.8379270132876
 20
268.2296019028713
 30
0.0
 11
520.8379293676712
 21
268.2296019028713
 31
0.0
  0
LINE
  5
CFE4
330
19
100
AcDbEntity
  8
0
  6
CENTER1
 62
     7
100
AcDbLine
 10
530.8379276987412
 20
266.7296014707376
 30
0.0
 11
530.8379276987412
 21
251.7296014707377
 31
0.0
  0
CIRCLE
  5
CFE5
330
19
100
AcDbEntity
  8
0
  6
Continuous
 62
     7
370
    15
100
AcDbCircle
 10
530.8379276987412
 20
259.2296014707376
 30
0.0
 40
2.999999999999828
  0
LINE
  5
CFE6
330
19
100
AcDbEntity
  8
0
  6
Continuous
 62
     7
370
    15
100
AcDbLine
 10
521.8379276689388
 20
269.2296011354615
 30
0.0
 11
521.8379276689388
 21
272.2296006958773
 31
0.0
  0
ARC
  5
CFE7
330
19
100
AcDbEntity
  8
0
  6
Continuous
 62
     7
370
    15
100
AcDbCircle
 10
529.5729216939356
 20
285.7296014707376
 30
0.0
 40
9.999999999999953
100
AcDbArc
 50
200.4873151147245
 51
264.7840914295441
  0
CIRCLE
  5
CFE8
330
19
100
AcDbEntity
  8
0
  6
Continuous
 62
     7
370
    15
100
AcDbCircle
 10
510.8379276987411
 20
278.7296014707376
 30
0.0
 40
2.5
  0
ARC
  5
CFE9
330
19
100
AcDbEntity
  8
0
  6
Continuous
 62
     7
370
    15
100
AcDbCircle
 10
528.5729216939357
 20
274.7751503206343
 30
0.0
 40
1.000000000000045
100
AcDbArc
 50
0.0
 51
84.78409142955067
  0
LINE
  5
CFEA
330
19
100
AcDbEntity
  8
0
  6
Continuous
 62
     7
370
    15
100
AcDbLine
 10
535.8379262384272
 20
272.7296017091562
 30
0.0
 11
531.937927275548
 21
272.7296017091562
 31
0.0
  0
LINE
  5
CFEB
330
19
100
AcDbEntity
  8
0
  6
Continuous
 62
     7
370
    15
100
AcDbLine
 10
530.5729213055468
 20
273.729601873069
 30
0.0
 11
531.5729233321047
 21
273.729601873069
 31
0.0
  0
ARC
  5
CFEC
330
19
100
AcDbEntity
  8
0
  6
Continuous
 62
     7
370
    15
100
AcDbCircle
 10
530.5729216939356
 20
274.7296014707377
 30
0.0
 40
1.000000000000227
100
AcDbArc
 50
180.0
 51
270.0
  0
LINE
  5
CFED
330
19
100
AcDbEntity
  8
0
  6
Continuous
 62
     7
370
    15
100
AcDbLine
 10
529.5729230042793
 20
274.7296020369818
 30
0.0
 11
529.5729230042793
 21
274.7751511614611
 31
0.0
  0
LINE
  5
CFEE
330
19
100
AcDbEntity
  8
0
  6
Continuous
 62
     7
370
    15
100
AcDbLine
 10
533.5729199346401
 20
273.729601873069
 30
0.0
 11
531.5729233321047
 21
273.729601873069
 31
0.0
  0
LINE
  5
CFEF
330
19
100
AcDbEntity
  8
0
  6
Continuous
 62
     7
370
    15
100
AcDbLine
 10
531.5729233321047
 20
275.7296022008945
 30
0.0
 11
533.5729199346401
 21
275.7296022008945
 31
0.0
  0
LINE
  5
CFF0
330
19
100
AcDbEntity
  8
0
  6
Continuous
 62
     7
370
    15
100
AcDbLine
 10
531.5729233321047
 20
273.729601873069
 30
0.0
 11
531.5729233321047
 21
275.7296022008945
 31
0.0
  0
LINE
  5
CFF1
330
19
100
AcDbEntity
  8
0
  6
Continuous
 62
     7
370
    15
100
AcDbLine
 10
533.5729199346401
 20
275.7296022008945
 30
0.0
 11
533.5729199346401
 21
273.729601873069
 31
0.0
  0
ARC
  5
CFF2
330
19
100
AcDbEntity
  8
0
  6
Continuous
 62
     7
370
    15
100
AcDbCircle
 10
532.9379276987406
 20
272.7296014707377
 30
0.0
 40
0.9999999999999431
100
AcDbArc
 50
90.0
 51
180.0
  0
LINE
  5
CFF3
330
19
100
AcDbEntity
  8
0
  6
Continuous
 62
     7
370
    15
100
AcDbLine
 10
555.8379276540376
 20
273.729601873069
 30
0.0
 11
555.8379276540376
 21
272.2296006958773
 31
0.0
  0
LINE
  5
CFF4
330
19
100
AcDbEntity
  8
0
  6
Continuous
 62
     7
370
    15
100
AcDbLine
 10
540.8379289206362
 20
272.2296006958773
 30
0.0
 11
540.8379289206362
 21
273.729601873069
 31
0.0
  0
LINE
  5
CFF5
330
19
100
AcDbEntity
  8
0
  6
Continuous
 62
     7
370
    15
100
AcDbLine
 10
565.8379274305202
 20
272.2296006958773
 30
0.0
 11
565.8379274305202
 21
273.729601873069
 31
0.0
  0
LINE
  5
CFF6
330
19
100
AcDbEntity
  8
0
  6
Continuous
 62
     7
370
    15
100
AcDbLine
 10
557.7112345841028
 20
273.729601873069
 30
0.0
 11
557.7112345841028
 21
272.2296006958773
 31
0.0
  0
LINE
  5
CFF7
330
19
100
AcDbEntity
  8
0
  6
Continuous
 62
     7
370
    15
100
AcDbLine
 10
563.7112346362567
 20
272.2296006958773
 30
0.0
 11
563.7112346362567
 21
273.729601873069
 31
0.0
  0
LINE
  5
CFF8
330
19
100
AcDbEntity
  8
0
  6
Continuous
 62
     7
370
    15
100
AcDbLine
 10
539.7379289265968
 20
272.2296006958773
 30
0.0
 11
539.7379289265968
 21
272.7296017091562
 31
0.0
  0
LINE
  5
CFF9
330
19
100
AcDbEntity
  8
0
  6
Continuous
 62
     7
370
    15
100
AcDbLine
 10
543.8379275497295
 20
280.2296020071795
 30
0.0
 11
552.8379271622993
 21
280.2296020071795
 31
0.0
  0
ARC
  5
CFFA
330
19
100
AcDbEntity
  8
0
  6
Continuous
 62
     7
370
    15
100
AcDbCircle
 10
543.8379276987411
 20
277.2296014707376
 30
0.0
 40
3.000000000000113
100
AcDbArc
 50
90.0
 51
180.0
  0
LINE
  5
CFFB
330
19
100
AcDbEntity
  8
0
  6
Continuous
 62
     7
370
    15
100
AcDbLine
 10
540.8379289206362
 20
275.7296022008945
 30
0.0
 11
540.8379289206362
 21
277.2296015154411
 31
0.0
  0
ARC
  5
CFFC
330
19
100
AcDbEntity
  8
0
  6
Continuous
 62
     7
370
    15
100
AcDbCircle
 10
538.7379276987408
 20
272.7296014707377
 30
0.0
 40
1.000000000000227
100
AcDbArc
 50
0.0000000000130276
 51
90.0
  0
LINE
  5
CFFD
330
19
100
AcDbEntity
  8
0
  6
Continuous
 62
     7
370
    15
100
AcDbLine
 10
555.2112351056433
 20
286.0043570380499
 30
0.0
 11
555.2112351056433
 21
283.0043565463116
 31
0.0
  0
LINE
  5
CFFE
330
19
100
AcDbEntity
  8
0
  6
Continuous
 62
     7
370
    15
100
AcDbLine
 10
566.2112350460387
 20
283.0043565463116
 30
0.0
 11
566.2112350460387
 21
286.0043570380499
 31
0.0
  0
LINE
  5
CFFF
330
19
100
AcDbEntity
  8
0
  6
Continuous
 62
     7
370
    15
100
AcDbLine
 10
556.71123442019
 20
279.0043577533056
 30
0.0
 11
564.7112348001695
 21
279.0043577533056
 31
0.0
  0
LINE
  5
D000
330
19
100
AcDbEntity
  8
0
  6
Continuous
 62
     7
370
    15
100
AcDbLine
 10
559.3123643543817
 20
283.0043565463116
 30
0.0
 11
566.030366614113
 21
283.0043565463116
 31
0.0
  0
ARC
  5
D001
330
19
100
AcDbEntity
  8
0
  6
Continuous
 62
     7
370
    15
100
AcDbCircle
 10
556.3353309073512
 20
282.8874420955397
 30
0.0
 40
0.5983729615878418
100
AcDbArc
 50
168.732653132804
 51
219.8075235958524
  0
LINE
  5
D002
330
19
100
AcDbEntity
  8
0
  6
Continuous
 62
     7
370
    15
100
AcDbLine
 10
555.8756611194707
 20
282.5043573956778
 30
0.0
 11
556.71123442019
 21
282.5043573956778
 31
0.0
  0
SPLINE
  5
D003
330
19
100
AcDbEntity
  8
0
  6
Continuous
 62
     7
370
    15
100
AcDbSpline
210
0.0
220
0.0
230
1.0
 70
     8
 71
     3
 72
    12
 73
     8
 74
     0
 42
0.0000000001
 43
0.0000000001
 40
0.0
 40
0.0
 40
0.0
 40
0.0
 40
0.213548368102362
 40
0.4270569456363766
 40
0.6416184008052934
 40
0.8568763578848049
 40
0.9999999999999998
 40
0.9999999999999998
 40
0.9999999999999998
 40
0.9999999999999998
 10
560.1854122128584
 20
283.0043565463116
 30
0.0
 10
560.1799290293452
 20
282.9483902589227
 30
0.0
 10
560.1689636840033
 20
282.8364681123698
 30
0.0
 10
560.0838082149725
 20
282.6871277690766
 30
0.0
 10
559.9590671728341
 20
282.5738399419242
 30
0.0
 10
559.8208778641915
 20
282.5131006374022
 30
0.0
 10
559.7301201519508
 20
282.5068526130682
 30
0.0
 10
559.6938750591375
 20
282.5043573956778
 30
0.0
  0
LINE
  5
D004
330
19
100
AcDbEntity
  8
0
  6
Continuous
 62
     7
370
    15
100
AcDbLine
 10
559.4395345893003
 20
282.5043573956778
 30
0.0
 11
559.6938750591375
 21
282.5043573956778
 31
0.0
  0
ARC
  5
D005
330
19
100
AcDbEntity
  8
0
  6
Continuous
 62
     7
370
    15
100
AcDbCircle
 10
559.4311757189093
 20
282.996269307261
 30
0.0
 40
0.4919829259961495
100
AcDbArc
 50
270.9735115067314
 51
0.9418732056536612
  0
LINE
  5
D006
330
19
100
AcDbEntity
  8
0
  6
Continuous
 62
     7
370
    15
100
AcDbLine
 10
555.2112351056433
 20
283.0043565463116
 30
0.0
 11
559.3123643543817
 21
283.0043565463116
 31
0.0
  0
LINE
  5
D007
330
19
100
AcDbEntity
  8
0
  6
Continuous
 62
     7
370
    15
100
AcDbLine
 10
555.8379276540376
 20
277.2296015154411
 30
0.0
 11
555.8379276540376
 21
275.7296022008945
 31
0.0
  0
ARC
  5
D008
330
19
100
AcDbEntity
  8
0
  6
Continuous
 62
     7
370
    15
100
AcDbCircle
 10
552.8379276987401
 20
277.2296014707376
 30
0.0
 40
3.000000000000113
100
AcDbArc
 50
0.0
 51
90.0
  0
ARC
  5
D009
330
19
100
AcDbEntity
  8
0
  6
Continuous
 62
     7
370
    15
100
AcDbCircle
 10
555.875660711082
 20
283.0043573564585
 30
0.0
 40
0.4999999999999716
100
AcDbArc
 50
180.0
 51
270.0
  0
LINE
  5
D00A
330
19
100
AcDbEntity
  8
0
  6
Continuous
 62
     7
370
    15
100
AcDbLine
 10
556.71123442019
 20
283.0043565463116
 30
0.0
 11
556.71123442019
 21
279.0043577533056
 31
0.0
  0
ARC
  5
D00B
330
19
100
AcDbEntity
  8
0
  6
Continuous
 62
     7
370
    15
100
AcDbCircle
 10
559.4395349574491
 20
283.0043573564585
 30
0.0
 40
0.5000000000001137
100
AcDbArc
 50
180.0
 51
270.0
  0
LINE
  5
D00C
330
19
100
AcDbEntity
  8
0
  6
Continuous
 62
     7
370
    15
100
AcDbLine
 10
557.7112345841028
 20
279.0043577533056
 30
0.0
 11
557.7112345841028
 21
275.7296022008945
 31
0.0
  0
LINE
  5
D00D
330
19
100
AcDbEntity
  8
0
  6
Continuous
 62
     7
370
    15
100
AcDbLine
 10
564.5796947997308
 20
282.5043573956778
 30
0.0
 11
565.5468090322115
 21
282.5043573956778
 31
0.0
  0
ARC
  5
D00E
330
19
100
AcDbEntity
  8
0
  6
Continuous
 62
     7
370
    15
100
AcDbCircle
 10
566.0064842051447
 20
282.8874423720928
 30
0.0
 40
0.5983772754425666
100
AcDbArc
 50
168.7327624264594
 51
219.8072138268707
  0
SPLINE
  5
D00F
330
19
100
AcDbEntity
  8
0
  6
Continuous
 62
     7
370
    15
100
AcDbSpline
210
0.0
220
0.0
230
1.0
 70
     8
 71
     3
 72
    12
 73
     8
 74
     0
 42
0.0000000001
 43
0.0000000001
 40
0.0
 40
0.0
 40
0.0
 40
0.0
 40
0.2135569133964279
 40
0.4270745263791019
 40
0.6416255435091523
 40
0.8568873166667344
 40
1.0
 40
1.0
 40
1.0
 40
1.0
 10
564.5796947997308
 20
282.5043573956778
 30
0.0
 10
564.56477976837
 20
282.5098403992097
 30
0.0
 10
564.5349524504304
 20
282.5208053972481
 30
0.0
 10
564.4874529161167
 20
282.6062633597217
 30
0.0
 10
564.4480847774988
 20
282.7323811584697
 30
0.0
 10
564.4254778105191
 20
282.8733290426912
 30
0.0
 10
564.423123266502
 20
282.9669643658458
 30
0.0
 10
564.4221830066538
 20
283.0043565463116
 30
0.0
  0
LINE
  5
D010
330
19
100
AcDbEntity
  8
0
  6
Continuous
 62
     7
370
    15
100
AcDbLine
 10
566.030366614113
 20
283.0043565463116
 30
0.0
 11
566.2112350460387
 21
283.0043565463116
 31
0.0
  0
LINE
  5
D011
330
19
100
AcDbEntity
  8
0
  6
Continuous
 62
     7
370
    15
100
AcDbLine
 10
565.8379274305202
 20
275.7296022008945
 30
0.0
 11
565.8379274305202
 21
277.2296015154411
 31
0.0
  0
ARC
  5
D012
330
19
100
AcDbEntity
  8
0
  6
Continuous
 62
     7
370
    15
100
AcDbCircle
 10
565.5468093377344
 20
283.0043573564585
 30
0.0
 40
0.5000000000003979
100
AcDbArc
 50
270.0
 51
0.0
  0
LINE
  5
D013
330
19
100
AcDbEntity
  8
0
  6
Continuous
 62
     7
370
    15
100
AcDbLine
 10
564.7112348001695
 20
279.0043577533056
 30
0.0
 11
564.7112348001695
 21
282.5043573956778
 31
0.0
  0
LINE
  5
D014
330
19
100
AcDbEntity
  8
0
  6
Continuous
 62
     7
370
    15
100
AcDbLine
 10
563.7112346362567
 20
275.7296022008945
 30
0.0
 11
563.7112346362567
 21
279.0043577533056
 31
0.0
  0
LINE
  5
D015
330
19
100
AcDbEntity
  8
0
  6
Continuous
 62
     7
370
    15
100
AcDbLine
 10
557.211235433469
 20
287.0043590646078
 30
0.0
 11
564.2112347182132
 21
287.0043590646078
 31
0.0
  0
LINE
  5
D016
330
19
100
AcDbEntity
  8
0
  6
Continuous
 62
     7
370
    15
100
AcDbLine
 10
555.2112351056433
 20
286.0043570380499
 30
0.0
 11
566.2112350460387
 21
286.0043570380499
 31
0.0
  0
ARC
  5
D017
330
19
100
AcDbEntity
  8
0
  6
Continuous
 62
     7
370
    15
100
AcDbCircle
 10
557.2112350244083
 20
286.0043573564587
 30
0.0
 40
1.000000000000085
100
AcDbArc
 50
90.0
 51
180.0
  0
ARC
  5
D018
330
19
100
AcDbEntity
  8
0
  6
Continuous
 62
     7
370
    15
100
AcDbCircle
 10
564.2112350244072
 20
286.0043573564587
 30
0.0
 40
1.000000000000227
100
AcDbArc
 50
0.0
 51
90.0
  0
ARC
  5
D019
330
19
100
AcDbEntity
  8
0
  6
Continuous
 62
     7
370
    15
100
AcDbCircle
 10
592.1029337035456
 20
285.7296014707376
 30
0.0
 40
10.00000000000001
100
AcDbArc
 50
275.215908570456
 51
339.5126848852771
  0
LINE
  5
D01A
330
19
100
AcDbEntity
  8
0
  6
Continuous
 62
     7
370
    15
100
AcDbLine
 10
599.837927415619
 20
272.2296006958773
 30
0.0
 11
600.8379275795317
 21
272.2296006958773
 31
0.0
  0
LINE
  5
D01B
330
19
100
AcDbEntity
  8
0
  6
Continuous
 62
     7
370
    15
100
AcDbLine
 10
600.8379275795317
 20
270.2296022306969
 30
0.0
 11
599.837927415619
 21
270.2296022306969
 31
0.0
  0
ARC
  5
D01C
330
19
100
AcDbEntity
  8
0
  6
Continuous
 62
     7
370
    15
100
AcDbCircle
 10
600.8379276987402
 20
269.2296014707376
 30
0.0
 40
0.9999999999999431
100
AcDbArc
 50
180.0
 51
270.0
  0
LINE
  5
D01D
330
19
100
AcDbEntity
  8
0
  6
Continuous
 62
     7
370
    15
100
AcDbLine
 10
580.8379277937359
 20
273.729601873069
 30
0.0
 11
580.8379277937359
 21
272.2296006958773
 31
0.0
  0
LINE
  5
D01E
330
19
100
AcDbEntity
  8
0
  6
Continuous
 62
     7
370
    15
100
AcDbLine
 10
581.9379277877755
 20
272.7296017091562
 30
0.0
 11
581.9379277877755
 21
272.2296006958773
 31
0.0
  0
LINE
  5
D01F
330
19
100
AcDbEntity
  8
0
  6
Continuous
 62
     7
370
    15
100
AcDbLine
 10
589.7379278090097
 20
272.2296006958773
 30
0.0
 11
589.7379278090097
 21
272.7296017091562
 31
0.0
  0
LINE
  5
D020
330
19
100
AcDbEntity
  8
0
  6
CENTER1
 62
     7
100
AcDbLine
 10
583.3379276987402
 20
259.2296014707376
 30
0.0
 11
598.3379276987403
 21
259.2296014707376
 31
0.0
  0
LINE
  5
D021
330
19
100
AcDbEntity
  8
0
  6
CENTER1
 62
     7
100
AcDbLine
 10
590.8379276987402
 20
266.7296014707376
 30
0.0
 11
590.8379276987402
 21
251.7296014707377
 31
0.0
  0
CIRCLE
  5
D022
330
19
100
AcDbEntity
  8
0
  6
Continuous
 62
     7
370
    15
100
AcDbCircle
 10
590.8379276987402
 20
259.2296014707376
 30
0.0
 40
3.000000000000397
  0
LINE
  5
D023
330
19
100
AcDbEntity
  8
0
  6
Continuous
 62
     7
370
    15
100
AcDbLine
 10
599.837927415619
 20
272.2296006958773
 30
0.0
 11
599.837927415619
 21
269.2296011354615
 31
0.0
  0
LINE
  5
D024
330
19
100
AcDbEntity
  8
0
  6
Continuous
 62
     7
370
    15
100
AcDbLine
 10
585.8379279148079
 20
272.7296017091562
 30
0.0
 11
581.9379277877755
 21
272.7296017091562
 31
0.0
  0
LINE
  5
D025
330
19
100
AcDbEntity
  8
0
  6
Continuous
 62
     7
370
    15
100
AcDbLine
 10
568.8379279222585
 20
280.2296020071795
 30
0.0
 11
577.8379276512437
 21
280.2296020071795
 31
0.0
  0
ARC
  5
D026
330
19
100
AcDbEntity
  8
0
  6
Continuous
 62
     7
370
    15
100
AcDbCircle
 10
577.8379276987402
 20
277.2296014707376
 30
0.0
 40
3.000000000000113
100
AcDbArc
 50
0.0
 51
90.0
  0
LINE
  5
D027
330
19
100
AcDbEntity
  8
0
  6
Continuous
 62
     7
370
    15
100
AcDbLine
 10
580.8379277937359
 20
277.2296015154411
 30
0.0
 11
580.8379277937359
 21
275.7296022008945
 31
0.0
  0
ARC
  5
D028
330
19
100
AcDbEntity
  8
0
  6
Continuous
 62
     7
370
    15
100
AcDbCircle
 10
582.9379276987406
 20
272.7296014707377
 30
0.0
 40
0.9999999999999431
100
AcDbArc
 50
90.0
 51
180.0
  0
ARC
  5
D029
330
19
100
AcDbEntity
  8
0
  6
Continuous
 62
     7
370
    15
100
AcDbCircle
 10
593.1029337035456
 20
274.7751503206343
 30
0.0
 40
1.000000000000045
100
AcDbArc
 50
95.21590857044932
 51
180.0
  0
ARC
  5
D02A
330
19
100
AcDbEntity
  8
0
  6
Continuous
 62
     7
370
    15
100
AcDbCircle
 10
591.1029337035447
 20
274.7296014707377
 30
0.0
 40
1.000000000000227
100
AcDbArc
 50
270.0
 51
0.0
  0
LINE
  5
D02B
330
19
100
AcDbEntity
  8
0
  6
Continuous
 62
     7
370
    15
100
AcDbLine
 10
589.7379278090097
 20
272.7296017091562
 30
0.0
 11
585.8379279148079
 21
272.7296017091562
 31
0.0
  0
LINE
  5
D02C
330
19
100
AcDbEntity
  8
0
  6
Continuous
 62
     7
370
    15
100
AcDbLine
 10
591.1029337790108
 20
273.729601873069
 30
0.0
 11
590.1029336150982
 21
273.729601873069
 31
0.0
  0
LINE
  5
D02D
330
19
100
AcDbEntity
  8
0
  6
Continuous
 62
     7
370
    15
100
AcDbLine
 10
590.1029336150982
 20
273.729601873069
 30
0.0
 11
588.1029332872726
 21
273.729601873069
 31
0.0
  0
LINE
  5
D02E
330
19
100
AcDbEntity
  8
0
  6
Continuous
 62
     7
370
    15
100
AcDbLine
 10
590.1029336150982
 20
275.7296022008945
 30
0.0
 11
590.1029336150982
 21
273.729601873069
 31
0.0
  0
LINE
  5
D02F
330
19
100
AcDbEntity
  8
0
  6
Continuous
 62
     7
370
    15
100
AcDbLine
 10
588.1029332872726
 20
275.7296022008945
 30
0.0
 11
590.1029336150982
 21
275.7296022008945
 31
0.0
  0
LINE
  5
D030
330
19
100
AcDbEntity
  8
0
  6
Continuous
 62
     7
370
    15
100
AcDbLine
 10
588.1029332872726
 20
273.729601873069
 30
0.0
 11
588.1029332872726
 21
275.7296022008945
 31
0.0
  0
ARC
  5
D031
330
19
100
AcDbEntity
  8
0
  6
Continuous
 62
     7
370
    15
100
AcDbCircle
 10
588.7379276987408
 20
272.7296014707377
 30
0.0
 40
0.9999999999999431
100
AcDbArc
 50
0.0000000000130276
 51
90.0
  0
LINE
  5
D032
330
19
100
AcDbEntity
  8
0
  6
Continuous
 62
     7
370
    15
100
AcDbLine
 10
592.1029339429237
 20
274.7296020369818
 30
0.0
 11
592.1029339429237
 21
274.7751511614611
 31
0.0
  0
ARC
  5
D033
330
19
100
AcDbEntity
  8
0
  6
Continuous
 62
     7
370
    15
100
AcDbCircle
 10
610.8379276987403
 20
278.7296014707376
 30
0.0
 40
10.00000000000007
100
AcDbArc
 50
290.4873151147239
 51
159.5126848852755
  0
ARC
  5
D034
330
19
100
AcDbEntity
  8
0
  6
Continuous
 62
     7
370
    15
100
AcDbCircle
 10
617.8379276987402
 20
259.9946074755424
 30
0.0
 40
9.999999999999976
100
AcDbArc
 50
110.4873151147239
 51
174.7840914295457
  0
ARC
  5
D035
330
19
100
AcDbEntity
  8
0
  6
Continuous
 62
     7
370
    15
100
AcDbCircle
 10
606.8834765486376
 20
260.9946074755423
 30
0.0
 40
1.000000000000045
100
AcDbArc
 50
270.0
 51
354.7840914295506
  0
LINE
  5
D036
330
19
100
AcDbEntity
  8
0
  6
Continuous
 62
     7
370
    15
100
AcDbLine
 10
605.8379283990957
 20
257.9946075547328
 30
0.0
 11
607.8379268642761
 21
257.9946075547328
 31
0.0
  0
LINE
  5
D037
330
19
100
AcDbEntity
  8
0
  6
Continuous
 62
     7
370
    15
100
AcDbLine
 10
607.8379268642761
 20
255.9946074597378
 30
0.0
 11
605.8379283990957
 21
255.9946074597378
 31
0.0
  0
LINE
  5
D038
330
19
100
AcDbEntity
  8
0
  6
Continuous
 62
     7
370
    15
100
AcDbLine
 10
606.8379285630085
 20
259.994607416897
 30
0.0
 11
606.8834758248426
 21
259.994607416897
 31
0.0
  0
LINE
  5
D039
330
19
100
AcDbEntity
  8
0
  6
Continuous
 62
     7
370
    15
100
AcDbLine
 10
605.8379283990957
 20
257.9946075547328
 30
0.0
 11
605.8379283990957
 21
258.9946072529842
 31
0.0
  0
ARC
  5
D03A
330
19
100
AcDbEntity
  8
0
  6
Continuous
 62
     7
370
    15
100
AcDbCircle
 10
606.8379276987402
 20
258.9946074755426
 30
0.0
 40
1.000000000000227
100
AcDbArc
 50
90.0
 51
180.0
  0
LINE
  5
D03B
330
19
100
AcDbEntity
  8
0
  6
Continuous
 62
     7
370
    15
100
AcDbLine
 10
605.8379283990957
 20
255.9946074597378
 30
0.0
 11
605.8379283990957
 21
257.9946075547328
 31
0.0
  0
LINE
  5
D03C
330
19
100
AcDbEntity
  8
0
  6
Continuous
 62
     7
370
    15
100
AcDbLine
 10
607.8379268642761
 20
257.9946075547328
 30
0.0
 11
607.8379268642761
 21
255.9946074597378
 31
0.0
  0
LINE
  5
D03D
330
19
100
AcDbEntity
  8
0
  6
Continuous
 62
     7
370
    15
100
AcDbLine
 10
602.8379279073574
 20
272.2296006958773
 30
0.0
 11
600.8379275795317
 21
272.2296006958773
 31
0.0
  0
LINE
  5
D03E
330
19
100
AcDbEntity
  8
0
  6
Continuous
 62
     7
370
    15
100
AcDbLine
 10
602.8379279073574
 20
270.2296022306969
 30
0.0
 11
600.8379275795317
 21
270.2296022306969
 31
0.0
  0
LINE
  5
D03F
330
19
100
AcDbEntity
  8
0
  6
Continuous
 62
     7
370
    15
100
AcDbLine
 10
603.8379280712701
 20
268.2296019028713
 30
0.0
 11
603.8379280712701
 21
269.1296013053348
 31
0.0
  0
LINE
  5
D040
330
19
100
AcDbEntity
  8
0
  6
Continuous
 62
     7
370
    15
100
AcDbLine
 10
601.8379277434446
 20
268.2296019028713
 30
0.0
 11
601.8379277434446
 21
269.1296013053348
 31
0.0
  0
LINE
  5
D041
330
19
100
AcDbEntity
  8
0
  6
Continuous
 62
     7
370
    15
100
AcDbLine
 10
602.8379279073574
 20
272.2296006958773
 30
0.0
 11
603.8379280712701
 21
272.2296006958773
 31
0.0
  0
LINE
  5
D042
330
19
100
AcDbEntity
  8
0
  6
Continuous
 62
     7
370
    15
100
AcDbLine
 10
603.8379280712701
 20
270.2296022306969
 30
0.0
 11
602.8379279073574
 21
270.2296022306969
 31
0.0
  0
LINE
  5
D043
330
19
100
AcDbEntity
  8
0
  6
Continuous
 62
     7
370
    15
100
AcDbLine
 10
603.8379280712701
 20
272.2296006958773
 30
0.0
 11
603.8379280712701
 21
270.2296022306969
 31
0.0
  0
LINE
  5
D044
330
19
100
AcDbEntity
  8
0
  6
Continuous
 62
     7
370
    15
100
AcDbLine
 10
602.8379279073574
 20
270.2296022306969
 30
0.0
 11
602.8379279073574
 21
272.2296006958773
 31
0.0
  0
LINE
  5
D045
330
19
100
AcDbEntity
  8
0
  6
Continuous
 62
     7
370
    15
100
AcDbLine
 10
603.8379280712701
 20
270.1296024005701
 30
0.0
 11
603.8379280712701
 21
269.1296013053348
 31
0.0
  0
LINE
  5
D046
330
19
100
AcDbEntity
  8
0
  6
Continuous
 62
     7
370
    15
100
AcDbLine
 10
601.8379277434446
 20
269.1296013053348
 30
0.0
 11
601.8379277434446
 21
270.1296024005701
 31
0.0
  0
LINE
  5
D047
330
19
100
AcDbEntity
  8
0
  6
Continuous
 62
     7
370
    15
100
AcDbLine
 10
603.8379280712701
 20
269.1296013053348
 30
0.0
 11
601.8379277434446
 21
269.1296013053348
 31
0.0
  0
LINE
  5
D048
330
19
100
AcDbEntity
  8
0
  6
Continuous
 62
     7
370
    15
100
AcDbLine
 10
601.8379277434446
 20
270.1296024005701
 30
0.0
 11
603.8379280712701
 21
270.1296024005701
 31
0.0
  0
LINE
  5
D049
330
19
100
AcDbEntity
  8
0
  6
Continuous
 62
     7
370
    15
100
AcDbLine
 10
600.8379275795317
 20
272.2296006958773
 30
0.0
 11
600.8379275795317
 21
270.2296022306969
 31
0.0
  0
LINE
  5
D04A
330
19
100
AcDbEntity
  8
0
  6
Continuous
 62
     7
370
    15
100
AcDbLine
 10
600.8379275795317
 20
268.2296019028713
 30
0.0
 11
603.8379280712701
 21
268.2296019028713
 31
0.0
  0
CIRCLE
  5
D04B
330
19
100
AcDbEntity
  8
0
  6
Continuous
 62
     7
370
    15
100
AcDbCircle
 10
610.8379276987403
 20
278.7296014707376
 30
0.0
 40
2.5
  0
LINE
  5
D2BB
330
19
100
AcDbEntity
  8
0
  6
Continuous
 62
     7
100
AcDbLine
 10
393.616059453687
 20
288.7296006064703
 30
0.0
 11
364.5462176718528
 21
288.7296006064703
 31
0.0
  0
LINE
  5
D2BC
330
19
100
AcDbEntity
  8
0
  6
Continuous
 62
     7
100
AcDbLine
 10
393.616059453687
 20
168.729599563389
 30
0.0
 11
364.5462176718528
 21
168.729599563389
 31
0.0
  0
LINE
  5
D2BD
330
19
100
AcDbEntity
  8
0
  6
Continuous
 62
     7
100
AcDbLine
 10
368.5462176718527
 20
282.7296006064703
 30
0.0
 11
368.5462176718527
 21
174.729599563389
 31
0.0
  0
LINE
  5
D2C1
330
19
100
AcDbEntity
  8
0
  6
Continuous
 62
     7
100
AcDbLine
 10
146.434304290109
 20
278.7296014707376
 30
0.0
 11
110.8702006814802
 21
278.7296014707377
 31
0.0
  0
LINE
  5
D2C2
330
19
100
AcDbEntity
  8
0
  6
Continuous
 62
     7
100
AcDbLine
 10
146.434304290109
 20
178.7296014707376
 30
0.0
 11
110.8702006814802
 21
178.7296014707376
 31
0.0
  0
LINE
  5
D2C3
330
19
100
AcDbEntity
  8
0
  6
Continuous
 62
     7
100
AcDbLine
 10
114.8702006814802
 20
272.7296014707377
 30
0.0
 11
114.8702006814802
 21
184.7296014707376
 31
0.0
  0
LINE
  5
D2C7
330
19
100
AcDbEntity
  8
0
  6
Continuous
 62
     7
100
AcDbLine
 10
158.934304290109
 20
266.2296014707376
 30
0.0
 11
129.4671462404474
 21
266.2296014707376
 31
0.0
  0
LINE
  5
D2C8
330
19
100
AcDbEntity
  8
0
  6
Continuous
 62
     7
100
AcDbLine
 10
158.934304290109
 20
191.2296014707376
 30
0.0
 11
129.4671462404474
 21
191.2296014707376
 31
0.0
  0
LINE
  5
D2C9
330
19
100
AcDbEntity
  8
0
  6
Continuous
 62
     7
100
AcDbLine
 10
133.4671462404474
 20
260.2296014707377
 30
0.0
 11
133.4671462404474
 21
197.2296014707376
 31
0.0
  0
LINE
  5
D2CD
330
19
100
AcDbEntity
  8
0
  6
Continuous
 62
     7
100
AcDbLine
 10
300.0383913280012
 20
187.33440443133
 30
0.0
 11
268.2451545171616
 21
180.5127920111734
 31
0.0
  0
LINE
  5
D2CE
330
19
100
AcDbEntity
  8
0
  6
Continuous
 62
     7
100
AcDbLine
 10
251.6234540630563
 20
176.9464109303019
 30
0.0
 11
245.7569715498427
 21
175.6876881958767
 31
0.0
  0
LINE
  5
D2D0
330
19
100
AcDbEntity
  8
0
  6
Continuous
 62
     7
100
AcDbLine
 10
257.4899365762699
 20
178.2051336647272
 30
0.0
 11
262.3786720039479
 21
179.2540692767482
 31
0.0
  0
LINE
  5
D2D3
330
19
100
AcDbEntity
  8
0
  6
Continuous
 62
     7
100
AcDbLine
 10
160.9343039175799
 20
443.3515812150965
 30
0.0
 11
110.8702006814802
 21
443.3515812150965
 31
0.0
  0
LINE
  5
D2D4
330
19
100
AcDbEntity
  8
0
  6
Continuous
 62
     7
100
AcDbLine
 10
143.934304856353
 20
424.3515806618908
 30
0.0
 11
110.8702006814802
 21
424.3515806618908
 31
0.0
  0
LINE
  5
D2D5
330
19
100
AcDbEntity
  8
0
  6
Continuous
 62
     7
100
AcDbLine
 10
114.8702006814802
 20
437.3515812150966
 30
0.0
 11
114.8702006814802
 21
430.351580661891
 31
0.0
  0
LINE
  5
D2D9
330
19
100
AcDbEntity
  8
0
  6
Continuous
 62
     7
100
AcDbLine
 10
149.934304856353
 20
432.3515807568858
 30
0.0
 11
149.934304856353
 21
482.1220567532336
 31
0.0
  0
LINE
  5
D2DA
330
19
100
AcDbEntity
  8
0
  6
Continuous
 62
     7
100
AcDbLine
 10
269.9343058994343
 20
432.3515807568858
 30
0.0
 11
269.9343058994343
 21
482.1220567532336
 31
0.0
  0
LINE
  5
D2DB
330
19
100
AcDbEntity
  8
0
  6
Continuous
 62
     7
100
AcDbLine
 10
155.934304856353
 20
478.1220567532336
 30
0.0
 11
263.9343058994343
 21
478.1220567532336
 31
0.0
  0
LINE
  5
D2DF
330
19
100
AcDbEntity
  8
0
  6
Continuous
 62
     7
100
AcDbLine
 10
159.934304290109
 20
292.2296014707376
 30
0.0
 11
159.934304290109
 21
333.4213963802544
 31
0.0
  0
LINE
  5
D2E0
330
19
100
AcDbEntity
  8
0
  6
Continuous
 62
     7
100
AcDbLine
 10
259.9343042901089
 20
292.2296014707376
 30
0.0
 11
259.9343042901089
 21
333.4213963802544
 31
0.0
  0
LINE
  5
D2E1
330
19
100
AcDbEntity
  8
0
  6
Continuous
 62
     7
100
AcDbLine
 10
165.934304290109
 20
329.4213963802544
 30
0.0
 11
253.9343042901089
 21
329.4213963802544
 31
0.0
  0
LINE
  5
D2E5
330
19
100
AcDbEntity
  8
0
  6
Continuous
 62
     7
100
AcDbLine
 10
172.434304290109
 20
279.7296014707376
 30
0.0
 11
172.434304290109
 21
319.176927441471
 31
0.0
  0
LINE
  5
D2E6
330
19
100
AcDbEntity
  8
0
  6
Continuous
 62
     7
100
AcDbLine
 10
247.4343042901089
 20
279.7296014707376
 30
0.0
 11
247.4343042901089
 21
319.176927441471
 31
0.0
  0
LINE
  5
D2E7
330
19
100
AcDbEntity
  8
0
  6
Continuous
 62
     7
100
AcDbLine
 10
178.434304290109
 20
315.176927441471
 30
0.0
 11
241.4343042901089
 21
315.176927441471
 31
0.0
  0
LINE
  5
D2EB
330
19
100
AcDbEntity
  8
0
  6
Continuous
 62
     7
100
AcDbLine
 10
530.8379276987412
 20
272.7296014707377
 30
0.0
 11
530.8379276987412
 21
307.0991514119683
 31
0.0
  0
LINE
  5
D2EC
330
19
100
AcDbEntity
  8
0
  6
Continuous
 62
     7
100
AcDbLine
 10
590.8379276987402
 20
272.7296014707377
 30
0.0
 11
590.8379276987402
 21
307.0991514119683
 31
0.0
  0
LINE
  5
D2ED
330
19
100
AcDbEntity
  8
0
  6
Continuous
 62
     7
100
AcDbLine
 10
536.8379276987411
 20
303.0991514119683
 30
0.0
 11
584.8379276987402
 21
303.0991514119683
 31
0.0
  0
LINE
  5
D2F1
330
19
100
AcDbEntity
  8
0
  6
Continuous
 62
     7
100
AcDbLine
 10
632.6336177640992
 20
210.4240964396523
 30
0.0
 11
599.5315006653219
 21
201.558075021099
 31
0.0
  0
LINE
  5
D2F2
330
19
100
AcDbEntity
  8
0
  6
Continuous
 62
     7
100
AcDbLine
 10
582.1443547321591
 20
196.9011279203763
 30
0.0
 11
576.348639421105
 21
195.3488122201355
 31
0.0
  0
LINE
  5
D2F4
330
19
100
AcDbEntity
  8
0
  6
Continuous
 62
     7
100
AcDbLine
 10
587.9400700432133
 20
198.4534436206172
 30
0.0
 11
593.7357853542679
 21
200.0057593208582
 31
0.0
  0
TEXT
  5
D2F7
330
19
100
AcDbEntity
  8
0
  6
Continuous
 62
     7
100
AcDbText
 10
613.4887484521263
 20
35.05743286055142
 30
0.0
 40
7.0
  1
VESA75・100専用壁固定金具
 41
0.8
100
AcDbText
1001
ACAD
1000
ACAD_MTEXT_DEFINED_HEIGHT_BEGIN
1070
    46
1040
11.66666666666666
1000
ACAD_MTEXT_DEFINED_HEIGHT_END
  0
LINE
  5
D2F8
330
19
100
AcDbEntity
  8
0
  6
Continuous
 62
     7
100
AcDbLine
 10
517.3379276987411
 20
259.2296014707376
 30
0.0
 11
488.4343852314723
 21
259.2296014707376
 31
0.0
  0
LINE
  5
D2F9
330
19
100
AcDbEntity
  8
0
  6
Continuous
 62
     7
100
AcDbLine
 10
517.3379276987411
 20
199.2296014707376
 30
0.0
 11
488.4343852314723
 21
199.2296014707376
 31
0.0
  0
LINE
  5
D2FA
330
19
100
AcDbEntity
  8
0
  6
Continuous
 62
     7
100
AcDbLine
 10
492.4343852314723
 20
253.2296014707376
 30
0.0
 11
492.4343852314723
 21
205.2296014707377
 31
0.0
  0
TEXT
  5
D334
330
19
100
AcDbEntity
  8
0
  6
Continuous
 62
     7
100
AcDbText
 10
718.7024270838392
 20
35.05743286055142
 30
0.0
 40
7.0
  1
（フラットタイプ）
 41
0.8
100
AcDbText
1001
ACAD
1000
ACAD_MTEXT_DEFINED_HEIGHT_BEGIN
1070
    46
1040
7.0
1000
ACAD_MTEXT_DEFINED_HEIGHT_END
  0
TEXT
  5
D335
330
19
100
AcDbEntity
  8
0
  6
Continuous
 62
     7
100
AcDbText
 10
666.8666666666669
 20
22.00000299999999
 30
0.0
 40
7.0
  1
FTK-WM100F
 41
0.8
100
AcDbText
1001
ACAD
1000
ACAD_MTEXT_DEFINED_HEIGHT_BEGIN
1070
    46
1040
7.0
1000
ACAD_MTEXT_DEFINED_HEIGHT_END
  0
TEXT
  5
D336
330
19
100
AcDbEntity
  8
0
  6
Continuous
 62
     7
100
AcDbText
 10
683.8533333333336
 20
11.00000099999999
 30
0.0
 40
7.0
  1
外観図
 41
0.8
100
AcDbText
1001
ACAD
1000
ACAD_MTEXT_DEFINED_HEIGHT_BEGIN
1070
    46
1040
11.66666666666666
1000
ACAD_MTEXT_DEFINED_HEIGHT_END
  0
LINE
  5
D373
330
19
100
AcDbEntity
  8
0
  6
Continuous
 62
     7
100
AcDbLine
 10
399.6160594536871
 20
294.7296006064703
 30
0.0
 11
399.6160594536871
 21
333.4213963802544
 31
0.0
  0
LINE
  5
D374
330
19
100
AcDbEntity
  8
0
  6
Continuous
 62
     7
100
AcDbLine
 10
418.6160600068927
 20
278.2296006958773
 30
0.0
 11
418.6160600068927
 21
333.4213963802544
 31
0.0
  0
LINE
  5
D375
330
19
100
AcDbEntity
  8
0
  6
Continuous
 62
     7
100
AcDbLine
 10
405.6160594536869
 20
329.4213963802544
 30
0.0
 11
412.6160600068926
 21
329.4213963802544
 31
0.0
  0
TEXT
  5
D522
330
19
100
AcDbEntity
  8
0
  6
Continuous
 62
     7
100
AcDbText
 10
131.4671462404473
 20
225.1296014707377
 30
0.0
 40
5.4
  1
75
 50
90.0
 41
0.8
100
AcDbText
  0
LINE
  5
D523
330
19
100
AcDbEntity
  8
0
  6
ByBlock
 62
     7
100
AcDbLine
 10
115.8702006814802
 20
184.7296014707376
 30
0.0
 11
114.8702006814802
 21
178.7296014707376
 31
0.0
  0
LINE
  5
D524
330
19
100
AcDbEntity
  8
0
  6
ByBlock
 62
     7
100
AcDbLine
 10
114.8702006814802
 20
178.7296014707376
 30
0.0
 11
113.8702006814802
 21
184.7296014707376
 31
0.0
  0
LINE
  5
D525
330
19
100
AcDbEntity
  8
0
  6
ByBlock
 62
     7
100
AcDbLine
 10
114.8702006814802
 20
178.7296014707376
 30
0.0
 11
114.8702006814802
 21
184.7296014707376
 31
0.0
  0
TEXT
  5
D526
330
19
100
AcDbEntity
  8
0
  6
Continuous
 62
     7
100
AcDbText
 10
112.8702006814802
 20
224.4096014707377
 30
0.0
 40
5.4
  1
100
 50
90.0
 41
0.8
100
AcDbText
  0
LINE
  5
D527
330
19
100
AcDbEntity
  8
0
  6
ByBlock
 62
     7
100
AcDbLine
 10
251.4136669406521
 20
177.9241580158375
 30
0.0
 11
257.4899365762699
 21
178.2051336647272
 31
0.0
  0
LINE
  5
D528
330
19
100
AcDbEntity
  8
0
  6
ByBlock
 62
     7
100
AcDbLine
 10
257.4899365762699
 20
178.2051336647272
 30
0.0
 11
251.8332411854605
 21
175.9686638447663
 31
0.0
  0
LINE
  5
D529
330
19
100
AcDbEntity
  8
0
  6
ByBlock
 62
     7
100
AcDbLine
 10
257.4899365762699
 20
178.2051336647272
 30
0.0
 11
251.6234540630563
 21
176.9464109303019
 31
0.0
  0
LINE
  5
D52A
330
19
100
AcDbEntity
  8
0
  6
ByBlock
 62
     7
100
AcDbLine
 10
134.4671462404474
 20
197.2296014707376
 30
0.0
 11
133.4671462404474
 21
191.2296014707376
 31
0.0
  0
LINE
  5
D52B
330
19
100
AcDbEntity
  8
0
  6
ByBlock
 62
     7
100
AcDbLine
 10
133.4671462404474
 20
191.2296014707376
 30
0.0
 11
132.4671462404474
 21
197.2296014707376
 31
0.0
  0
LINE
  5
D52C
330
19
100
AcDbEntity
  8
0
  6
ByBlock
 62
     7
100
AcDbLine
 10
133.4671462404474
 20
191.2296014707376
 30
0.0
 11
133.4671462404474
 21
197.2296014707376
 31
0.0
  0
LINE
  5
D52D
330
19
100
AcDbEntity
  8
0
  6
ByBlock
 62
     7
100
AcDbLine
 10
132.4671462404474
 20
260.2296014707377
 30
0.0
 11
133.4671462404474
 21
266.2296014707376
 31
0.0
  0
LINE
  5
D52E
330
19
100
AcDbEntity
  8
0
  6
ByBlock
 62
     7
100
AcDbLine
 10
133.4671462404474
 20
266.2296014707376
 30
0.0
 11
134.4671462404474
 21
260.2296014707377
 31
0.0
  0
LINE
  5
D52F
330
19
100
AcDbEntity
  8
0
  6
ByBlock
 62
     7
100
AcDbLine
 10
133.4671462404474
 20
266.2296014707376
 30
0.0
 11
133.4671462404474
 21
260.2296014707377
 31
0.0
  0
LINE
  5
D530
330
19
100
AcDbEntity
  8
0
  6
ByBlock
 62
     7
100
AcDbLine
 10
268.4549416395658
 20
179.5350449256378
 30
0.0
 11
262.3786720039479
 21
179.2540692767482
 31
0.0
  0
LINE
  5
D531
330
19
100
AcDbEntity
  8
0
  6
ByBlock
 62
     7
100
AcDbLine
 10
262.3786720039479
 20
179.2540692767482
 30
0.0
 11
268.0353673947573
 21
181.490539096709
 31
0.0
  0
LINE
  5
D532
330
19
100
AcDbEntity
  8
0
  6
ByBlock
 62
     7
100
AcDbLine
 10
262.3786720039479
 20
179.2540692767482
 30
0.0
 11
268.2451545171616
 21
180.5127920111734
 31
0.0
  0
LINE
  5
D533
330
19
100
AcDbEntity
  8
0
  6
ByBlock
 62
     7
100
AcDbLine
 10
369.5462176718527
 20
174.729599563389
 30
0.0
 11
368.5462176718527
 21
168.729599563389
 31
0.0
  0
LINE
  5
D534
330
19
100
AcDbEntity
  8
0
  6
ByBlock
 62
     7
100
AcDbLine
 10
368.5462176718527
 20
168.729599563389
 30
0.0
 11
367.5462176718527
 21
174.729599563389
 31
0.0
  0
LINE
  5
D535
330
19
100
AcDbEntity
  8
0
  6
ByBlock
 62
     7
100
AcDbLine
 10
368.5462176718527
 20
168.729599563389
 30
0.0
 11
368.5462176718527
 21
174.729599563389
 31
0.0
  0
TEXT
  5
D536
330
19
100
AcDbEntity
  8
0
  6
Continuous
 62
     7
100
AcDbText
 10
282.1758090772377
 20
185.5472963387101
 30
0.0
 40
5.4
  1
8-\U+22055
 50
12.10987736966778
 41
0.8
100
AcDbText
  0
TEXT
  5
D537
330
19
100
AcDbEntity
  8
0
  6
Continuous
 62
     7
100
AcDbText
 10
366.5462176718527
 20
224.0496000849297
 30
0.0
 40
5.4
  1
120
 50
90.0
 41
0.8
100
AcDbText
  0
LINE
  5
D538
330
19
100
AcDbEntity
  8
0
  6
ByBlock
 62
     7
100
AcDbLine
 10
113.8702006814802
 20
437.3515812150966
 30
0.0
 11
114.8702006814802
 21
443.3515812150965
 31
0.0
  0
LINE
  5
D539
330
19
100
AcDbEntity
  8
0
  6
ByBlock
 62
     7
100
AcDbLine
 10
114.8702006814802
 20
443.3515812150965
 30
0.0
 11
115.8702006814802
 21
437.3515812150966
 31
0.0
  0
LINE
  5
D53A
330
19
100
AcDbEntity
  8
0
  6
ByBlock
 62
     7
100
AcDbLine
 10
114.8702006814802
 20
443.3515812150965
 30
0.0
 11
114.8702006814802
 21
437.3515812150966
 31
0.0
  0
LINE
  5
D53B
330
19
100
AcDbEntity
  8
0
  6
ByBlock
 62
     7
100
AcDbLine
 10
113.8702006814802
 20
272.7296014707377
 30
0.0
 11
114.8702006814802
 21
278.7296014707377
 31
0.0
  0
LINE
  5
D53C
330
19
100
AcDbEntity
  8
0
  6
ByBlock
 62
     7
100
AcDbLine
 10
114.8702006814802
 20
278.7296014707377
 30
0.0
 11
115.8702006814802
 21
272.7296014707377
 31
0.0
  0
LINE
  5
D53D
330
19
100
AcDbEntity
  8
0
  6
ByBlock
 62
     7
100
AcDbLine
 10
114.8702006814802
 20
278.7296014707377
 30
0.0
 11
114.8702006814802
 21
272.7296014707377
 31
0.0
  0
TEXT
  5
D53E
330
19
100
AcDbEntity
  8
0
  6
Continuous
 62
     7
100
AcDbText
 10
112.8702006814801
 20
430.9715809384938
 30
0.0
 40
5.4
  1
19
 50
90.0
 41
0.8
100
AcDbText
  0
LINE
  5
D53F
330
19
100
AcDbEntity
  8
0
  6
ByBlock
 62
     7
100
AcDbLine
 10
115.8702006814802
 20
430.351580661891
 30
0.0
 11
114.8702006814802
 21
424.3515806618908
 31
0.0
  0
LINE
  5
D540
330
19
100
AcDbEntity
  8
0
  6
ByBlock
 62
     7
100
AcDbLine
 10
114.8702006814802
 20
424.3515806618908
 30
0.0
 11
113.8702006814802
 21
430.351580661891
 31
0.0
  0
LINE
  5
D541
330
19
100
AcDbEntity
  8
0
  6
ByBlock
 62
     7
100
AcDbLine
 10
114.8702006814802
 20
424.3515806618908
 30
0.0
 11
114.8702006814802
 21
430.351580661891
 31
0.0
  0
LINE
  5
D542
330
19
100
AcDbEntity
  8
0
  6
ByBlock
 62
     7
100
AcDbLine
 10
178.434304290109
 20
314.176927441471
 30
0.0
 11
172.434304290109
 21
315.176927441471
 31
0.0
  0
LINE
  5
D543
330
19
100
AcDbEntity
  8
0
  6
ByBlock
 62
     7
100
AcDbLine
 10
172.434304290109
 20
315.176927441471
 30
0.0
 11
178.434304290109
 21
316.176927441471
 31
0.0
  0
LINE
  5
D544
330
19
100
AcDbEntity
  8
0
  6
ByBlock
 62
     7
100
AcDbLine
 10
172.434304290109
 20
315.176927441471
 30
0.0
 11
178.434304290109
 21
315.176927441471
 31
0.0
  0
LINE
  5
D545
330
19
100
AcDbEntity
  8
0
  6
ByBlock
 62
     7
100
AcDbLine
 10
165.934304290109
 20
328.4213963802545
 30
0.0
 11
159.934304290109
 21
329.4213963802544
 31
0.0
  0
LINE
  5
D546
330
19
100
AcDbEntity
  8
0
  6
ByBlock
 62
     7
100
AcDbLine
 10
159.934304290109
 20
329.4213963802544
 30
0.0
 11
165.934304290109
 21
330.4213963802545
 31
0.0
  0
LINE
  5
D547
330
19
100
AcDbEntity
  8
0
  6
ByBlock
 62
     7
100
AcDbLine
 10
159.934304290109
 20
329.4213963802544
 30
0.0
 11
165.934304290109
 21
329.4213963802544
 31
0.0
  0
TEXT
  5
D548
330
19
100
AcDbEntity
  8
0
  6
Continuous
 62
     7
100
AcDbText
 10
205.614304290109
 20
331.4213963802544
 30
0.0
 40
5.4
  1
100
 41
0.8
100
AcDbText
  0
TEXT
  5
D549
330
19
100
AcDbEntity
  8
0
  6
Continuous
 62
     7
100
AcDbText
 10
206.334304290109
 20
317.176927441471
 30
0.0
 40
5.4
  1
75
 41
0.8
100
AcDbText
  0
LINE
  5
D54A
330
19
100
AcDbEntity
  8
0
  6
ByBlock
 62
     7
100
AcDbLine
 10
241.4343042901089
 20
316.176927441471
 30
0.0
 11
247.4343042901089
 21
315.176927441471
 31
0.0
  0
LINE
  5
D54B
330
19
100
AcDbEntity
  8
0
  6
ByBlock
 62
     7
100
AcDbLine
 10
247.4343042901089
 20
315.176927441471
 30
0.0
 11
241.4343042901089
 21
314.176927441471
 31
0.0
  0
LINE
  5
D54C
330
19
100
AcDbEntity
  8
0
  6
ByBlock
 62
     7
100
AcDbLine
 10
247.4343042901089
 20
315.176927441471
 30
0.0
 11
241.4343042901089
 21
315.176927441471
 31
0.0
  0
LINE
  5
D54D
330
19
100
AcDbEntity
  8
0
  6
ByBlock
 62
     7
100
AcDbLine
 10
253.9343042901089
 20
330.4213963802545
 30
0.0
 11
259.9343042901089
 21
329.4213963802544
 31
0.0
  0
LINE
  5
D54E
330
19
100
AcDbEntity
  8
0
  6
ByBlock
 62
     7
100
AcDbLine
 10
259.9343042901089
 20
329.4213963802544
 30
0.0
 11
253.9343042901089
 21
328.4213963802545
 31
0.0
  0
LINE
  5
D54F
330
19
100
AcDbEntity
  8
0
  6
ByBlock
 62
     7
100
AcDbLine
 10
259.9343042901089
 20
329.4213963802544
 30
0.0
 11
253.9343042901089
 21
329.4213963802544
 31
0.0
  0
LINE
  5
D550
330
19
100
AcDbEntity
  8
0
  6
ByBlock
 62
     7
100
AcDbLine
 10
367.5462176718527
 20
282.7296006064703
 30
0.0
 11
368.5462176718527
 21
288.7296006064703
 31
0.0
  0
LINE
  5
D551
330
19
100
AcDbEntity
  8
0
  6
ByBlock
 62
     7
100
AcDbLine
 10
368.5462176718527
 20
288.7296006064703
 30
0.0
 11
369.5462176718527
 21
282.7296006064703
 31
0.0
  0
LINE
  5
D552
330
19
100
AcDbEntity
  8
0
  6
ByBlock
 62
     7
100
AcDbLine
 10
368.5462176718527
 20
288.7296006064703
 30
0.0
 11
368.5462176718527
 21
282.7296006064703
 31
0.0
  0
LINE
  5
D553
330
19
100
AcDbEntity
  8
0
  6
ByBlock
 62
     7
100
AcDbLine
 10
155.934304856353
 20
477.1220567532337
 30
0.0
 11
149.934304856353
 21
478.1220567532336
 31
0.0
  0
LINE
  5
D554
330
19
100
AcDbEntity
  8
0
  6
ByBlock
 62
     7
100
AcDbLine
 10
149.934304856353
 20
478.1220567532336
 30
0.0
 11
155.934304856353
 21
479.1220567532336
 31
0.0
  0
LINE
  5
D555
330
19
100
AcDbEntity
  8
0
  6
ByBlock
 62
     7
100
AcDbLine
 10
149.934304856353
 20
478.1220567532336
 30
0.0
 11
155.934304856353
 21
478.1220567532336
 31
0.0
  0
TEXT
  5
D556
330
19
100
AcDbEntity
  8
0
  6
Continuous
 62
     7
100
AcDbText
 10
205.2543053778937
 20
480.1220567532336
 30
0.0
 40
5.4
  1
120
 41
0.8
100
AcDbText
  0
LINE
  5
D557
330
19
100
AcDbEntity
  8
0
  6
ByBlock
 62
     7
100
AcDbLine
 10
263.9343058994343
 20
479.1220567532336
 30
0.0
 11
269.9343058994343
 21
478.1220567532336
 31
0.0
  0
LINE
  5
D558
330
19
100
AcDbEntity
  8
0
  6
ByBlock
 62
     7
100
AcDbLine
 10
269.9343058994343
 20
478.1220567532336
 30
0.0
 11
263.9343058994343
 21
477.1220567532337
 31
0.0
  0
LINE
  5
D559
330
19
100
AcDbEntity
  8
0
  6
ByBlock
 62
     7
100
AcDbLine
 10
269.9343058994343
 20
478.1220567532336
 30
0.0
 11
263.9343058994343
 21
478.1220567532336
 31
0.0
  0
TEXT
  5
D55A
330
19
100
AcDbEntity
  8
0
  6
Continuous
 62
     7
100
AcDbText
 10
490.4343852314721
 20
225.9896014707377
 30
0.0
 40
5.4
  1
60
 50
90.0
 41
0.8
100
AcDbText
  0
LINE
  5
D55B
330
19
100
AcDbEntity
  8
0
  6
ByBlock
 62
     7
100
AcDbLine
 10
493.4343852314723
 20
205.2296014707377
 30
0.0
 11
492.4343852314723
 21
199.2296014707376
 31
0.0
  0
LINE
  5
D55C
330
19
100
AcDbEntity
  8
0
  6
ByBlock
 62
     7
100
AcDbLine
 10
492.4343852314723
 20
199.2296014707376
 30
0.0
 11
491.4343852314723
 21
205.2296014707377
 31
0.0
  0
LINE
  5
D55D
330
19
100
AcDbEntity
  8
0
  6
ByBlock
 62
     7
100
AcDbLine
 10
492.4343852314723
 20
199.2296014707376
 30
0.0
 11
492.4343852314723
 21
205.2296014707377
 31
0.0
  0
LINE
  5
D55E
330
19
100
AcDbEntity
  8
0
  6
ByBlock
 62
     7
100
AcDbLine
 10
491.4343852314723
 20
253.2296014707376
 30
0.0
 11
492.4343852314723
 21
259.2296014707376
 31
0.0
  0
LINE
  5
D55F
330
19
100
AcDbEntity
  8
0
  6
ByBlock
 62
     7
100
AcDbLine
 10
492.4343852314723
 20
259.2296014707376
 30
0.0
 11
493.4343852314723
 21
253.2296014707376
 31
0.0
  0
LINE
  5
D560
330
19
100
AcDbEntity
  8
0
  6
ByBlock
 62
     7
100
AcDbLine
 10
492.4343852314723
 20
259.2296014707376
 30
0.0
 11
492.4343852314723
 21
253.2296014707376
 31
0.0
  0
LINE
  5
D561
330
19
100
AcDbEntity
  8
0
  6
ByBlock
 62
     7
100
AcDbLine
 10
581.8856354487857
 20
197.8670804722187
 30
0.0
 11
587.9400700432133
 21
198.4534436206172
 31
0.0
  0
LINE
  5
D562
330
19
100
AcDbEntity
  8
0
  6
ByBlock
 62
     7
100
AcDbLine
 10
587.9400700432133
 20
198.4534436206172
 30
0.0
 11
582.4030740155327
 21
195.935175368534
 31
0.0
  0
LINE
  5
D563
330
19
100
AcDbEntity
  8
0
  6
ByBlock
 62
     7
100
AcDbLine
 10
587.9400700432133
 20
198.4534436206172
 30
0.0
 11
582.1443547321592
 21
196.9011279203763
 31
0.0
  0
LINE
  5
D564
330
19
100
AcDbEntity
  8
0
  6
ByBlock
 62
     7
100
AcDbLine
 10
599.7902199486953
 20
200.5921224692567
 30
0.0
 11
593.7357853542679
 21
200.0057593208582
 31
0.0
  0
LINE
  5
D565
330
19
100
AcDbEntity
  8
0
  6
ByBlock
 62
     7
100
AcDbLine
 10
593.7357853542679
 20
200.0057593208582
 30
0.0
 11
599.2727813819485
 21
202.5240275729413
 31
0.0
  0
LINE
  5
D566
330
19
100
AcDbEntity
  8
0
  6
ByBlock
 62
     7
100
AcDbLine
 10
593.7357853542679
 20
200.0057593208582
 30
0.0
 11
599.5315006653219
 21
201.558075021099
 31
0.0
  0
TEXT
  5
D567
330
19
100
AcDbEntity
  8
0
  6
Continuous
 62
     7
100
AcDbText
 10
614.8835856724851
 20
207.7404495279543
 30
0.0
 40
5.4
  1
4-\U+22056
 50
14.99408251979922
 41
0.8
100
AcDbText
  0
TEXT
  5
D568
330
19
100
AcDbEntity
  8
0
  6
Continuous
 62
     7
100
AcDbText
 10
406.2360597302898
 20
331.4213963802544
 30
0.0
 40
5.4
  1
19
 41
0.8
100
AcDbText
  0
LINE
  5
D569
330
19
100
AcDbEntity
  8
0
  6
ByBlock
 62
     7
100
AcDbLine
 10
405.6160594536869
 20
328.4213963802545
 30
0.0
 11
399.6160594536871
 21
329.4213963802544
 31
0.0
  0
LINE
  5
D56A
330
19
100
AcDbEntity
  8
0
  6
ByBlock
 62
     7
100
AcDbLine
 10
399.6160594536871
 20
329.4213963802544
 30
0.0
 11
405.6160594536869
 21
330.4213963802545
 31
0.0
  0
LINE
  5
D56B
330
19
100
AcDbEntity
  8
0
  6
ByBlock
 62
     7
100
AcDbLine
 10
399.6160594536871
 20
329.4213963802544
 30
0.0
 11
405.6160594536869
 21
329.4213963802544
 31
0.0
  0
LINE
  5
D56C
330
19
100
AcDbEntity
  8
0
  6
ByBlock
 62
     7
100
AcDbLine
 10
412.6160600068926
 20
330.4213963802545
 30
0.0
 11
418.6160600068927
 21
329.4213963802544
 31
0.0
  0
LINE
  5
D56D
330
19
100
AcDbEntity
  8
0
  6
ByBlock
 62
     7
100
AcDbLine
 10
418.6160600068927
 20
329.4213963802544
 30
0.0
 11
412.6160600068926
 21
328.4213963802545
 31
0.0
  0
LINE
  5
D56E
330
19
100
AcDbEntity
  8
0
  6
ByBlock
 62
     7
100
AcDbLine
 10
418.6160600068927
 20
329.4213963802544
 30
0.0
 11
412.6160600068926
 21
329.4213963802544
 31
0.0
  0
LINE
  5
D56F
330
19
100
AcDbEntity
  8
0
  6
ByBlock
 62
     7
100
AcDbLine
 10
536.8379276987411
 20
302.0991514119682
 30
0.0
 11
530.8379276987412
 21
303.0991514119683
 31
0.0
  0
LINE
  5
D570
330
19
100
AcDbEntity
  8
0
  6
ByBlock
 62
     7
100
AcDbLine
 10
530.8379276987412
 20
303.0991514119683
 30
0.0
 11
536.8379276987411
 21
304.0991514119682
 31
0.0
  0
LINE
  5
D571
330
19
100
AcDbEntity
  8
0
  6
ByBlock
 62
     7
100
AcDbLine
 10
530.8379276987412
 20
303.0991514119683
 30
0.0
 11
536.8379276987411
 21
303.0991514119683
 31
0.0
  0
TEXT
  5
D572
330
19
100
AcDbEntity
  8
0
  6
Continuous
 62
     7
100
AcDbText
 10
557.5979276987407
 20
305.0991514119683
 30
0.0
 40
5.4
  1
60
 41
0.8
100
AcDbText
  0
LINE
  5
D573
330
19
100
AcDbEntity
  8
0
  6
ByBlock
 62
     7
100
AcDbLine
 10
584.8379276987402
 20
304.0991514119682
 30
0.0
 11
590.8379276987402
 21
303.0991514119683
 31
0.0
  0
LINE
  5
D574
330
19
100
AcDbEntity
  8
0
  6
ByBlock
 62
     7
100
AcDbLine
 10
590.8379276987402
 20
303.0991514119683
 30
0.0
 11
584.8379276987402
 21
302.0991514119682
 31
0.0
  0
LINE
  5
D575
330
19
100
AcDbEntity
  8
0
  6
ByBlock
 62
     7
100
AcDbLine
 10
590.8379276987402
 20
303.0991514119683
 30
0.0
 11
584.8379276987402
 21
303.0991514119683
 31
0.0
  0
VIEWPORT
  5
85C7
102
{ACAD_XDICTIONARY
360
D5A1
102
}
330
16
100
AcDbEntity
 67
     1
  8
0
  6
Continuous
 62
     3
100
AcDbViewport
 10
30.68112562583743
 20
14.26104116439819
 30
0.0
 40
66.4229250113629
 41
30.76468086929322
 68
     2
 69
     1
 12
30.68112562583743
 22
14.26104116439819
 13
0.0
 23
0.0
 14
10.0
 24
10.0
 15
10.0
 25
10.0
 16
0.0
 26
0.0
 36
1.0
 17
0.0
 27
0.0
 37
0.0
 42
50.0
 43
0.0
 44
0.0
 45
30.76468086929322
 50
0.0
 51
0.0
 72
   100
 90
    32800
  1

281
     0
 71
     1
 74
     0
110
0.0
120
0.0
130
0.0
111
1.0
121
0.0
131
0.0
112
0.0
122
1.0
132
0.0
 79
     0
146
0.0
  0
VIEWPORT
  5
85C9
102
{ACAD_XDICTIONARY
360
D5A3
102
}
330
16
100
AcDbEntity
 67
     1
  8
0
  6
Continuous
 62
     3
100
AcDbViewport
 10
20.4099579334259
 20
14.25892481803894
 30
0.0
 40
32.65593269348145
 41
22.8142797088623
 68
     1
 69
     2
 12
202.0014294298215
 22
140.7013727019692
 13
0.0
 23
0.0
 14
1.0
 24
1.0
 15
0.0
 25
0.0
 16
0.0
 26
0.0
 36
1.0
 17
0.0
 27
0.0
 37
0.0
 42
50.0
 43
0.0
 44
0.0
 45
284.670417502168
 50
0.0
 51
0.0
 72
   100
 90
    32864
  1

281
     0
 71
     1
 74
     0
110
0.0
120
0.0
130
0.0
111
1.0
121
0.0
131
0.0
112
0.0
122
1.0
132
0.0
 79
     0
146
0.0
  0
ENDSEC
  0
SECTION
  2
OBJECTS
  0
DICTIONARY
  5
C
330
0
100
AcDbDictionary
281
     1
  3
ACAD_COLOR
350
C6E4
  3
ACAD_GROUP
350
D
  3
ACAD_IMAGE_VARS
350
9089
  3
ACAD_LAYOUT
350
630F
  3
ACAD_MATERIAL
350
C6E3
  3
ACAD_MLINESTYLE
350
E
  3
ACAD_PLOTSETTINGS
350
6310
  3
ACAD_PLOTSTYLENAME
350
630D
  3
ACAD_SCALELIST
350
9050
  3
ACDBHEADERROUNDTRIPXREC
350
D59A
  3
AcDbVariableDictionary
350
85CA
  3
APPDATA
350
9088
  3
DWGPROPS
350
D599
  0
DICTIONARY
  5
D5A1
330
85C7
100
AcDbDictionary
280
     1
281
     1
  3
ACAD_XREC_ROUNDTRIP
360
D5A2
  0
DICTIONARY
  5
D5A3
330
85C9
100
AcDbDictionary
280
     1
281
     1
  3
ACAD_XREC_ROUNDTRIP
360
D5A4
  0
DICTIONARY
  5
C6E4
102
{ACAD_REACTORS
330
C
102
}
330
C
100
AcDbDictionary
281
     1
  0
DICTIONARY
  5
D
102
{ACAD_REACTORS
330
C
102
}
330
C
100
AcDbDictionary
281
     1
  3
*A1
350
8B20
  3
*A2
350
9001
  3
*A3
350
A4BC
  0
RASTERVARIABLES
  5
9089
102
{ACAD_REACTORS
330
C
102
}
330
C
100
AcDbRasterVariables
 90
        0
 70
     1
 71
     1
 72
     0
  0
DICTIONARY
  5
630F
102
{ACAD_REACTORS
330
C
102
}
330
C
100
AcDbDictionary
281
     1
  3
Model
350
6311
  3
ﾚｲｱｳﾄ1
350
6312
  0
DICTIONARY
  5
C6E3
102
{ACAD_REACTORS
330
C
102
}
330
C
100
AcDbDictionary
281
     1
  0
DICTIONARY
  5
E
102
{ACAD_REACTORS
330
C
102
}
330
C
100
AcDbDictionary
281
     1
  3
STANDARD
350
1C
  0
DICTIONARY
  5
6310
102
{ACAD_REACTORS
330
C
102
}
330
C
100
AcDbDictionary
281
     1
  0
ACDBDICTIONARYWDFLT
  5
630D
102
{ACAD_REACTORS
330
C
102
}
330
C
100
AcDbDictionary
281
     1
  3
Normal
350
630E
100
AcDbDictionaryWithDefault
340
630E
  0
DICTIONARY
  5
9050
102
{ACAD_REACTORS
330
C
102
}
330
C
100
AcDbDictionary
281
     1
  3
A0
350
9051
  3
A1
350
9052
  3
A2
350
9053
  3
A3
350
9054
  3
A4
350
9055
  3
A5
350
9056
  3
A6
350
9057
  3
A7
350
9058
  3
A8
350
9059
  3
A9
350
905A
  3
B0
350
905B
  3
B1
350
905C
  3
B2
350
905D
  3
B3
350
905E
  3
B4
350
905F
  3
B5
350
9060
  3
B6
350
9061
  3
B7
350
9062
  3
B8
350
9063
  3
B9
350
9064
  3
C0
350
9065
  3
C1
350
9066
  3
C2
350
9067
  3
C3
350
9068
  3
C4
350
9069
  3
C5
350
906A
  3
C6
350
906B
  3
C7
350
906C
  3
C8
350
906D
  3
C9
350
906E
  3
D0
350
906F
  3
D1
350
9070
  3
D2
350
9071
  0
DICTIONARY
  5
D59A
102
{ACAD_REACTORS
330
C
102
}
330
C
100
AcDbDictionary
281
     1
  3
COLORDICT
350
D59C
  3
MATERIALDICT
350
D59B
  0
DICTIONARY
  5
85CA
102
{ACAD_REACTORS
330
C
102
}
330
C
100
AcDbDictionary
281
     1
  3
DIMASSOC
350
8B6A
  3
PROJECTNAME
350
8B6B
  3
SORTENTS
350
85CB
  0
DICTIONARY
  5
9088
102
{ACAD_REACTORS
330
C
102
}
330
C
100
AcDbDictionary
281
     1
  0
XRECORD
  5
D599
102
{ACAD_REACTORS
330
C
102
}
330
C
100
AcDbXrecord
280
     1
  1
DWGPROPS COOKIE
  2

  3

  4

  6

  7

  8
kawabata
  9

300
=
301
=
302
=
303
=
304
=
305
=
306
=
307
=
308
=
309
=
 40
8.62405292824074
 41
2450571.401945833
 42
2458922.478915128
  1

 90
        0
  0
XRECORD
  5
D5A2
102
{ACAD_REACTORS
330
D5A1
102
}
330
D5A1
100
AcDbXrecord
280
     1
102
SHADEPLOT
 70
     0
  0
XRECORD
  5
D5A4
102
{ACAD_REACTORS
330
D5A3
102
}
330
D5A3
100
AcDbXrecord
280
     1
102
SHADEPLOT
 70
     0
  0
GROUP
  5
8B20
102
{ACAD_REACTORS
330
D
102
}
330
D
100
AcDbGroup
300

 70
     1
 71
     1
  0
GROUP
  5
9001
102
{ACAD_REACTORS
330
D
102
}
330
D
100
AcDbGroup
300

 70
     1
 71
     1
  0
GROUP
  5
A4BC
102
{ACAD_REACTORS
330
D
102
}
330
D
100
AcDbGroup
300

 70
     1
 71
     1
  0
LAYOUT
  5
6311
102
{ACAD_XDICTIONARY
360
D59D
102
}
102
{ACAD_REACTORS
330
630F
102
}
330
630F
100
AcDbPlotSettings
  1

  2
Adobe PDF.pc3
  4
A3
  6
OLE1
 40
3.174999952316283
 41
3.174999952316283
 42
3.17498779296875
 43
3.17498779296875
 44
420.1583251953125
 45
297.0318298339844
 46
17.4
 47
10.34
 48
25.0
 49
7.0
140
783.0
141
547.0
142
1.0
143
2.0
 70
 11940
 72
     1
 73
     0
 74
     4
  7
aclt.ctb
 75
     0
147
0.5
148
-25.0
149
-7.0
100
AcDbLayout
  1
Model
 70
     1
 71
     0
 10
0.0
 20
0.0
 11
12.0
 21
9.0
 12
0.0
 22
0.0
 32
0.0
 14
0.0
 24
0.0
 34
0.0
 15
783.0
 25
547.0000000000001
 35
0.0
146
0.0
 13
0.0
 23
0.0
 33
0.0
 16
1.0
 26
0.0
 36
0.0
 17
0.0
 27
1.0
 37
0.0
 76
     0
330
19
  0
LAYOUT
  5
6312
102
{ACAD_XDICTIONARY
360
D59F
102
}
102
{ACAD_REACTORS
330
630F
102
}
330
630F
100
AcDbPlotSettings
  1

  2
CASIO COLOR PAGEPRESTO N4-612
  4
A3
  6

 40
5.873749732971191
 41
5.916075706481932
 42
5.91607666015625
 43
5.873748779296875
 44
296.9683227539062
 45
419.9889831542968
 46
0.0
 47
0.0
 48
0.0
 49
0.0
140
0.0
141
0.0
142
10.0
143
1.0
 70
   672
 72
     1
 73
     1
 74
     0
  7
aclt.ctb
 75
    16
147
1.0
148
0.0
149
0.0
100
AcDbLayout
  1
ﾚｲｱｳﾄ1
 70
     1
 71
     1
 10
-0.5873748779296875
 20
-0.5873749732971192
 11
41.41152343749999
 21
29.10945730209351
 12
0.0
 22
0.0
 32
0.0
 14
4.08199158668517
 24
2.851784963607789
 34
0.0
 15
36.73792428016663
 25
25.66606467247009
 35
0.0
146
0.0
 13
0.0
 23
0.0
 33
0.0
 16
1.0
 26
0.0
 36
0.0
 17
0.0
 27
1.0
 37
0.0
 76
     0
330
16
331
85C9
  0
MLINESTYLE
  5
1C
102
{ACAD_REACTORS
330
E
102
}
330
E
100
AcDbMlineStyle
  2
STANDARD
 70
     0
  3

 62
     0
 51
90.0
 52
90.0
 71
     2
 49
0.5
 62
   256
  6
BYLAYER
 49
-0.5
 62
   256
  6
BYLAYER
  0
ACDBPLACEHOLDER
  5
630E
102
{ACAD_REACTORS
330
630D
102
}
330
630D
  0
ACAD_PROXY_OBJECT
  5
9051
102
{ACAD_REACTORS
330
9050
102
}
330
9050
100
AcDbProxyObject
 90
      499
 91
      504
 95
   393239
 70
     0
 93
       41
310
903313A31580
 94
        0
1001
ACAD
1000
AcRTDxfName
1000
SCALE
1000
AcRTDxfName
1000
SCALE
  0
ACAD_PROXY_OBJECT
  5
9052
102
{ACAD_REACTORS
330
9050
102
}
330
9050
100
AcDbProxyObject
 90
      499
 91
      504
 95
   393239
 70
     0
 93
      105
310
903313A324000000000000004044
 94
        0
1001
ACAD
1000
AcRTDxfName
1000
SCALE
1000
AcRTDxfName
1000
SCALE
  0
ACAD_PROXY_OBJECT
  5
9053
102
{ACAD_REACTORS
330
9050
102
}
330
9050
100
AcDbProxyObject
 90
      499
 91
      504
 95
   393239
 70
     0
 93
      105
310
903313A344000000000000104044
 94
        0
1001
ACAD
1000
AcRTDxfName
1000
SCALE
1000
AcRTDxfName
1000
SCALE
  0
ACAD_PROXY_OBJECT
  5
9054
102
{ACAD_REACTORS
330
9050
102
}
330
9050
100
AcDbProxyObject
 90
      499
 91
      504
 95
   393239
 70
     0
 93
      105
310
903313A354000000000000144044
 94
        0
1001
ACAD
1000
AcRTDxfName
1000
SCALE
1000
AcRTDxfName
1000
SCALE
  0
ACAD_PROXY_OBJECT
  5
9055
102
{ACAD_REACTORS
330
9050
102
}
330
9050
100
AcDbProxyObject
 90
      499
 91
      504
 95
   393239
 70
     0
 93
      105
310
903313A384000000000000204044
 94
        0
1001
ACAD
1000
AcRTDxfName
1000
SCALE
1000
AcRTDxfName
1000
SCALE
  0
ACAD_PROXY_OBJECT
  5
9056
102
{ACAD_REACTORS
330
9050
102
}
330
9050
100
AcDbProxyObject
 90
      499
 91
      504
 95
   393239
 70
     0
 93
      113
310
904313A31304000000000000244000
 94
        0
1001
ACAD
1000
AcRTDxfName
1000
SCALE
1000
AcRTDxfName
1000
SCALE
  0
ACAD_PROXY_OBJECT
  5
9057
102
{ACAD_REACTORS
330
9050
102
}
330
9050
100
AcDbProxyObject
 90
      499
 91
      504
 95
   393239
 70
     0
 93
      113
310
904313A31364000000000000304000
 94
        0
1001
ACAD
1000
AcRTDxfName
1000
SCALE
1000
AcRTDxfName
1000
SCALE
  0
ACAD_PROXY_OBJECT
  5
9058
102
{ACAD_REACTORS
330
9050
102
}
330
9050
100
AcDbProxyObject
 90
      499
 91
      504
 95
   393239
 70
     0
 93
      113
310
904313A32304000000000000344000
 94
        0
1001
ACAD
1000
AcRTDxfName
1000
SCALE
1000
AcRTDxfName
1000
SCALE
  0
ACAD_PROXY_OBJECT
  5
9059
102
{ACAD_REACTORS
330
9050
102
}
330
9050
100
AcDbProxyObject
 90
      499
 91
      504
 95
   393239
 70
     0
 93
      113
310
904313A333040000000000003E4000
 94
        0
1001
ACAD
1000
AcRTDxfName
1000
SCALE
1000
AcRTDxfName
1000
SCALE
  0
ACAD_PROXY_OBJECT
  5
905A
102
{ACAD_REACTORS
330
9050
102
}
330
9050
100
AcDbProxyObject
 90
      499
 91
      504
 95
   393239
 70
     0
 93
      113
310
904313A34304000000000000444000
 94
        0
1001
ACAD
1000
AcRTDxfName
1000
SCALE
1000
AcRTDxfName
1000
SCALE
  0
ACAD_PROXY_OBJECT
  5
905B
102
{ACAD_REACTORS
330
9050
102
}
330
9050
100
AcDbProxyObject
 90
      499
 91
      504
 95
   393239
 70
     0
 93
      113
310
904313A35304000000000000494000
 94
        0
1001
ACAD
1000
AcRTDxfName
1000
SCALE
1000
AcRTDxfName
1000
SCALE
  0
ACAD_PROXY_OBJECT
  5
905C
102
{ACAD_REACTORS
330
9050
102
}
330
9050
100
AcDbProxyObject
 90
      499
 91
      504
 95
   393239
 70
     0
 93
      121
310
905313A313030400000000000059402C
 94
        0
1001
ACAD
1000
AcRTDxfName
1000
SCALE
1000
AcRTDxfName
1000
SCALE
  0
ACAD_PROXY_OBJECT
  5
905D
102
{ACAD_REACTORS
330
9050
102
}
330
9050
100
AcDbProxyObject
 90
      499
 91
      504
 95
   393239
 70
     0
 93
      105
310
903323A310000000000000010159
 94
        0
1001
ACAD
1000
AcRTDxfName
1000
SCALE
1000
AcRTDxfName
1000
SCALE
  0
ACAD_PROXY_OBJECT
  5
905E
102
{ACAD_REACTORS
330
9050
102
}
330
9050
100
AcDbProxyObject
 90
      499
 91
      504
 95
   393239
 70
     0
 93
      105
310
903343A310000000000000410144
 94
        0
1001
ACAD
1000
AcRTDxfName
1000
SCALE
1000
AcRTDxfName
1000
SCALE
  0
ACAD_PROXY_OBJECT
  5
905F
102
{ACAD_REACTORS
330
9050
102
}
330
9050
100
AcDbProxyObject
 90
      499
 91
      504
 95
   393239
 70
     0
 93
      105
310
903383A310000000000000810144
 94
        0
1001
ACAD
1000
AcRTDxfName
1000
SCALE
1000
AcRTDxfName
1000
SCALE
  0
ACAD_PROXY_OBJECT
  5
9060
102
{ACAD_REACTORS
330
9050
102
}
330
9050
100
AcDbProxyObject
 90
      499
 91
      504
 95
   393239
 70
     0
 93
      113
310
90431303A310000000000000910100
 94
        0
1001
ACAD
1000
AcRTDxfName
1000
SCALE
1000
AcRTDxfName
1000
SCALE
  0
ACAD_PROXY_OBJECT
  5
9061
102
{ACAD_REACTORS
330
9050
102
}
330
9050
100
AcDbProxyObject
 90
      499
 91
      504
 95
   393239
 70
     0
 93
      121
310
9053130303A31000000000000165012C
 94
        0
1001
ACAD
1000
AcRTDxfName
1000
SCALE
1000
AcRTDxfName
1000
SCALE
  0
ACAD_PROXY_OBJECT
  5
9062
102
{ACAD_REACTORS
330
9050
102
}
330
9050
100
AcDbProxyObject
 90
      499
 91
      504
 95
   393239
 70
     0
 93
      257
310
90E312F31323822203D2031272D3022000000000000200FC000000000000284019
 94
        0
1001
ACAD
1000
AcRTDxfName
1000
SCALE
1000
AcRTDxfName
1000
SCALE
  0
ACAD_PROXY_OBJECT
  5
9063
102
{ACAD_REACTORS
330
9050
102
}
330
9050
100
AcDbProxyObject
 90
      499
 91
      504
 95
   393239
 70
     0
 93
      249
310
90D312F363422203D2031272D3022000000000000240FC000000000000284000
 94
        0
1001
ACAD
1000
AcRTDxfName
1000
SCALE
1000
AcRTDxfName
1000
SCALE
  0
ACAD_PROXY_OBJECT
  5
9064
102
{ACAD_REACTORS
330
9050
102
}
330
9050
100
AcDbProxyObject
 90
      499
 91
      504
 95
   393239
 70
     0
 93
      249
310
90D312F333222203D2031272D3022000000000000280FC000000000000284000
 94
        0
1001
ACAD
1000
AcRTDxfName
1000
SCALE
1000
AcRTDxfName
1000
SCALE
  0
ACAD_PROXY_OBJECT
  5
9065
102
{ACAD_REACTORS
330
9050
102
}
330
9050
100
AcDbProxyObject
 90
      499
 91
      504
 95
   393239
 70
     0
 93
      249
310
90D312F313622203D2031272D30220000000000002C0FC000000000000284000
 94
        0
1001
ACAD
1000
AcRTDxfName
1000
SCALE
1000
AcRTDxfName
1000
SCALE
  0
ACAD_PROXY_OBJECT
  5
9066
102
{ACAD_REACTORS
330
9050
102
}
330
9050
100
AcDbProxyObject
 90
      499
 91
      504
 95
   393239
 70
     0
 93
      249
310
90D332F333222203D2031272D30220000000000002E0FC000000000000284000
 94
        0
1001
ACAD
1000
AcRTDxfName
1000
SCALE
1000
AcRTDxfName
1000
SCALE
  0
ACAD_PROXY_OBJECT
  5
9067
102
{ACAD_REACTORS
330
9050
102
}
330
9050
100
AcDbProxyObject
 90
      499
 91
      504
 95
   393239
 70
     0
 93
      241
310
90C312F3822203D2031272D3022000000000000300FC000000000000284014
 94
        0
1001
ACAD
1000
AcRTDxfName
1000
SCALE
1000
AcRTDxfName
1000
SCALE
  0
ACAD_PROXY_OBJECT
  5
9068
102
{ACAD_REACTORS
330
9050
102
}
330
9050
100
AcDbProxyObject
 90
      499
 91
      504
 95
   393239
 70
     0
 93
      249
310
90D332F313622203D2031272D3022000000000000320FC000000000000284000
 94
        0
1001
ACAD
1000
AcRTDxfName
1000
SCALE
1000
AcRTDxfName
1000
SCALE
  0
ACAD_PROXY_OBJECT
  5
9069
102
{ACAD_REACTORS
330
9050
102
}
330
9050
100
AcDbProxyObject
 90
      499
 91
      504
 95
   393239
 70
     0
 93
      241
310
90C312F3422203D2031272D3022000000000000340FC000000000000284014
 94
        0
1001
ACAD
1000
AcRTDxfName
1000
SCALE
1000
AcRTDxfName
1000
SCALE
  0
ACAD_PROXY_OBJECT
  5
906A
102
{ACAD_REACTORS
330
9050
102
}
330
9050
100
AcDbProxyObject
 90
      499
 91
      504
 95
   393239
 70
     0
 93
      241
310
90C332F3822203D2031272D3022000000000000360FC000000000000284014
 94
        0
1001
ACAD
1000
AcRTDxfName
1000
SCALE
1000
AcRTDxfName
1000
SCALE
  0
ACAD_PROXY_OBJECT
  5
906B
102
{ACAD_REACTORS
330
9050
102
}
330
9050
100
AcDbProxyObject
 90
      499
 91
      504
 95
   393239
 70
     0
 93
      241
310
90C312F3222203D2031272D3022000000000000380FC000000000000284014
 94
        0
1001
ACAD
1000
AcRTDxfName
1000
SCALE
1000
AcRTDxfName
1000
SCALE
  0
ACAD_PROXY_OBJECT
  5
906C
102
{ACAD_REACTORS
330
9050
102
}
330
9050
100
AcDbProxyObject
 90
      499
 91
      504
 95
   393239
 70
     0
 93
      241
310
90C332F3422203D2031272D30220000000000003A0FC000000000000284014
 94
        0
1001
ACAD
1000
AcRTDxfName
1000
SCALE
1000
AcRTDxfName
1000
SCALE
  0
ACAD_PROXY_OBJECT
  5
906D
102
{ACAD_REACTORS
330
9050
102
}
330
9050
100
AcDbProxyObject
 90
      499
 91
      504
 95
   393239
 70
     0
 93
      161
310
90A3122203D2031272D30224000000000000284049
 94
        0
1001
ACAD
1000
AcRTDxfName
1000
SCALE
1000
AcRTDxfName
1000
SCALE
  0
ACAD_PROXY_OBJECT
  5
906E
102
{ACAD_REACTORS
330
9050
102
}
330
9050
100
AcDbProxyObject
 90
      499
 91
      504
 95
   393239
 70
     0
 93
      257
310
90E312D312F3222203D2031272D30220000000000003E0FC000000000000284019
 94
        0
1001
ACAD
1000
AcRTDxfName
1000
SCALE
1000
AcRTDxfName
1000
SCALE
  0
ACAD_PROXY_OBJECT
  5
906F
102
{ACAD_REACTORS
330
9050
102
}
330
9050
100
AcDbProxyObject
 90
      499
 91
      504
 95
   393239
 70
     0
 93
      225
310
90A3322203D2031272D302200000000000002100000000000000284014
 94
        0
1001
ACAD
1000
AcRTDxfName
1000
SCALE
1000
AcRTDxfName
1000
SCALE
  0
ACAD_PROXY_OBJECT
  5
9070
102
{ACAD_REACTORS
330
9050
102
}
330
9050
100
AcDbProxyObject
 90
      499
 91
      504
 95
   393239
 70
     0
 93
      225
310
90A3622203D2031272D302200000000000006100000000000000284014
 94
        0
1001
ACAD
1000
AcRTDxfName
1000
SCALE
1000
AcRTDxfName
1000
SCALE
  0
ACAD_PROXY_OBJECT
  5
9071
102
{ACAD_REACTORS
330
9050
102
}
330
9050
100
AcDbProxyObject
 90
      499
 91
      504
 95
   393239
 70
     0
 93
      249
310
90D31272D3022203D2031272D30220000000000000A100000000000000284000
 94
        0
1001
ACAD
1000
AcRTDxfName
1000
SCALE
1000
AcRTDxfName
1000
SCALE
  0
XRECORD
  5
D59C
102
{ACAD_REACTORS
330
D59A
102
}
330
D59A
100
AcDbXrecord
280
     1
340
C6E4
  0
XRECORD
  5
D59B
102
{ACAD_REACTORS
330
D59A
102
}
330
D59A
100
AcDbXrecord
280
     1
340
C6E3
  0
DICTIONARYVAR
  5
8B6A
102
{ACAD_REACTORS
330
85CA
102
}
330
85CA
100
DictionaryVariables
280
     0
  1
1
  0
DICTIONARYVAR
  5
8B6B
102
{ACAD_REACTORS
330
85CA
102
}
330
85CA
100
DictionaryVariables
280
     0
  1

  0
DICTIONARYVAR
  5
85CB
102
{ACAD_REACTORS
330
85CA
102
}
330
85CA
100
DictionaryVariables
280
     0
  1
96
  0
DICTIONARY
  5
D59D
330
6311
100
AcDbDictionary
280
     1
281
     1
  3
ACAD_XREC_ROUNDTRIP
360
D59E
  0
DICTIONARY
  5
D59F
330
6312
100
AcDbDictionary
280
     1
281
     1
  3
ACAD_XREC_ROUNDTRIP
360
D5A0
  0
XRECORD
  5
D59E
102
{ACAD_REACTORS
330
D59D
102
}
330
D59D
100
AcDbXrecord
280
     1
102
SHADEPLOT
 70
     0
102
SHADEPLOTRESLEVEL
 70
     2
102
SHADEPLOTCUSTOMDPI
 70
   300
  0
XRECORD
  5
D5A0
102
{ACAD_REACTORS
330
D59F
102
}
330
D59F
100
AcDbXrecord
280
     1
102
SHADEPLOT
 70
     0
102
SHADEPLOTRESLEVEL
 70
     2
102
SHADEPLOTCUSTOMDPI
 70
   300
  0
ENDSEC
  0
EOF
