  0
SECTION
  2
HEADER
  9
$ACADVER
  1
AC1015
  9
$ACADMAINTVER
 70
    20
  9
$DWGCODEPAGE
  3
ANSI_932
  9
$INSBASE
 10
0.0
 20
0.0
 30
0.0
  9
$EXTMIN
 10
134.1950988092894
 20
1952.585726084016
 30
-0.0000000349181948
  9
$EXTMAX
 10
1814.324815066486
 20
3140.917334696982
 30
0.0000000814935746
  9
$LIMMIN
 10
124.999995
 20
34.99999500000001
  9
$LIMMAX
 10
2020.0001
 20
1384.9999
  9
$ORTHOMODE
 70
     1
  9
$REGENMODE
 70
     1
  9
$FILLMODE
 70
     1
  9
$QTEXTMODE
 70
     0
  9
$MIRRTEXT
 70
     1
  9
$LTSCALE
 40
1.0
  9
$ATTMODE
 70
     1
  9
$TEXTSIZE
 40
10.8
  9
$TRACEWID
 40
0.05
  9
$TEXTSTYLE
  7
y-4
  9
$CLAYER
  8
0
  9
$CELTYPE
  6
CONTINUOUS
  9
$CECOLOR
 62
     3
  9
$CELTSCALE
 40
1.0
  9
$DISPSILH
 70
     0
  9
$DIMSCALE
 40
4.0
  9
$DIMASZ
 40
2.5
  9
$DIMEXO
 40
3.0
  9
$DIMDLI
 40
7.0
  9
$DIMRND
 40
0.0
  9
$DIMDLE
 40
0.0
  9
$DIMEXE
 40
2.0
  9
$DIMTP
 40
0.0
  9
$DIMTM
 40
0.0
  9
$DIMTXT
 40
2.7
  9
$DIMCEN
 40
0.0
  9
$DIMTSZ
 40
0.0
  9
$DIMTOL
 70
     0
  9
$DIMLIM
 70
     0
  9
$DIMTIH
 70
     0
  9
$DIMTOH
 70
     0
  9
$DIMSE1
 70
     0
  9
$DIMSE2
 70
     0
  9
$DIMTAD
 70
     1
  9
$DIMZIN
 70
     8
  9
$DIMBLK
  1
OPEN
  9
$DIMASO
 70
     1
  9
$DIMSHO
 70
     1
  9
$DIMPOST
  1

  9
$DIMAPOST
  1

  9
$DIMALT
 70
     0
  9
$DIMALTD
 70
     2
  9
$DIMALTF
 40
25.4
  9
$DIMLFAC
 40
1.0
  9
$DIMTOFL
 70
     1
  9
$DIMTVP
 40
0.0
  9
$DIMTIX
 70
     0
  9
$DIMSOXD
 70
     0
  9
$DIMSAH
 70
     0
  9
$DIMBLK1
  1

  9
$DIMBLK2
  1

  9
$DIMSTYLE
  2
y-4
  9
$DIMCLRD
 70
     4
  9
$DIMCLRE
 70
     4
  9
$DIMCLRT
 70
     3
  9
$DIMTFAC
 40
1.0
  9
$DIMGAP
 40
1.0
  9
$DIMJUST
 70
     0
  9
$DIMSD1
 70
     0
  9
$DIMSD2
 70
     0
  9
$DIMTOLJ
 70
     1
  9
$DIMTZIN
 70
     0
  9
$DIMALTZ
 70
     0
  9
$DIMALTTZ
 70
     0
  9
$DIMUPT
 70
     0
  9
$DIMDEC
 70
     8
  9
$DIMTDEC
 70
     8
  9
$DIMALTU
 70
     2
  9
$DIMALTTD
 70
     2
  9
$DIMTXSTY
  7
y-4
  9
$DIMAUNIT
 70
     0
  9
$DIMADEC
 70
     8
  9
$DIMALTRND
 40
0.0
  9
$DIMAZIN
 70
     2
  9
$DIMDSEP
 70
    46
  9
$DIMATFIT
 70
     3
  9
$DIMFRAC
 70
     0
  9
$DIMLDRBLK
  1
OPEN
  9
$DIMLUNIT
 70
     2
  9
$DIMLWD
 70
    -2
  9
$DIMLWE
 70
    -2
  9
$DIMTMOVE
 70
     0
  9
$LUNITS
 70
     2
  9
$LUPREC
 70
     8
  9
$SKETCHINC
 40
0.1
  9
$FILLETRAD
 40
4.799999999999999
  9
$AUNITS
 70
     0
  9
$AUPREC
 70
     6
  9
$MENU
  1
acad
  9
$ELEVATION
 40
0.0
  9
$PELEVATION
 40
0.0
  9
$THICKNESS
 40
0.0
  9
$LIMCHECK
 70
     0
  9
$CHAMFERA
 40
0.0
  9
$CHAMFERB
 40
0.0
  9
$CHAMFERC
 40
0.0
  9
$CHAMFERD
 40
0.0
  9
$SKPOLY
 70
     0
  9
$TDCREATE
 40
2450571.401945833
  9
$TDUCREATE
 40
2450571.026945834
  9
$TDUPDATE
 40
2458457.623516169
  9
$TDUUPDATE
 40
2458457.248516169
  9
$TDINDWG
 40
2.1461673611
  9
$TDUSRTIMER
 40
2.1461673611
  9
$USRTIMER
 70
     1
  9
$ANGBASE
 50
0.0
  9
$ANGDIR
 70
     0
  9
$PDMODE
 70
     0
  9
$PDSIZE
 40
0.0
  9
$PLINEWID
 40
0.0
  9
$SPLFRAME
 70
     0
  9
$SPLINETYPE
 70
     6
  9
$SPLINESEGS
 70
     8
  9
$HANDSEED
  5
6955
  9
$SURFTAB1
 70
     6
  9
$SURFTAB2
 70
     6
  9
$SURFTYPE
 70
     6
  9
$SURFU
 70
     6
  9
$SURFV
 70
     6
  9
$UCSBASE
  2

  9
$UCSNAME
  2

  9
$UCSORG
 10
0.0
 20
0.0
 30
0.0
  9
$UCSXDIR
 10
1.0
 20
0.0
 30
0.0
  9
$UCSYDIR
 10
0.0
 20
1.0
 30
0.0
  9
$UCSORTHOREF
  2

  9
$UCSORTHOVIEW
 70
     0
  9
$UCSORGTOP
 10
0.0
 20
0.0
 30
0.0
  9
$UCSORGBOTTOM
 10
0.0
 20
0.0
 30
0.0
  9
$UCSORGLEFT
 10
0.0
 20
0.0
 30
0.0
  9
$UCSORGRIGHT
 10
0.0
 20
0.0
 30
0.0
  9
$UCSORGFRONT
 10
0.0
 20
0.0
 30
0.0
  9
$UCSORGBACK
 10
0.0
 20
0.0
 30
0.0
  9
$PUCSBASE
  2

  9
$PUCSNAME
  2

  9
$PUCSORG
 10
0.0
 20
0.0
 30
0.0
  9
$PUCSXDIR
 10
1.0
 20
0.0
 30
0.0
  9
$PUCSYDIR
 10
0.0
 20
1.0
 30
0.0
  9
$PUCSORTHOREF
  2

  9
$PUCSORTHOVIEW
 70
     0
  9
$PUCSORGTOP
 10
0.0
 20
0.0
 30
0.0
  9
$PUCSORGBOTTOM
 10
0.0
 20
0.0
 30
0.0
  9
$PUCSORGLEFT
 10
0.0
 20
0.0
 30
0.0
  9
$PUCSORGRIGHT
 10
0.0
 20
0.0
 30
0.0
  9
$PUCSORGFRONT
 10
0.0
 20
0.0
 30
0.0
  9
$PUCSORGBACK
 10
0.0
 20
0.0
 30
0.0
  9
$USERI1
 70
     0
  9
$USERI2
 70
     0
  9
$USERI3
 70
     0
  9
$USERI4
 70
     0
  9
$USERI5
 70
     0
  9
$USERR1
 40
0.0
  9
$USERR2
 40
0.0
  9
$USERR3
 40
0.0
  9
$USERR4
 40
0.0
  9
$USERR5
 40
0.0
  9
$WORLDVIEW
 70
     1
  9
$SHADEDGE
 70
     3
  9
$SHADEDIF
 70
    70
  9
$TILEMODE
 70
     1
  9
$MAXACTVP
 70
    16
  9
$PINSBASE
 10
0.0
 20
0.0
 30
0.0
  9
$PLIMCHECK
 70
     0
  9
$PEXTMIN
 10
1.000000000000000E+20
 20
1.000000000000000E+20
 30
1.000000000000000E+20
  9
$PEXTMAX
 10
-1.000000000000000E+20
 20
-1.000000000000000E+20
 30
-1.000000000000000E+20
  9
$PLIMMIN
 10
0.0
 20
0.0
  9
$PLIMMAX
 10
12.0
 20
9.0
  9
$UNITMODE
 70
     0
  9
$VISRETAIN
 70
     0
  9
$PLINEGEN
 70
     0
  9
$PSLTSCALE
 70
     1
  9
$TREEDEPTH
 70
  3020
  9
$CMLSTYLE
  2
STANDARD
  9
$CMLJUST
 70
     0
  9
$CMLSCALE
 40
1.0
  9
$PROXYGRAPHICS
 70
     1
  9
$MEASUREMENT
 70
     1
  9
$CELWEIGHT
370
    -1
  9
$ENDCAPS
280
     0
  9
$JOINSTYLE
280
     0
  9
$LWDISPLAY
290
     0
  9
$INSUNITS
 70
     0
  9
$HYPERLINKBASE
  1

  9
$STYLESHEET
  1
aclt.ctb
  9
$XEDIT
290
     1
  9
$CEPSNTYPE
380
     0
  9
$PSTYLEMODE
290
     1
  9
$FINGERPRINTGUID
  2
{674A3D2F-9450-11D4-AE94-0050DA5D4354}
  9
$VERSIONGUID
  2
{2776E6C6-96B3-4DF3-A36B-C4B4077DD0F9}
  9
$EXTNAMES
290
     1
  9
$PSVPSCALE
 40
0.0
  9
$OLESTARTUP
290
     0
  0
ENDSEC
  0
SECTION
  2
CLASSES
  0
CLASS
  1
ACDBDICTIONARYWDFLT
  2
AcDbDictionaryWithDefault
  3
ObjectDBX Classes
 90
        0
280
     0
281
     0
  0
CLASS
  1
ACDBPLACEHOLDER
  2
AcDbPlaceHolder
  3
ObjectDBX Classes
 90
        0
280
     0
281
     0
  0
CLASS
  1
LAYOUT
  2
AcDbLayout
  3
ObjectDBX Classes
 90
        0
280
     0
281
     0
  0
CLASS
  1
SORTENTSTABLE
  2
AcDbSortentsTable
  3
ObjectDBX Classes
 90
    32768
280
     0
281
     0
  0
CLASS
  1
DICTIONARYVAR
  2
AcDbDictionaryVar
  3
ObjectDBX Classes
 90
        0
280
     0
281
     0
  0
ENDSEC
  0
SECTION
  2
TABLES
  0
TABLE
  2
VPORT
  5
8
330
0
100
AcDbSymbolTable
 70
     3
  0
VPORT
  5
694C
330
8
100
AcDbSymbolTableRecord
100
AcDbViewportTableRecord
  2
*Active
 70
     0
 10
0.0
 20
0.0
 11
1.0
 21
1.0
 12
974.2599569378876
 22
2546.751530390499
 13
0.0
 23
0.0
 14
1.0
 24
1.0
 15
50.0
 25
50.0
 16
0.0
 26
0.0
 36
1.0
 17
0.0
 27
0.0
 37
0.0
 40
1197.322768325044
 41
2.029040404040403
 42
50.0
 43
0.0
 44
0.0
 50
0.0
 51
0.0
 71
     0
 72
   100
 73
     1
 74
     0
 75
     0
 76
     0
 77
     0
 78
     0
281
     0
 65
     1
110
0.0
120
0.0
130
0.0
111
1.0
121
0.0
131
0.0
112
0.0
122
1.0
132
0.0
 79
     0
146
0.0
  0
ENDTAB
  0
TABLE
  2
LTYPE
  5
5
330
0
100
AcDbSymbolTable
 70
    12
  0
LTYPE
  5
13
330
5
100
AcDbSymbolTableRecord
100
AcDbLinetypeTableRecord
  2
BYBLOCK
 70
     0
  3

 72
    65
 73
     0
 40
0.0
  0
LTYPE
  5
14
330
5
100
AcDbSymbolTableRecord
100
AcDbLinetypeTableRecord
  2
BYLAYER
 70
     0
  3

 72
    65
 73
     0
 40
0.0
  0
LTYPE
  5
15
330
5
100
AcDbSymbolTableRecord
100
AcDbLinetypeTableRecord
  2
CONTINUOUS
 70
     0
  3
実線
 72
    65
 73
     0
 40
0.0
  0
LTYPE
  5
5CD9
330
5
100
AcDbSymbolTableRecord
100
AcDbLinetypeTableRecord
  2
PHANTOM
 70
     0
  3
Phantom ______  __  __  ______  __  __  ______
 72
    65
 73
     6
 40
63.5
 49
31.75
 74
     0
 49
-6.349999999999999
 74
     0
 49
6.349999999999999
 74
     0
 49
-6.349999999999999
 74
     0
 49
6.349999999999999
 74
     0
 49
-6.349999999999999
 74
     0
  0
ENDTAB
  0
TABLE
  2
LAYER
  5
2
102
{ACAD_XDICTIONARY
360
5CEB
102
}
330
0
100
AcDbSymbolTable
 70
    10
  0
LAYER
  5
F
330
2
100
AcDbSymbolTableRecord
100
AcDbLayerTableRecord
  2
0
 70
     0
 62
     7
  6
CONTINUOUS
370
    -3
390
4422
  0
LAYER
  5
25F
330
2
100
AcDbSymbolTableRecord
100
AcDbLayerTableRecord
  2
DEFPOINTS
 70
     0
 62
     7
  6
CONTINUOUS
290
     0
370
    -3
390
4422
  0
ENDTAB
  0
TABLE
  2
STYLE
  5
3
330
0
100
AcDbSymbolTable
 70
     6
  0
STYLE
  5
10
330
3
100
AcDbSymbolTableRecord
100
AcDbTextStyleTableRecord
  2
STANDARD
 70
     0
 40
12.0
 41
0.8
 50
0.0
 71
     0
 42
12.0
  3
TXT.shx
  4
BIGFONT.shx
  0
STYLE
  5
6511
330
3
100
AcDbSymbolTableRecord
100
AcDbTextStyleTableRecord
  2
y-4
 70
     0
 40
10.8
 41
0.8
 50
0.0
 71
     0
 42
10.8
  3
TXT.shx
  4
BIGFONT.shx
  0
ENDTAB
  0
TABLE
  2
VIEW
  5
6
330
0
100
AcDbSymbolTable
 70
     1
  0
VIEW
  5
D90
330
6
100
AcDbSymbolTableRecord
100
AcDbViewTableRecord
  2
OLE1
 70
     0
 40
1116.00004
 10
1068.487167009901
 20
558.00002
 41
2136.974334019802
 11
0.0
 21
0.0
 31
1.0
 12
0.0
 22
0.0
 32
0.0
 42
50.0
 43
0.0
 44
0.0
 50
0.0
 71
     0
281
     0
 72
     0
  0
ENDTAB
  0
TABLE
  2
UCS
  5
7
330
0
100
AcDbSymbolTable
 70
     0
  0
ENDTAB
  0
TABLE
  2
APPID
  5
9
330
0
100
AcDbSymbolTable
 70
     1
  0
APPID
  5
11
330
9
100
AcDbSymbolTableRecord
100
AcDbRegAppTableRecord
  2
ACAD
 70
     0
  0
ENDTAB
  0
TABLE
  2
DIMSTYLE
  5
A
330
0
100
AcDbSymbolTable
 70
    12
100
AcDbDimStyleTable
 71
     2
340
6515
340
220
  0
DIMSTYLE
105
220
330
A
100
AcDbSymbolTableRecord
100
AcDbDimStyleTableRecord
  2
STANDARD
 70
     0
340
10
  0
DIMSTYLE
105
6515
330
A
100
AcDbSymbolTableRecord
100
AcDbDimStyleTableRecord
  2
y-4
 70
     0
 40
4.0
 41
2.5
 42
3.0
 43
7.0
 44
2.0
 73
     0
 74
     0
 77
     1
 78
     8
 79
     2
140
2.7
141
0.0
147
1.0
172
     1
176
     4
177
     4
178
     3
179
     8
271
     8
272
     8
340
6511
341
24C
342
24C
  0
ENDTAB
  0
TABLE
  2
BLOCK_RECORD
  5
1
330
0
100
AcDbSymbolTable
 70
     8
  0
BLOCK_RECORD
  5
19
330
1
100
AcDbSymbolTableRecord
100
AcDbBlockTableRecord
  2
*MODEL_SPACE
340
4425
  0
BLOCK_RECORD
  5
16
330
1
100
AcDbSymbolTableRecord
100
AcDbBlockTableRecord
  2
*PAPER_SPACE
340
4426
  0
BLOCK_RECORD
  5
24C
330
1
100
AcDbSymbolTableRecord
100
AcDbBlockTableRecord
  2
_OPEN
340
0
102
{BLKREFS
331
6877
331
6878
331
6880
331
6881
331
68A2
331
68A3
331
68AB
331
68AC
331
68B6
331
68B7
331
68BF
331
68C0
331
68C8
331
68C9
102
}
  0
ENDTAB
  0
ENDSEC
  0
SECTION
  2
BLOCKS
  0
BLOCK
  5
1A
330
19
100
AcDbEntity
  8
0
100
AcDbBlockBegin
  2
*MODEL_SPACE
 70
     0
 10
0.0
 20
0.0
 30
0.0
  3
*MODEL_SPACE
  1

  0
ENDBLK
  5
1B
330
19
100
AcDbEntity
  8
0
100
AcDbBlockEnd
  0
BLOCK
  5
17
330
16
100
AcDbEntity
 67
     1
  8
0
100
AcDbBlockBegin
  2
*PAPER_SPACE
 70
     0
 10
0.0
 20
0.0
 30
0.0
  3
*PAPER_SPACE
  1

  0
ENDBLK
  5
18
330
16
100
AcDbEntity
 67
     1
  8
0
100
AcDbBlockEnd
  0
BLOCK
  5
24D
330
24C
100
AcDbEntity
  8
0
100
AcDbBlockBegin
  2
_OPEN
 70
     0
 10
0.0
 20
0.0
 30
0.0
  3
_OPEN
  1

  0
LINE
  5
24E
330
24C
100
AcDbEntity
  8
0
  6
ByBlock
 62
     0
100
AcDbLine
 10
-1.0
 20
0.1666666666666666
 30
0.0
 11
0.0
 21
0.0
 31
0.0
  0
LINE
  5
24F
330
24C
100
AcDbEntity
  8
0
  6
ByBlock
 62
     0
100
AcDbLine
 10
0.0
 20
0.0
 30
0.0
 11
-1.0
 21
-0.1666666666666666
 31
0.0
  0
LINE
  5
250
330
24C
100
AcDbEntity
  8
0
  6
ByBlock
 62
     0
100
AcDbLine
 10
0.0
 20
0.0
 30
0.0
 11
-1.0
 21
0.0
 31
0.0
  0
ENDBLK
  5
251
330
24C
100
AcDbEntity
  8
0
100
AcDbBlockEnd
  0
ENDSEC
  0
SECTION
  2
ENTITIES
  0
LINE
  5
6052
330
19
100
AcDbEntity
  8
0
100
AcDbLine
 10
1814.233601042804
 20
3140.727758762382
 30
0.0
 11
1734.233601042804
 21
3140.727758762382
 31
0.0
  0
LINE
  5
6053
330
19
100
AcDbEntity
  8
0
100
AcDbLine
 10
1814.233601042804
 20
3140.727758762382
 30
0.0
 11
1814.233601042804
 21
3060.727758762383
 31
0.0
  0
LINE
  5
6054
330
19
100
AcDbEntity
  8
0
100
AcDbLine
 10
234.2335970428321
 20
2546.727716762354
 30
0.0
 11
214.2335970428321
 21
2546.727716762354
 31
0.0
  0
LINE
  5
6055
330
19
100
AcDbEntity
  8
0
100
AcDbLine
 10
134.2336010428043
 20
3140.727758762382
 30
0.0
 11
134.2336010428043
 21
3060.727758762383
 31
0.0
  0
LINE
  5
6056
330
19
100
AcDbEntity
  8
0
100
AcDbLine
 10
134.2336010428043
 20
3140.727758762382
 30
0.0
 11
214.2336010428044
 21
3140.727758762382
 31
0.0
  0
LINE
  5
6057
330
19
100
AcDbEntity
  8
0
100
AcDbLine
 10
234.2335970428321
 20
3100.727678762355
 30
0.0
 11
1774.233601042804
 21
3100.727678762355
 31
0.0
  0
LINE
  5
605E
330
19
100
AcDbEntity
  8
0
100
AcDbLine
 10
234.2335970428321
 20
2064.727754762352
 30
0.0
 11
234.2335970428321
 21
1992.727754762352
 31
0.0
  0
LINE
  5
605F
330
19
100
AcDbEntity
  8
0
100
AcDbLine
 10
1310.233634042823
 20
2104.727754762352
 30
0.0
 11
1310.233634042823
 21
2064.727754762352
 31
0.0
  0
LINE
  5
6060
330
19
100
AcDbEntity
  8
0
100
AcDbLine
 10
1506.233601042804
 20
2072.727758062377
 30
0.0
 11
1774.233601042804
 21
2072.727758062377
 31
0.0
  0
LINE
  5
6061
330
19
100
AcDbEntity
  8
0
100
AcDbLine
 10
1506.233601042804
 20
2040.727758062377
 30
0.0
 11
1774.233601042804
 21
2040.727758062377
 31
0.0
  0
LINE
  5
6063
330
19
100
AcDbEntity
  8
0
100
AcDbLine
 10
1282.233601042804
 20
2084.727754762352
 30
0.0
 11
1434.233700042801
 21
2084.727754762352
 31
0.0
  0
LINE
  5
6064
330
19
100
AcDbEntity
  8
0
100
AcDbLine
 10
1552.233601042804
 20
2000.727756412365
 30
0.0
 11
1564.233601042804
 21
2000.727756412365
 31
0.0
  0
LINE
  5
6065
330
19
100
AcDbEntity
  8
0
100
AcDbLine
 10
1616.233601042804
 20
2000.727756412365
 30
0.0
 11
1628.233601042804
 21
2000.727756412365
 31
0.0
  0
LINE
  5
6066
330
19
100
AcDbEntity
  8
0
100
AcDbLine
 10
1453.509526521877
 20
2084.754473533495
 30
0.0
 11
1503.261526521914
 21
2084.754473533495
 31
0.0
  0
LINE
  5
6067
330
19
100
AcDbEntity
  8
0
100
AcDbLine
 10
1499.373526521878
 20
2077.194473533497
 30
0.0
 11
1499.373526521878
 21
2092.314473533493
 31
0.0
  0
LINE
  5
6068
330
19
100
AcDbEntity
  8
0
100
AcDbLine
 10
1479.717526521919
 20
2080.218473533473
 30
0.0
 11
1479.717526521919
 21
2089.290473533517
 31
0.0
  0
CIRCLE
  5
6069
330
19
100
AcDbEntity
  8
0
100
AcDbCircle
 10
1462.581526521921
 20
2084.754473533495
 30
0.0
 40
4.536
  0
CIRCLE
  5
606A
330
19
100
AcDbEntity
  8
0
100
AcDbCircle
 10
1462.581526521921
 20
2084.754473533495
 30
0.0
 40
7.559999999999987
  0
LINE
  5
606B
330
19
100
AcDbEntity
  8
0
100
AcDbLine
 10
1462.581526521921
 20
2093.82647353348
 30
0.0
 11
1462.581526521921
 21
2075.682473533509
 31
0.0
  0
LINE
  5
606C
330
19
100
AcDbEntity
  8
0
100
AcDbLine
 10
1479.717526521919
 20
2089.290473533517
 30
0.0
 11
1499.373526521878
 21
2092.314473533493
 31
0.0
  0
LINE
  5
606D
330
19
100
AcDbEntity
  8
0
100
AcDbLine
 10
1479.717526521919
 20
2080.218473533473
 30
0.0
 11
1499.373526521878
 21
2077.194473533497
 31
0.0
  0
LINE
  5
606E
330
19
100
AcDbEntity
  8
0
100
AcDbLine
 10
1282.233601042804
 20
2064.727754762352
 30
0.0
 11
1282.233601042804
 21
1992.727754762352
 31
0.0
  0
LINE
  5
606F
330
19
100
AcDbEntity
  8
0
100
AcDbLine
 10
1506.233601042804
 20
2064.727754762352
 30
0.0
 11
1282.233601042804
 21
2064.727754762352
 31
0.0
  0
TEXT
  5
6070
330
19
100
AcDbEntity
  8
0
100
AcDbText
 10
1498.409784907977
 20
1976.447301507708
 30
0.0
 40
8.8
  1
Ｄｒａｗｉｎｇ　Ｓｈｅｅｔ　Ａ３（２９７ｍｍ×４２０ｍｍ）
 41
0.8
100
AcDbText
  0
LINE
  5
6071
330
19
100
AcDbEntity
  8
0
100
AcDbLine
 10
1814.233601042804
 20
1952.727758762382
 30
0.0
 11
1734.233601042804
 21
1952.727758762382
 31
0.0
  0
LINE
  5
6072
330
19
100
AcDbEntity
  8
0
100
AcDbLine
 10
1814.233601042804
 20
1952.727758762382
 30
0.0
 11
1814.233601042804
 21
2032.727758762382
 31
0.0
  0
LINE
  5
6073
330
19
100
AcDbEntity
  8
0
100
AcDbLine
 10
134.2336010428043
 20
1952.727758762382
 30
0.0
 11
214.2336010428044
 21
1952.727758762382
 31
0.0
  0
LINE
  5
6074
330
19
100
AcDbEntity
  8
0
100
AcDbLine
 10
134.2336010428043
 20
1952.727758762382
 30
0.0
 11
134.2336010428043
 21
2032.727758762382
 31
0.0
  0
LINE
  5
6075
330
19
100
AcDbEntity
  8
0
100
AcDbLine
 10
234.2335970428321
 20
1992.727754762352
 30
0.0
 11
1774.233601042804
 21
1992.727754762352
 31
0.0
  0
TEXT
  5
6076
330
19
100
AcDbEntity
  8
0
100
AcDbText
 10
1342.197699370481
 20
1998.252558662395
 30
0.0
 40
9.9
  1
日本フォームサービス株式会社
 41
0.9200000000000001
100
AcDbText
  0
LINE
  5
6077
330
19
100
AcDbEntity
  8
0
100
AcDbLine
 10
1471.762693889184
 20
2013.794512294538
 30
0.0
 11
1472.910268889136
 21
2014.396983394529
 31
0.0
  0
LINE
  5
6078
330
19
100
AcDbEntity
  8
0
100
AcDbLine
 10
1469.366926889146
 20
2012.89608399455
 30
0.0
 11
1471.762693889184
 21
2013.794512294538
 31
0.0
  0
LINE
  5
6079
330
19
100
AcDbEntity
  8
0
100
AcDbLine
 10
1466.837344889158
 20
2012.392632694579
 30
0.0
 11
1469.366926889146
 21
2012.89608399455
 31
0.0
  0
LINE
  5
607A
330
19
100
AcDbEntity
  8
0
100
AcDbLine
 10
1464.250837889187
 20
2012.299453894563
 30
0.0
 11
1466.837344889158
 21
2012.392632694579
 31
0.0
  0
LINE
  5
607B
330
19
100
AcDbEntity
  8
0
100
AcDbLine
 10
1461.685945889134
 20
2012.619375694557
 30
0.0
 11
1464.250837889187
 21
2012.299453894563
 31
0.0
  0
LINE
  5
607C
330
19
100
AcDbEntity
  8
0
100
AcDbLine
 10
1459.220614889149
 20
2013.342679594541
 30
0.0
 11
1461.685945889134
 21
2012.619375694557
 31
0.0
  0
LINE
  5
607D
330
19
100
AcDbEntity
  8
0
100
AcDbLine
 10
1456.929787889159
 20
2014.447387594569
 30
0.0
 11
1459.220614889149
 21
2013.342679594541
 31
0.0
  0
LINE
  5
607E
330
19
100
AcDbEntity
  8
0
100
AcDbLine
 10
1454.883061889188
 20
2015.899938694564
 30
0.0
 11
1456.929787889159
 21
2014.447387594569
 31
0.0
  0
LINE
  5
607F
330
19
100
AcDbEntity
  8
0
100
AcDbLine
 10
1453.142608889182
 20
2017.656188794542
 30
0.0
 11
1454.883061889188
 21
2015.899938694564
 31
0.0
  0
LINE
  5
6080
330
19
100
AcDbEntity
  8
0
100
AcDbLine
 10
1451.761294889184
 20
2019.662783494582
 30
0.0
 11
1453.142608889182
 21
2017.656188794542
 31
0.0
  0
LINE
  5
6081
330
19
100
AcDbEntity
  8
0
100
AcDbLine
 10
1450.78112888916
 20
2021.858748694546
 30
0.0
 11
1451.761294889184
 21
2019.662783494582
 31
0.0
  0
LINE
  5
6082
330
19
100
AcDbEntity
  8
0
100
AcDbLine
 10
1450.231843889145
 20
2024.177361694586
 30
0.0
 11
1450.78112888916
 21
2021.858748694546
 31
0.0
  0
LINE
  5
6083
330
19
100
AcDbEntity
  8
0
100
AcDbLine
 10
1450.130203889137
 20
2026.548174094539
 30
0.0
 11
1450.231843889145
 21
2024.177361694586
 31
0.0
  0
LINE
  5
6084
330
19
100
AcDbEntity
  8
0
100
AcDbLine
 10
1450.479244889146
 20
2028.899150194556
 30
0.0
 11
1450.130203889137
 21
2026.548174094539
 31
0.0
  0
LINE
  5
6085
330
19
100
AcDbEntity
  8
0
100
AcDbLine
 10
1451.268340889168
 20
2031.158851594561
 30
0.0
 11
1450.479244889146
 21
2028.899150194556
 31
0.0
  0
LINE
  5
6086
330
19
100
AcDbEntity
  8
0
100
AcDbLine
 10
1452.473566889159
 20
2033.258628394585
 30
0.0
 11
1451.268340889168
 21
2031.158851594561
 31
0.0
  0
LINE
  5
6087
330
19
100
AcDbEntity
  8
0
100
AcDbLine
 10
1454.058292889131
 20
2035.13466849453
 30
0.0
 11
1452.473566889159
 21
2033.258628394585
 31
0.0
  0
LINE
  5
6088
330
19
100
AcDbEntity
  8
0
100
AcDbLine
 10
1455.974338889158
 20
2036.729977594586
 30
0.0
 11
1454.058292889131
 21
2035.13466849453
 31
0.0
  0
LINE
  5
6089
330
19
100
AcDbEntity
  8
0
100
AcDbLine
 10
1458.16349288918
 20
2037.996081994569
 30
0.0
 11
1455.974338889158
 21
2036.729977594586
 31
0.0
  0
LINE
  5
608A
330
19
100
AcDbEntity
  8
0
100
AcDbLine
 10
1460.559292889178
 20
2038.894506994532
 30
0.0
 11
1458.16349288918
 21
2037.996081994569
 31
0.0
  0
LINE
  5
608B
330
19
100
AcDbEntity
  8
0
100
AcDbLine
 10
1463.088874889166
 20
2039.397958294561
 30
0.0
 11
1460.559292889178
 21
2038.894506994532
 31
0.0
  0
LINE
  5
608C
330
19
100
AcDbEntity
  8
0
100
AcDbLine
 10
1465.675381889137
 20
2039.491140394543
 30
0.0
 11
1463.088874889166
 21
2039.397958294561
 31
0.0
  0
LINE
  5
608D
330
19
100
AcDbEntity
  8
0
100
AcDbLine
 10
1468.240273889132
 20
2039.17121859455
 30
0.0
 11
1465.675381889137
 21
2039.491140394543
 31
0.0
  0
LINE
  5
608E
330
19
100
AcDbEntity
  8
0
100
AcDbLine
 10
1470.705571889157
 20
2038.447914694566
 30
0.0
 11
1468.240273889132
 21
2039.17121859455
 31
0.0
  0
LINE
  5
608F
330
19
100
AcDbEntity
  8
0
100
AcDbLine
 10
1472.996398889146
 20
2037.343203394571
 30
0.0
 11
1470.705571889157
 21
2038.447914694566
 31
0.0
  0
ARC
  5
6090
330
19
100
AcDbEntity
  8
0
100
AcDbCircle
 10
1409.488492889133
 20
2032.907795494553
 30
0.0
 40
7.0125
100
AcDbArc
 50
270.0
 51
90.0
  0
LINE
  5
6091
330
19
100
AcDbEntity
  8
0
100
AcDbLine
 10
1375.734871889152
 20
2012.083366594582
 30
0.0
 11
1378.026853889147
 21
2011.870295494576
 31
0.0
  0
LINE
  5
6092
330
19
100
AcDbEntity
  8
0
100
AcDbLine
 10
1373.512552889158
 20
2012.716108594569
 30
0.0
 11
1375.734871889152
 21
2012.083366594582
 31
0.0
  0
LINE
  5
6093
330
19
100
AcDbEntity
  8
0
100
AcDbLine
 10
1371.427381889174
 20
2013.749289094542
 30
0.0
 11
1373.512552889158
 21
2012.716108594569
 31
0.0
  0
LINE
  5
6094
330
19
100
AcDbEntity
  8
0
100
AcDbLine
 10
1369.54271888917
 20
2015.15152179457
 30
0.0
 11
1371.427381889174
 21
2013.749289094542
 31
0.0
  0
LINE
  5
6095
330
19
100
AcDbEntity
  8
0
100
AcDbLine
 10
1367.915884889175
 20
2016.88020039456
 30
0.0
 11
1369.54271888917
 21
2015.15152179457
 31
0.0
  0
LINE
  5
6096
330
19
100
AcDbEntity
  8
0
100
AcDbLine
 10
1366.596214889178
 20
2018.882795494529
 30
0.0
 11
1367.915884889175
 21
2016.88020039456
 31
0.0
  0
LINE
  5
6097
330
19
100
AcDbEntity
  8
0
100
AcDbLine
 10
1365.623902889179
 20
2021.09846499453
 30
0.0
 11
1366.596214889178
 21
2018.882795494529
 31
0.0
  0
LINE
  5
6098
330
19
100
AcDbEntity
  8
0
100
AcDbLine
 10
1365.028417889181
 20
2023.45988229454
 30
0.0
 11
1365.623902889179
 21
2021.09846499453
 31
0.0
  0
LINE
  5
6099
330
19
100
AcDbEntity
  8
0
100
AcDbLine
 10
1364.827909889143
 20
2025.895295494541
 30
0.0
 11
1365.028417889181
 21
2023.45988229454
 31
0.0
  0
LINE
  5
609A
330
19
100
AcDbEntity
  8
0
100
AcDbLine
 10
1365.028417889181
 20
2028.330711994567
 30
0.0
 11
1364.827909889143
 21
2025.895295494541
 31
0.0
  0
LINE
  5
609B
330
19
100
AcDbEntity
  8
0
100
AcDbLine
 10
1365.623902889179
 20
2030.692129294576
 30
0.0
 11
1365.028417889181
 21
2028.330711994567
 31
0.0
  0
LINE
  5
609C
330
19
100
AcDbEntity
  8
0
100
AcDbLine
 10
1366.596214889178
 20
2032.907795494553
 30
0.0
 11
1365.623902889179
 21
2030.692129294576
 31
0.0
  0
LINE
  5
609D
330
19
100
AcDbEntity
  8
0
100
AcDbLine
 10
1367.915884889175
 20
2034.910393894547
 30
0.0
 11
1366.596214889178
 21
2032.907795494553
 31
0.0
  0
LINE
  5
609E
330
19
100
AcDbEntity
  8
0
100
AcDbLine
 10
1369.54271888917
 20
2036.63906919457
 30
0.0
 11
1367.915884889175
 21
2034.910393894547
 31
0.0
  0
LINE
  5
609F
330
19
100
AcDbEntity
  8
0
100
AcDbLine
 10
1371.427381889174
 20
2038.041301894539
 30
0.0
 11
1369.54271888917
 21
2036.63906919457
 31
0.0
  0
LINE
  5
60A0
330
19
100
AcDbEntity
  8
0
100
AcDbLine
 10
1373.512552889158
 20
2039.074485694538
 30
0.0
 11
1371.427381889174
 21
2038.041301894539
 31
0.0
  0
LINE
  5
60A1
330
19
100
AcDbEntity
  8
0
100
AcDbLine
 10
1375.734871889152
 20
2039.707224394557
 30
0.0
 11
1373.512552889158
 21
2039.074485694538
 31
0.0
  0
LINE
  5
60A2
330
19
100
AcDbEntity
  8
0
100
AcDbLine
 10
1378.026853889147
 20
2039.920295494564
 30
0.0
 11
1375.734871889152
 21
2039.707224394557
 31
0.0
  0
LINE
  5
60A3
330
19
100
AcDbEntity
  8
0
100
AcDbLine
 10
1380.318802889182
 20
2039.707224394557
 30
0.0
 11
1378.026853889147
 21
2039.920295494564
 31
0.0
  0
LINE
  5
60A4
330
19
100
AcDbEntity
  8
0
100
AcDbLine
 10
1382.541121889175
 20
2039.074485694538
 30
0.0
 11
1380.318802889182
 21
2039.707224394557
 31
0.0
  0
LINE
  5
60A5
330
19
100
AcDbEntity
  8
0
100
AcDbLine
 10
1384.626292889159
 20
2038.041301894539
 30
0.0
 11
1382.541121889175
 21
2039.074485694538
 31
0.0
  0
LINE
  5
60A6
330
19
100
AcDbEntity
  8
0
100
AcDbLine
 10
1386.510955889163
 20
2036.63906919457
 30
0.0
 11
1384.626292889159
 21
2038.041301894539
 31
0.0
  0
LINE
  5
60A7
330
19
100
AcDbEntity
  8
0
100
AcDbLine
 10
1388.137789889159
 20
2034.910393894547
 30
0.0
 11
1386.510955889163
 21
2036.63906919457
 31
0.0
  0
LINE
  5
60A8
330
19
100
AcDbEntity
  8
0
100
AcDbLine
 10
1389.457459889156
 20
2032.907795494553
 30
0.0
 11
1388.137789889159
 21
2034.910393894547
 31
0.0
  0
LINE
  5
60A9
330
19
100
AcDbEntity
  8
0
100
AcDbLine
 10
1390.429771889154
 20
2030.692129294576
 30
0.0
 11
1389.457459889156
 21
2032.907795494553
 31
0.0
  0
LINE
  5
60AA
330
19
100
AcDbEntity
  8
0
100
AcDbLine
 10
1391.025256889152
 20
2028.330711994567
 30
0.0
 11
1390.429771889154
 21
2030.692129294576
 31
0.0
  0
LINE
  5
60AB
330
19
100
AcDbEntity
  8
0
100
AcDbLine
 10
1391.225764889132
 20
2025.895295494541
 30
0.0
 11
1391.025256889152
 21
2028.330711994567
 31
0.0
  0
LINE
  5
60AC
330
19
100
AcDbEntity
  8
0
100
AcDbLine
 10
1391.025256889152
 20
2023.45988229454
 30
0.0
 11
1391.225764889132
 21
2025.895295494541
 31
0.0
  0
LINE
  5
60AD
330
19
100
AcDbEntity
  8
0
100
AcDbLine
 10
1390.429771889154
 20
2021.09846499453
 30
0.0
 11
1391.025256889152
 21
2023.45988229454
 31
0.0
  0
LINE
  5
60AE
330
19
100
AcDbEntity
  8
0
100
AcDbLine
 10
1389.457459889156
 20
2018.882795494529
 30
0.0
 11
1390.429771889154
 21
2021.09846499453
 31
0.0
  0
LINE
  5
60AF
330
19
100
AcDbEntity
  8
0
100
AcDbLine
 10
1388.137789889159
 20
2016.88020039456
 30
0.0
 11
1389.457459889156
 21
2018.882795494529
 31
0.0
  0
LINE
  5
60B0
330
19
100
AcDbEntity
  8
0
100
AcDbLine
 10
1386.510955889163
 20
2015.15152179457
 30
0.0
 11
1388.137789889159
 21
2016.88020039456
 31
0.0
  0
LINE
  5
60B1
330
19
100
AcDbEntity
  8
0
100
AcDbLine
 10
1384.626292889159
 20
2013.749289094542
 30
0.0
 11
1386.510955889163
 21
2015.15152179457
 31
0.0
  0
LINE
  5
60B2
330
19
100
AcDbEntity
  8
0
100
AcDbLine
 10
1382.541121889175
 20
2012.716108594569
 30
0.0
 11
1384.626292889159
 21
2013.749289094542
 31
0.0
  0
LINE
  5
60B3
330
19
100
AcDbEntity
  8
0
100
AcDbLine
 10
1380.318802889182
 20
2012.083366594582
 30
0.0
 11
1382.541121889175
 21
2012.716108594569
 31
0.0
  0
LINE
  5
60B4
330
19
100
AcDbEntity
  8
0
100
AcDbLine
 10
1378.026853889147
 20
2011.870295494576
 30
0.0
 11
1380.318802889182
 21
2012.083366594582
 31
0.0
  0
ARC
  5
60B5
330
19
100
AcDbEntity
  8
0
100
AcDbCircle
 10
1317.205074829551
 20
2038.897149386539
 30
0.0
 40
20.9088039204
100
AcDbArc
 50
90.0
 51
180.0
  0
LINE
  5
60B6
330
19
100
AcDbEntity
  8
0
100
AcDbLine
 10
1282.233601042804
 20
2104.727754762352
 30
0.0
 11
1282.233601042804
 21
1992.727764662369
 31
0.0
  0
LINE
  5
60B7
330
19
100
AcDbEntity
  8
0
100
AcDbLine
 10
1301.045708749538
 20
2052.165633415294
 30
0.0
 11
1303.93661170957
 21
2055.056525920939
 31
0.0
  0
LINE
  5
60B8
330
19
100
AcDbEntity
  8
0
100
AcDbLine
 10
1299.938483245532
 20
2050.688735100105
 30
0.0
 11
1305.413504797536
 21
2056.163788015328
 31
0.0
  0
LINE
  5
60B9
330
19
100
AcDbEntity
  8
0
100
AcDbLine
 10
1299.278836741556
 20
2049.659473284103
 30
0.0
 11
1306.442740477541
 21
2056.823397928921
 31
0.0
  0
LINE
  5
60BA
330
19
100
AcDbEntity
  8
0
100
AcDbLine
 10
1298.791400341528
 20
2048.802432026495
 30
0.0
 11
1307.29976605354
 21
2057.310821260921
 31
0.0
  0
LINE
  5
60BB
330
19
100
AcDbEntity
  8
0
100
AcDbLine
 10
1298.403646645522
 20
2048.045013360111
 30
0.0
 11
1308.057187333565
 21
2057.698595865701
 31
0.0
  0
LINE
  5
60BC
330
19
100
AcDbEntity
  8
0
100
AcDbLine
 10
1298.083323829553
 20
2047.35511443614
 30
0.0
 11
1308.747099325563
 21
2058.01888731851
 31
0.0
  0
LINE
  5
60BD
330
19
100
AcDbEntity
  8
0
100
AcDbLine
 10
1297.812816229569
 20
2046.714936638498
 30
0.0
 11
1309.387274509565
 21
2058.28942105449
 31
0.0
  0
LINE
  5
60BE
330
19
100
AcDbEntity
  8
0
100
AcDbLine
 10
1297.581094453555
 20
2046.113570800938
 30
0.0
 11
1309.988663869539
 21
2058.521153284891
 31
0.0
  0
LINE
  5
60BF
330
19
100
AcDbEntity
  8
0
100
AcDbLine
 10
1297.380814285578
 20
2045.543691002545
 30
0.0
 11
1310.558533213545
 21
2058.721415157735
 31
0.0
  0
LINE
  5
60C0
330
19
100
AcDbEntity
  8
0
100
AcDbLine
 10
1297.206774661528
 20
2045.000009930532
 30
0.0
 11
1311.102214285558
 21
2058.89547830414
 31
0.0
  0
LINE
  5
60C1
330
19
100
AcDbEntity
  8
0
100
AcDbLine
 10
1297.055002909539
 20
2044.478633320904
 30
0.0
 11
1311.623601349573
 21
2059.04721869291
 31
0.0
  0
LINE
  5
60C2
330
19
100
AcDbEntity
  8
0
100
AcDbLine
 10
1296.922676341528
 20
2043.976626100906
 30
0.0
 11
1312.125647773537
 21
2059.179584464945
 31
0.0
  0
LINE
  5
60C3
330
19
100
AcDbEntity
  8
0
100
AcDbLine
 10
1296.807312037541
 20
2043.491690916139
 30
0.0
 11
1312.61054898156
 21
2059.294901724104
 31
0.0
  0
LINE
  5
60C4
330
19
100
AcDbEntity
  8
0
100
AcDbLine
 10
1296.707132749528
 20
2043.021883248132
 30
0.0
 11
1313.080317445543
 21
2059.395067944089
 31
0.0
  0
LINE
  5
60C5
330
19
100
AcDbEntity
  8
0
100
AcDbLine
 10
1296.620596453526
 20
2042.565749935295
 30
0.0
 11
1313.536495189568
 21
2059.481596399345
 31
0.0
  0
LINE
  5
60C6
330
19
100
AcDbEntity
  8
0
100
AcDbLine
 10
1296.546422485531
 20
2042.121913610506
 30
0.0
 11
1313.980336741522
 21
2059.555783435309
 31
0.0
  0
LINE
  5
60C7
330
19
100
AcDbEntity
  8
0
100
AcDbLine
 10
1296.483565405571
 20
2041.689412468942
 30
0.0
 11
1314.41278299757
 21
2059.618666651323
 31
0.0
  0
LINE
  5
60C8
330
19
100
AcDbEntity
  8
0
100
AcDbLine
 10
1296.431058181544
 20
2041.267248115341
 30
0.0
 11
1314.834957805557
 21
2059.671186943319
 31
0.0
  0
LINE
  5
60C9
330
19
100
AcDbEntity
  8
0
100
AcDbLine
 10
1296.388116733556
 20
2040.854712264102
 30
0.0
 11
1315.247488429573
 21
2059.714112709698
 31
0.0
  0
LINE
  5
60CA
330
19
100
AcDbEntity
  8
0
100
AcDbLine
 10
1296.354087661522
 20
2040.451052198491
 30
0.0
 11
1315.651158949571
 21
2059.748131327345
 31
0.0
  0
LINE
  5
60CB
330
19
100
AcDbEntity
  8
0
100
AcDbLine
 10
1296.328422109574
 20
2040.055703380915
 30
0.0
 11
1316.046492085537
 21
2059.773828242512
 31
0.0
  0
LINE
  5
60CC
330
19
100
AcDbEntity
  8
0
100
AcDbLine
 10
1296.310492813565
 20
2039.668195363322
 30
0.0
 11
1316.434010557576
 21
2059.791734016107
 31
0.0
  0
LINE
  5
60CD
330
19
100
AcDbEntity
  8
0
100
AcDbLine
 10
1296.299907733548
 20
2039.288021107334
 30
0.0
 11
1316.81421094956
 21
2059.802300800932
 31
0.0
  0
LINE
  5
60CE
330
19
100
AcDbEntity
  8
0
100
AcDbLine
 10
1296.296274829576
 20
2038.914731073731
 30
0.0
 11
1317.187485301554
 21
2059.805946772932
 31
0.0
  0
LINE
  5
60CF
330
19
100
AcDbEntity
  8
0
100
AcDbLine
 10
1296.296274829576
 20
2038.545073944099
 30
0.0
 11
1317.557152885572
 21
2059.805954613736
 31
0.0
  0
LINE
  5
60D0
330
19
100
AcDbEntity
  8
0
100
AcDbLine
 10
1296.296274829576
 20
2038.175463859297
 30
0.0
 11
1317.926742061543
 21
2059.805954613736
 31
0.0
  0
LINE
  5
60D1
330
19
100
AcDbEntity
  8
0
100
AcDbLine
 10
1296.296274829576
 20
2037.805811956888
 30
0.0
 11
1318.296409645562
 21
2059.805954613736
 31
0.0
  0
LINE
  5
60D2
330
19
100
AcDbEntity
  8
0
100
AcDbLine
 10
1296.296274829576
 20
2037.43620971289
 30
0.0
 11
1318.666051093525
 21
2059.805954613736
 31
0.0
  0
LINE
  5
60D3
330
19
100
AcDbEntity
  8
0
100
AcDbLine
 10
1296.296274829576
 20
2037.066568264926
 30
0.0
 11
1319.03566640555
 21
2059.805954613736
 31
0.0
  0
LINE
  5
60D4
330
19
100
AcDbEntity
  8
0
100
AcDbLine
 10
1296.296274829576
 20
2036.696926816904
 30
0.0
 11
1319.405307853572
 21
2059.805954613736
 31
0.0
  0
LINE
  5
60D5
330
19
100
AcDbEntity
  8
0
100
AcDbLine
 10
1296.296274829576
 20
2036.327306277714
 30
0.0
 11
1319.774897029543
 21
2059.805954613736
 31
0.0
  0
LINE
  5
60D6
330
19
100
AcDbEntity
  8
0
100
AcDbLine
 10
1296.296274829576
 20
2035.957704033716
 30
0.0
 11
1320.144512341569
 21
2059.805954613736
 31
0.0
  0
LINE
  5
60D7
330
19
100
AcDbEntity
  8
0
100
AcDbLine
 10
1296.296274829576
 20
2035.58805474489
 30
0.0
 11
1320.514153789532
 21
2059.805954613736
 31
0.0
  0
LINE
  5
60D8
330
19
100
AcDbEntity
  8
0
100
AcDbLine
 10
1296.296274829576
 20
2035.218413296926
 30
0.0
 11
1320.88382137355
 21
2059.805954613736
 31
0.0
  0
LINE
  5
60D9
330
19
100
AcDbEntity
  8
0
100
AcDbLine
 10
1296.296274829576
 20
2034.848792757737
 30
0.0
 11
1321.253410549521
 21
2059.805954613736
 31
0.0
  0
LINE
  5
60DA
330
19
100
AcDbEntity
  8
0
100
AcDbLine
 10
1296.296274829576
 20
2034.479190513738
 30
0.0
 11
1321.62307813354
 21
2059.805954613736
 31
0.0
  0
LINE
  5
60DB
330
19
100
AcDbEntity
  8
0
100
AcDbLine
 10
1296.296274829576
 20
2034.109549065716
 30
0.0
 11
1321.992667309569
 21
2059.805954613736
 31
0.0
  0
LINE
  5
60DC
330
19
100
AcDbEntity
  8
0
100
AcDbLine
 10
1296.296274829576
 20
2033.739897163307
 30
0.0
 11
1322.362334893529
 21
2059.805954613736
 31
0.0
  0
LINE
  5
60DD
330
19
100
AcDbEntity
  8
0
100
AcDbLine
 10
1296.296274829576
 20
2033.3702792377
 30
0.0
 11
1322.731924069558
 21
2059.805954613736
 31
0.0
  0
LINE
  5
60DE
330
19
100
AcDbEntity
  8
0
100
AcDbLine
 10
1296.296274829576
 20
2033.000637789736
 30
0.0
 11
1323.101565517521
 21
2059.805954613736
 31
0.0
  0
LINE
  5
60DF
330
19
100
AcDbEntity
  8
0
100
AcDbLine
 10
1296.296274829576
 20
2032.631035545738
 30
0.0
 11
1323.47123310154
 21
2059.805954613736
 31
0.0
  0
LINE
  5
60E0
330
19
100
AcDbEntity
  8
0
100
AcDbLine
 10
1296.296274829576
 20
2032.261394097716
 30
0.0
 11
1323.840822277569
 21
2059.805954613736
 31
0.0
  0
LINE
  5
60E1
330
19
100
AcDbEntity
  8
0
100
AcDbLine
 10
1296.296274829576
 20
2031.891750036112
 30
0.0
 11
1324.210489861529
 21
2059.805954613736
 31
0.0
  0
LINE
  5
60E2
330
19
100
AcDbEntity
  8
0
100
AcDbLine
 10
1296.296274829576
 20
2031.5221242697
 30
0.0
 11
1324.580079037558
 21
2059.805954613736
 31
0.0
  0
LINE
  5
60E3
330
19
100
AcDbEntity
  8
0
100
AcDbLine
 10
1296.296274829576
 20
2031.152522025702
 30
0.0
 11
1324.949746621576
 21
2059.805954613736
 31
0.0
  0
LINE
  5
60E4
330
19
100
AcDbEntity
  8
0
100
AcDbLine
 10
1296.296274829576
 20
2030.782880577738
 30
0.0
 11
1325.319335797547
 21
2059.805954613736
 31
0.0
  0
LINE
  5
60E5
330
19
100
AcDbEntity
  8
0
100
AcDbLine
 10
1296.296274829576
 20
2030.413236516134
 30
0.0
 11
1325.689003381565
 21
2059.805954613736
 31
0.0
  0
LINE
  5
60E6
330
19
100
AcDbEntity
  8
0
100
AcDbLine
 10
1296.296274829576
 20
2030.043618590527
 30
0.0
 11
1326.058592557536
 21
2059.805954613736
 31
0.0
  0
LINE
  5
60E7
330
19
100
AcDbEntity
  8
0
100
AcDbLine
 10
1296.296274829576
 20
2029.673977142504
 30
0.0
 11
1326.428260141554
 21
2059.805954613736
 31
0.0
  0
LINE
  5
60E8
330
19
100
AcDbEntity
  8
0
100
AcDbLine
 10
1296.296274829576
 20
2029.304367057702
 30
0.0
 11
1326.797901589576
 21
2059.805954613736
 31
0.0
  0
LINE
  5
60E9
330
19
100
AcDbEntity
  8
0
100
AcDbLine
 10
1296.296274829576
 20
2028.934722996098
 30
0.0
 11
1327.167490765547
 21
2059.805954613736
 31
0.0
  0
LINE
  5
60EA
330
19
100
AcDbEntity
  8
0
100
AcDbLine
 10
1296.296274829576
 20
2028.56510507049
 30
0.0
 11
1327.537106077572
 21
2059.805954613736
 31
0.0
  0
LINE
  5
60EB
330
19
100
AcDbEntity
  8
0
100
AcDbLine
 10
1312.225173661522
 20
2044.124352000144
 30
0.0
 11
1327.906747525536
 21
2059.805954613736
 31
0.0
  0
LINE
  5
60EC
330
19
100
AcDbEntity
  8
0
100
AcDbLine
 10
1296.543573661569
 20
2028.44274677291
 30
0.0
 11
1311.977874829528
 21
2043.877058395315
 31
0.0
  0
LINE
  5
60ED
330
19
100
AcDbEntity
  8
0
100
AcDbLine
 10
1312.59476283755
 20
2044.124352000144
 30
0.0
 11
1328.276336701565
 21
2059.805954613736
 31
0.0
  0
LINE
  5
60EE
330
19
100
AcDbEntity
  8
0
100
AcDbLine
 10
1296.91316283754
 20
2028.44274677291
 30
0.0
 11
1311.977874829528
 21
2043.507440469707
 31
0.0
  0
LINE
  5
60EF
330
19
100
AcDbEntity
  8
0
100
AcDbLine
 10
1312.964430421569
 20
2044.124352000144
 30
0.0
 11
1328.646082693573
 21
2059.805954613736
 31
0.0
  0
LINE
  5
60F0
330
19
100
AcDbEntity
  8
0
100
AcDbLine
 10
1297.282830421558
 20
2028.44274677291
 30
0.0
 11
1311.977874829528
 21
2043.137788567298
 31
0.0
  0
LINE
  5
60F1
330
19
100
AcDbEntity
  8
0
100
AcDbLine
 10
1313.334071869532
 20
2044.124352000144
 30
0.0
 11
1329.015671869543
 21
2059.805954613736
 31
0.0
  0
LINE
  5
60F2
330
19
100
AcDbEntity
  8
0
100
AcDbLine
 10
1297.652498005576
 20
2028.44274677291
 30
0.0
 11
1311.977874829528
 21
2042.768147119335
 31
0.0
  0
LINE
  5
60F3
330
19
100
AcDbEntity
  8
0
100
AcDbLine
 10
1313.703661045561
 20
2044.124352000144
 30
0.0
 11
1329.385261045572
 21
2059.805954613736
 31
0.0
  0
LINE
  5
60F4
330
19
100
AcDbEntity
  8
0
100
AcDbLine
 10
1298.022087181547
 20
2028.44274677291
 30
0.0
 11
1311.977874829528
 21
2042.398544875337
 31
0.0
  0
LINE
  5
60F5
330
19
100
AcDbEntity
  8
0
100
AcDbLine
 10
1314.073276357529
 20
2044.124352000144
 30
0.0
 11
1329.754928629532
 21
2059.805954613736
 31
0.0
  0
LINE
  5
60F6
330
19
100
AcDbEntity
  8
0
100
AcDbLine
 10
1298.391676357576
 20
2028.44274677291
 30
0.0
 11
1311.977874829528
 21
2042.028934790534
 31
0.0
  0
LINE
  5
60F7
330
19
100
AcDbEntity
  8
0
100
AcDbLine
 10
1314.442917805551
 20
2044.124352000144
 30
0.0
 11
1330.124517805561
 21
2059.805954613736
 31
0.0
  0
LINE
  5
60F8
330
19
100
AcDbEntity
  8
0
100
AcDbLine
 10
1298.761343941536
 20
2028.44274677291
 30
0.0
 11
1311.977874829528
 21
2041.659290728929
 31
0.0
  0
LINE
  5
60F9
330
19
100
AcDbEntity
  8
0
100
AcDbLine
 10
1314.812585389569
 20
2044.124352000144
 30
0.0
 11
1330.494159253525
 21
2059.805954613736
 31
0.0
  0
LINE
  5
60FA
330
19
100
AcDbEntity
  8
0
100
AcDbLine
 10
1299.130985389558
 20
2028.44274677291
 30
0.0
 11
1311.977874829528
 21
2041.289641440103
 31
0.0
  0
LINE
  5
60FB
330
19
100
AcDbEntity
  8
0
100
AcDbLine
 10
1315.18217456554
 20
2044.124352000144
 30
0.0
 11
1330.86377456555
 21
2059.805954613736
 31
0.0
  0
LINE
  5
60FC
330
19
100
AcDbEntity
  8
0
100
AcDbLine
 10
1299.500600701525
 20
2028.44274677291
 30
0.0
 11
1311.977874829528
 21
2040.9200313553
 31
0.0
  0
LINE
  5
60FD
330
19
100
AcDbEntity
  8
0
100
AcDbLine
 10
1315.551842149558
 20
2044.124352000144
 30
0.0
 11
1331.233416013572
 21
2059.805954613736
 31
0.0
  0
LINE
  5
60FE
330
19
100
AcDbEntity
  8
0
100
AcDbLine
 10
1299.870242149547
 20
2028.44274677291
 30
0.0
 11
1311.977874829528
 21
2040.550387293696
 31
0.0
  0
LINE
  5
60FF
330
19
100
AcDbEntity
  8
0
100
AcDbLine
 10
1315.921431325529
 20
2044.124352000144
 30
0.0
 11
1331.603083597532
 21
2059.805954613736
 31
0.0
  0
LINE
  5
6100
330
19
100
AcDbEntity
  8
0
100
AcDbLine
 10
1300.239831325576
 20
2028.44274677291
 30
0.0
 11
1311.977874829528
 21
2040.180777208894
 31
0.0
  0
LINE
  5
6101
330
19
100
AcDbEntity
  8
0
100
AcDbLine
 10
1316.291098909547
 20
2044.124352000144
 30
0.0
 11
1331.972672773561
 21
2059.805954613736
 31
0.0
  0
LINE
  5
6102
330
19
100
AcDbEntity
  8
0
100
AcDbLine
 10
1300.609498909536
 20
2028.44274677291
 30
0.0
 11
1311.977874829528
 21
2039.811127920125
 31
0.0
  0
LINE
  5
6103
330
19
100
AcDbEntity
  8
0
100
AcDbLine
 10
1316.660740357569
 20
2044.124352000144
 30
0.0
 11
1332.342340357521
 21
2059.805954613736
 31
0.0
  0
LINE
  5
6104
330
19
100
AcDbEntity
  8
0
100
AcDbLine
 10
1300.979088085565
 20
2028.44274677291
 30
0.0
 11
1311.977874829528
 21
2039.441491699326
 31
0.0
  0
LINE
  5
6105
330
19
100
AcDbEntity
  8
0
100
AcDbLine
 10
1317.03032953354
 20
2044.124352000144
 30
0.0
 11
1332.71192953355
 21
2059.805954613736
 31
0.0
  0
LINE
  5
6106
330
19
100
AcDbEntity
  8
0
100
AcDbLine
 10
1301.348755669525
 20
2028.44274677291
 30
0.0
 11
1311.977874829528
 21
2039.071881614523
 31
0.0
  0
LINE
  5
6107
330
19
100
AcDbEntity
  8
0
100
AcDbLine
 10
1317.399944845565
 20
2044.124352000144
 30
0.0
 11
1332.886674829562
 21
2059.611061075309
 31
0.0
  0
LINE
  5
6108
330
19
100
AcDbEntity
  8
0
100
AcDbLine
 10
1301.718344845554
 20
2028.44274677291
 30
0.0
 11
1311.977874829528
 21
2038.70225584811
 31
0.0
  0
LINE
  5
6109
330
19
100
AcDbEntity
  8
0
100
AcDbLine
 10
1317.769586293529
 20
2044.124352000144
 30
0.0
 11
1332.886674829562
 21
2059.241417013705
 31
0.0
  0
LINE
  5
610A
330
19
100
AcDbEntity
  8
0
100
AcDbLine
 10
1302.088012429573
 20
2028.44274677291
 30
0.0
 11
1311.977874829528
 21
2038.332622240893
 31
0.0
  0
LINE
  5
610B
330
19
100
AcDbEntity
  8
0
100
AcDbLine
 10
1318.139253877547
 20
2044.124352000144
 30
0.0
 11
1332.886674829562
 21
2058.871775565741
 31
0.0
  0
LINE
  5
610C
330
19
100
AcDbEntity
  8
0
100
AcDbLine
 10
1302.457653877536
 20
2028.44274677291
 30
0.0
 11
1311.977874829528
 21
2037.962970338543
 31
0.0
  0
LINE
  5
610D
330
19
100
AcDbEntity
  8
0
100
AcDbLine
 10
1318.508843053576
 20
2044.124352000144
 30
0.0
 11
1332.886674829562
 21
2058.50218116249
 31
0.0
  0
LINE
  5
610E
330
19
100
AcDbEntity
  8
0
100
AcDbLine
 10
1302.827269189562
 20
2028.44274677291
 30
0.0
 11
1311.977874829528
 21
2037.593368094545
 31
0.0
  0
LINE
  5
610F
330
19
100
AcDbEntity
  8
0
100
AcDbLine
 10
1318.878510637536
 20
2044.124352000144
 30
0.0
 11
1332.886674829562
 21
2058.132539714526
 31
0.0
  0
LINE
  5
6110
330
19
100
AcDbEntity
  8
0
100
AcDbLine
 10
1303.196910637525
 20
2028.44274677291
 30
0.0
 11
1311.977874829528
 21
2037.223726646523
 31
0.0
  0
LINE
  5
6111
330
19
100
AcDbEntity
  8
0
100
AcDbLine
 10
1319.248099813565
 20
2044.124352000144
 30
0.0
 11
1332.886674829562
 21
2057.762895652922
 31
0.0
  0
LINE
  5
6112
330
19
100
AcDbEntity
  8
0
100
AcDbLine
 10
1303.566499813554
 20
2028.44274677291
 30
0.0
 11
1311.977874829528
 21
2036.854108720915
 31
0.0
  0
LINE
  5
6113
330
19
100
AcDbEntity
  8
0
100
AcDbLine
 10
1319.617767397525
 20
2044.124352000144
 30
0.0
 11
1332.886674829562
 21
2057.3932542049
 31
0.0
  0
LINE
  5
6114
330
19
100
AcDbEntity
  8
0
100
AcDbLine
 10
1303.936167397573
 20
2028.44274677291
 30
0.0
 11
1311.977874829528
 21
2036.484464659311
 31
0.0
  0
LINE
  5
6115
330
19
100
AcDbEntity
  8
0
100
AcDbLine
 10
1319.987356573554
 20
2044.124352000144
 30
0.0
 11
1332.886674829562
 21
2057.023667642511
 31
0.0
  0
LINE
  5
6116
330
19
100
AcDbEntity
  8
0
100
AcDbLine
 10
1304.305756573543
 20
2028.44274677291
 30
0.0
 11
1311.977874829528
 21
2036.114854574508
 31
0.0
  0
LINE
  5
6117
330
19
100
AcDbEntity
  8
0
100
AcDbLine
 10
1320.356998021576
 20
2044.124352000144
 30
0.0
 11
1332.886674829562
 21
2056.65402619449
 31
0.0
  0
LINE
  5
6118
330
19
100
AcDbEntity
  8
0
100
AcDbLine
 10
1304.675424157562
 20
2028.44274677291
 30
0.0
 11
1311.977874829528
 21
2035.745213126545
 31
0.0
  0
LINE
  5
6119
330
19
100
AcDbEntity
  8
0
100
AcDbLine
 10
1320.726613333543
 20
2044.124352000144
 30
0.0
 11
1332.886674829562
 21
2056.284397814495
 31
0.0
  0
LINE
  5
611A
330
19
100
AcDbEntity
  8
0
100
AcDbLine
 10
1305.045013333532
 20
2028.44274677291
 30
0.0
 11
1311.977874829528
 21
2035.375603041742
 31
0.0
  0
LINE
  5
611B
330
19
100
AcDbEntity
  8
0
100
AcDbLine
 10
1321.096254781565
 20
2044.124352000144
 30
0.0
 11
1332.886674829562
 21
2055.914756366531
 31
0.0
  0
LINE
  5
611C
330
19
100
AcDbEntity
  8
0
100
AcDbLine
 10
1305.414680917551
 20
2028.44274677291
 30
0.0
 11
1311.977874829528
 21
2035.005958980137
 31
0.0
  0
LINE
  5
611D
330
19
100
AcDbEntity
  8
0
100
AcDbLine
 10
1321.465922365525
 20
2044.124352000144
 30
0.0
 11
1332.886674829562
 21
2055.545096623317
 31
0.0
  0
LINE
  5
611E
330
19
100
AcDbEntity
  8
0
100
AcDbLine
 10
1305.784322365572
 20
2028.44274677291
 30
0.0
 11
1311.977874829528
 21
2034.636309691311
 31
0.0
  0
LINE
  5
611F
330
19
100
AcDbEntity
  8
0
100
AcDbLine
 10
1321.835511541554
 20
2044.124352000144
 30
0.0
 11
1332.886674829562
 21
2055.175512674511
 31
0.0
  0
LINE
  5
6120
330
19
100
AcDbEntity
  8
0
100
AcDbLine
 10
1306.15393767754
 20
2028.44274677291
 30
0.0
 11
1311.977874829528
 21
2034.266699606508
 31
0.0
  0
LINE
  5
6121
330
19
100
AcDbEntity
  8
0
100
AcDbLine
 10
1322.205100717525
 20
2044.124352000144
 30
0.0
 11
1332.886674829562
 21
2054.805884294517
 31
0.0
  0
LINE
  5
6122
330
19
100
AcDbEntity
  8
0
100
AcDbLine
 10
1306.523526853569
 20
2028.44274677291
 30
0.0
 11
1311.977874829528
 21
2033.897081680901
 31
0.0
  0
LINE
  5
6123
330
19
100
AcDbEntity
  8
0
100
AcDbLine
 10
1322.574768301543
 20
2044.124352000144
 30
0.0
 11
1332.886674829562
 21
2054.436242846495
 31
0.0
  0
LINE
  5
6124
330
19
100
AcDbEntity
  8
0
100
AcDbLine
 10
1306.893194437529
 20
2028.44274677291
 30
0.0
 11
1311.977874829528
 21
2033.527437619297
 31
0.0
  0
LINE
  5
6125
330
19
100
AcDbEntity
  8
0
100
AcDbLine
 10
1322.944435885561
 20
2044.124352000144
 30
0.0
 11
1332.886674829562
 21
2054.066601398531
 31
0.0
  0
LINE
  5
6126
330
19
100
AcDbEntity
  8
0
100
AcDbLine
 10
1307.262835885551
 20
2028.44274677291
 30
0.0
 11
1311.977874829528
 21
2033.157804012137
 31
0.0
  0
LINE
  5
6127
330
19
100
AcDbEntity
  8
0
100
AcDbLine
 10
1323.314025061532
 20
2044.124352000144
 30
0.0
 11
1332.886674829562
 21
2053.697006995338
 31
0.0
  0
LINE
  5
6128
330
19
100
AcDbEntity
  8
0
100
AcDbLine
 10
1307.632425061522
 20
2028.44274677291
 30
0.0
 11
1311.977874829528
 21
2032.788193927335
 31
0.0
  0
LINE
  5
6129
330
19
100
AcDbEntity
  8
0
100
AcDbLine
 10
1323.683692645551
 20
2044.124352000144
 30
0.0
 11
1332.886674829562
 21
2053.327355092929
 31
0.0
  0
LINE
  5
612A
330
19
100
AcDbEntity
  8
0
100
AcDbLine
 10
1308.00209264554
 20
2028.44274677291
 30
0.0
 11
1311.977874829528
 21
2032.418542024926
 31
0.0
  0
LINE
  5
612B
330
19
100
AcDbEntity
  8
0
100
AcDbLine
 10
1324.053281821521
 20
2044.124352000144
 30
0.0
 11
1332.886674829562
 21
2052.957721485712
 31
0.0
  0
LINE
  5
612C
330
19
100
AcDbEntity
  8
0
100
AcDbLine
 10
1308.371681821569
 20
2028.44274677291
 30
0.0
 11
1311.977874829528
 21
2032.048924099318
 31
0.0
  0
LINE
  5
612D
330
19
100
AcDbEntity
  8
0
100
AcDbLine
 10
1324.422923269543
 20
2044.124352000144
 30
0.0
 11
1332.886674829562
 21
2052.588077424108
 31
0.0
  0
LINE
  5
612E
330
19
100
AcDbEntity
  8
0
100
AcDbLine
 10
1308.741349405529
 20
2028.44274677291
 30
0.0
 11
1311.977874829528
 21
2031.679290492101
 31
0.0
  0
LINE
  5
612F
330
19
100
AcDbEntity
  8
0
100
AcDbLine
 10
1324.792590853562
 20
2044.124352000144
 30
0.0
 11
1332.886674829562
 21
2052.218443816891
 31
0.0
  0
LINE
  5
6130
330
19
100
AcDbEntity
  8
0
100
AcDbLine
 10
1309.110938581558
 20
2028.44274677291
 30
0.0
 11
1311.977874829528
 21
2031.309649044138
 31
0.0
  0
LINE
  5
6131
330
19
100
AcDbEntity
  8
0
100
AcDbLine
 10
1325.162180029532
 20
2044.124352000144
 30
0.0
 11
1332.886674829562
 21
2051.848849413698
 31
0.0
  0
LINE
  5
6132
330
19
100
AcDbEntity
  8
0
100
AcDbLine
 10
1309.480606165576
 20
2028.44274677291
 30
0.0
 11
1311.977874829528
 21
2030.94002850489
 31
0.0
  0
LINE
  5
6133
330
19
100
AcDbEntity
  8
0
100
AcDbLine
 10
1325.531769205561
 20
2044.124352000144
 30
0.0
 11
1332.886674829562
 21
2051.479215806538
 31
0.0
  0
LINE
  5
6134
330
19
100
AcDbEntity
  8
0
100
AcDbLine
 10
1309.850195341547
 20
2028.44274677291
 30
0.0
 11
1311.977874829528
 21
2030.570418420145
 31
0.0
  0
LINE
  5
6135
330
19
100
AcDbEntity
  8
0
100
AcDbLine
 10
1325.901436789521
 20
2044.124352000144
 30
0.0
 11
1332.886674829562
 21
2051.109571744934
 31
0.0
  0
LINE
  5
6136
330
19
100
AcDbEntity
  8
0
100
AcDbLine
 10
1310.219862925565
 20
2028.44274677291
 30
0.0
 11
1311.977874829528
 21
2030.200769131318
 31
0.0
  0
LINE
  5
6137
330
19
100
AcDbEntity
  8
0
100
AcDbLine
 10
1326.27110437354
 20
2044.124352000144
 30
0.0
 11
1332.886674829562
 21
2050.739922456108
 31
0.0
  0
LINE
  5
6138
330
19
100
AcDbEntity
  8
0
100
AcDbLine
 10
1310.589504373529
 20
2028.44274677291
 30
0.0
 11
1311.977874829528
 21
2029.831125069714
 31
0.0
  0
LINE
  5
6139
330
19
100
AcDbEntity
  8
0
100
AcDbLine
 10
1326.640693549569
 20
2044.124352000144
 30
0.0
 11
1332.886674829562
 21
2050.370335893719
 31
0.0
  0
LINE
  5
613A
330
19
100
AcDbEntity
  8
0
100
AcDbLine
 10
1310.959093549558
 20
2028.44274677291
 30
0.0
 11
1311.977874829528
 21
2029.461525439298
 31
0.0
  0
LINE
  5
613B
330
19
100
AcDbEntity
  8
0
100
AcDbLine
 10
1327.010282725539
 20
2044.124352000144
 30
0.0
 11
1332.886674829562
 21
2050.000710127307
 31
0.0
  0
LINE
  5
613C
330
19
100
AcDbEntity
  8
0
100
AcDbLine
 10
1311.328708861525
 20
2028.44274677291
 30
0.0
 11
1311.977874829528
 21
2029.091904900109
 31
0.0
  0
LINE
  5
613D
330
19
100
AcDbEntity
  8
0
100
AcDbLine
 10
1327.379950309558
 20
2044.124352000144
 30
0.0
 11
1332.886674829562
 21
2049.631068679343
 31
0.0
  0
LINE
  5
613E
330
19
100
AcDbEntity
  8
0
100
AcDbLine
 10
1311.698350309547
 20
2028.44274677291
 30
0.0
 11
1311.977874829528
 21
2028.722263452145
 31
0.0
  0
LINE
  5
613F
330
19
100
AcDbEntity
  8
0
100
AcDbLine
 10
1327.749591757521
 20
2044.124352000144
 30
0.0
 11
1332.886674829562
 21
2049.261416776934
 31
0.0
  0
LINE
  5
6140
330
19
100
AcDbEntity
  8
0
100
AcDbLine
 10
1311.977874829528
 20
2028.352622004123
 30
0.0
 11
1312.068017893565
 21
2028.44274677291
 31
0.0
  0
LINE
  5
6141
330
19
100
AcDbEntity
  8
0
100
AcDbLine
 10
1296.296274829576
 20
2012.671037685722
 30
0.0
 11
1296.386365621561
 21
2012.761144159317
 31
0.0
  0
LINE
  5
6142
330
19
100
AcDbEntity
  8
0
100
AcDbLine
 10
1328.119207069547
 20
2044.124352000144
 30
0.0
 11
1332.886674829562
 21
2048.891814532936
 31
0.0
  0
LINE
  5
6143
330
19
100
AcDbEntity
  8
0
100
AcDbLine
 10
1311.977874829528
 20
2027.983001464933
 30
0.0
 11
1312.437607069536
 21
2028.44274677291
 31
0.0
  0
LINE
  5
6144
330
19
100
AcDbEntity
  8
0
100
AcDbLine
 10
1296.296274829576
 20
2012.30141191931
 30
0.0
 11
1296.756033205522
 21
2012.761144159317
 31
0.0
  0
LINE
  5
6145
330
19
100
AcDbEntity
  8
0
100
AcDbLine
 10
1328.488848517569
 20
2044.124352000144
 30
0.0
 11
1332.886674829562
 21
2048.522180925719
 31
0.0
  0
LINE
  5
6146
330
19
100
AcDbEntity
  8
0
100
AcDbLine
 10
1311.977874829528
 20
2027.613360016911
 30
0.0
 11
1312.807274653554
 21
2028.44274677291
 31
0.0
  0
LINE
  5
6147
330
19
100
AcDbEntity
  8
0
100
AcDbLine
 10
1296.296274829576
 20
2011.931767857705
 30
0.0
 11
1297.125674653544
 21
2012.761144159317
 31
0.0
  0
LINE
  5
6148
330
19
100
AcDbEntity
  8
0
100
AcDbLine
 10
1328.858437693539
 20
2044.124352000144
 30
0.0
 11
1332.886674829562
 21
2048.15254470492
 31
0.0
  0
LINE
  5
6149
330
19
100
AcDbEntity
  8
0
100
AcDbLine
 10
1311.977874829528
 20
2027.243749932109
 30
0.0
 11
1313.176863829525
 21
2028.44274677291
 31
0.0
  0
LINE
  5
614A
330
19
100
AcDbEntity
  8
0
100
AcDbLine
 10
1296.296274829576
 20
2011.56217084093
 30
0.0
 11
1297.495263829573
 21
2012.761144159317
 31
0.0
  0
LINE
  5
614B
330
19
100
AcDbEntity
  8
0
100
AcDbLine
 10
1329.228105277558
 20
2044.124352000144
 30
0.0
 11
1332.886674829562
 21
2047.782911097703
 31
0.0
  0
LINE
  5
614C
330
19
100
AcDbEntity
  8
0
100
AcDbLine
 10
1311.977874829528
 20
2026.874116324892
 30
0.0
 11
1313.546531413543
 21
2028.44274677291
 31
0.0
  0
LINE
  5
614D
330
19
100
AcDbEntity
  8
0
100
AcDbLine
 10
1296.296274829576
 20
2011.192529392908
 30
0.0
 11
1297.86487914154
 21
2012.761144159317
 31
0.0
  0
LINE
  5
614E
330
19
100
AcDbEntity
  8
0
100
AcDbLine
 10
1329.597772861576
 20
2044.124352000144
 30
0.0
 11
1332.886674829562
 21
2047.413269649739
 31
0.0
  0
LINE
  5
614F
330
19
100
AcDbEntity
  8
0
100
AcDbLine
 10
1311.977874829528
 20
2026.504472263346
 30
0.0
 11
1313.916120589572
 21
2028.44274677291
 31
0.0
  0
LINE
  5
6150
330
19
100
AcDbEntity
  8
0
100
AcDbLine
 10
1296.296274829576
 20
2010.822885331304
 30
0.0
 11
1298.234520589562
 21
2012.761144159317
 31
0.0
  0
LINE
  5
6151
330
19
100
AcDbEntity
  8
0
100
AcDbLine
 10
1329.967362037547
 20
2044.124352000144
 30
0.0
 11
1332.886674829562
 21
2047.043659564936
 31
0.0
  0
LINE
  5
6152
330
19
100
AcDbEntity
  8
0
100
AcDbLine
 10
1311.977874829528
 20
2026.134846496933
 30
0.0
 11
1314.285762037536
 21
2028.44274677291
 31
0.0
  0
LINE
  5
6153
330
19
100
AcDbEntity
  8
0
100
AcDbLine
 10
1296.296274829576
 20
2010.453254337727
 30
0.0
 11
1298.604188173522
 21
2012.761144159317
 31
0.0
  0
LINE
  5
6154
330
19
100
AcDbEntity
  8
0
100
AcDbLine
 10
1330.336951213576
 20
2044.124352000144
 30
0.0
 11
1332.886674829562
 21
2046.674031184942
 31
0.0
  0
LINE
  5
6155
330
19
100
AcDbEntity
  8
0
100
AcDbLine
 10
1311.977874829528
 20
2025.765244252935
 30
0.0
 11
1314.655377349561
 21
2028.44274677291
 31
0.0
  0
LINE
  5
6156
330
19
100
AcDbEntity
  8
0
100
AcDbLine
 10
1296.296274829576
 20
2010.083662548116
 30
0.0
 11
1298.973777349551
 21
2012.761144159317
 31
0.0
  0
LINE
  5
6157
330
19
100
AcDbEntity
  8
0
100
AcDbLine
 10
1330.706618797536
 20
2044.124352000144
 30
0.0
 11
1332.886674829562
 21
2046.304397577725
 31
0.0
  0
LINE
  5
6158
330
19
100
AcDbEntity
  8
0
100
AcDbLine
 10
1311.977874829528
 20
2025.395602804914
 30
0.0
 11
1315.025018797525
 21
2028.44274677291
 31
0.0
  0
LINE
  5
6159
330
19
100
AcDbEntity
  8
0
100
AcDbLine
 10
1296.296274829576
 20
2009.71401587293
 30
0.0
 11
1299.343366525521
 21
2012.761144159317
 31
0.0
  0
LINE
  5
615A
330
19
100
AcDbEntity
  8
0
100
AcDbLine
 10
1331.076260245558
 20
2044.124352000144
 30
0.0
 11
1332.886674829562
 21
2045.934756129703
 31
0.0
  0
LINE
  5
615B
330
19
100
AcDbEntity
  8
0
100
AcDbLine
 10
1311.977874829528
 20
2025.025950902505
 30
0.0
 11
1315.394686381543
 21
2028.44274677291
 31
0.0
  0
LINE
  5
615C
330
19
100
AcDbEntity
  8
0
100
AcDbLine
 10
1296.296274829576
 20
2009.344371811326
 30
0.0
 11
1299.71303410954
 21
2012.761144159317
 31
0.0
  0
LINE
  5
615D
330
19
100
AcDbEntity
  8
0
100
AcDbLine
 10
1331.445875557525
 20
2044.124352000144
 30
0.0
 11
1332.886674829562
 21
2045.565161726509
 31
0.0
  0
LINE
  5
615E
330
19
100
AcDbEntity
  8
0
100
AcDbLine
 10
1311.977874829528
 20
2024.656340817702
 30
0.0
 11
1315.764275557572
 21
2028.44274677291
 31
0.0
  0
LINE
  5
615F
330
19
100
AcDbEntity
  8
0
100
AcDbLine
 10
1296.296274829576
 20
2008.974746044914
 30
0.0
 11
1300.082701693558
 21
2012.761144159317
 31
0.0
  0
LINE
  5
6160
330
19
100
AcDbEntity
  8
0
100
AcDbLine
 10
1331.815517005547
 20
2044.124352000144
 30
0.0
 11
1332.886674829562
 21
2045.1955098241
 31
0.0
  0
LINE
  5
6161
330
19
100
AcDbEntity
  8
0
100
AcDbLine
 10
1311.977874829528
 20
2024.286699369738
 30
0.0
 11
1316.133943141532
 21
2028.44274677291
 31
0.0
  0
LINE
  5
6162
330
19
100
AcDbEntity
  8
0
100
AcDbLine
 10
1296.296274829576
 20
2008.605099369727
 30
0.0
 11
1300.452343141522
 21
2012.761144159317
 31
0.0
  0
LINE
  5
6163
330
19
100
AcDbEntity
  8
0
100
AcDbLine
 10
1332.185106181576
 20
2044.124352000144
 30
0.0
 11
1332.886674829562
 21
2044.825884057688
 31
0.0
  0
LINE
  5
6164
330
19
100
AcDbEntity
  8
0
100
AcDbLine
 10
1311.977874829528
 20
2023.917089284935
 30
0.0
 11
1316.503532317561
 21
2028.44274677291
 31
0.0
  0
LINE
  5
6165
330
19
100
AcDbEntity
  8
0
100
AcDbLine
 10
1296.296274829576
 20
2008.235504966534
 30
0.0
 11
1300.821932317551
 21
2012.761144159317
 31
0.0
  0
LINE
  5
6166
330
19
100
AcDbEntity
  8
0
100
AcDbLine
 10
1332.554773765536
 20
2044.124352000144
 30
0.0
 11
1332.886674829562
 21
2044.456242609725
 31
0.0
  0
LINE
  5
6167
330
19
100
AcDbEntity
  8
0
100
AcDbLine
 10
1311.977874829528
 20
2023.547442609691
 30
0.0
 11
1316.873199901522
 21
2028.44274677291
 31
0.0
  0
LINE
  5
6168
330
19
100
AcDbEntity
  8
0
100
AcDbLine
 10
1296.296274829576
 20
2007.865858291289
 30
0.0
 11
1301.191547629576
 21
2012.761144159317
 31
0.0
  0
LINE
  5
6169
330
19
100
AcDbEntity
  8
0
100
AcDbLine
 10
1311.977874829528
 20
2023.177827297724
 30
0.0
 11
1317.242789077551
 21
2028.44274677291
 31
0.0
  0
LINE
  5
616A
330
19
100
AcDbEntity
  8
0
100
AcDbLine
 10
1296.296274829576
 20
2007.496232524935
 30
0.0
 11
1301.56118907754
 21
2012.761144159317
 31
0.0
  0
LINE
  5
616B
330
19
100
AcDbEntity
  8
0
100
AcDbLine
 10
1311.977874829528
 20
2022.808188463342
 30
0.0
 11
1317.612456661569
 21
2028.44274677291
 31
0.0
  0
LINE
  5
616C
330
19
100
AcDbEntity
  8
0
100
AcDbLine
 10
1296.296274829576
 20
2007.126591076914
 30
0.0
 11
1301.930856661558
 21
2012.761144159317
 31
0.0
  0
LINE
  5
616D
330
19
100
AcDbEntity
  8
0
100
AcDbLine
 10
1311.977874829528
 20
2022.438583605703
 30
0.0
 11
1317.982045837539
 21
2028.44274677291
 31
0.0
  0
LINE
  5
616E
330
19
100
AcDbEntity
  8
0
100
AcDbLine
 10
1296.296274829576
 20
2006.75699667372
 30
0.0
 11
1302.300445837529
 21
2012.761144159317
 31
0.0
  0
LINE
  5
616F
330
19
100
AcDbEntity
  8
0
100
AcDbLine
 10
1311.977874829528
 20
2022.068929089713
 30
0.0
 11
1318.351687285561
 21
2028.44274677291
 31
0.0
  0
LINE
  5
6170
330
19
100
AcDbEntity
  8
0
100
AcDbLine
 10
1296.296274829576
 20
2006.387349998534
 30
0.0
 11
1302.670035013558
 21
2012.761144159317
 31
0.0
  0
LINE
  5
6171
330
19
100
AcDbEntity
  8
0
100
AcDbLine
 10
1311.977874829528
 20
2021.699290255331
 30
0.0
 11
1318.721354869522
 21
2028.44274677291
 31
0.0
  0
LINE
  5
6172
330
19
100
AcDbEntity
  8
0
100
AcDbLine
 10
1296.296274829576
 20
2006.01770593693
 30
0.0
 11
1303.039702597576
 21
2012.761144159317
 31
0.0
  0
LINE
  5
6173
330
19
100
AcDbEntity
  8
0
100
AcDbLine
 10
1311.977874829528
 20
2021.329672329724
 30
0.0
 11
1319.090944045551
 21
2028.44274677291
 31
0.0
  0
LINE
  5
6174
330
19
100
AcDbEntity
  8
0
100
AcDbLine
 10
1296.296274829576
 20
2005.648077556935
 30
0.0
 11
1303.409370181536
 21
2012.761144159317
 31
0.0
  0
LINE
  5
6175
330
19
100
AcDbEntity
  8
0
100
AcDbLine
 10
1311.977874829528
 20
2020.960064858503
 30
0.0
 11
1319.460533221521
 21
2028.44274677291
 31
0.0
  0
LINE
  5
6176
330
19
100
AcDbEntity
  8
0
100
AcDbLine
 10
1296.296274829576
 20
2005.278483153742
 30
0.0
 11
1303.778959357565
 21
2012.761144159317
 31
0.0
  0
LINE
  5
6177
330
19
100
AcDbEntity
  8
0
100
AcDbLine
 10
1311.977874829528
 20
2020.590423410539
 30
0.0
 11
1319.83020080554
 21
2028.44274677291
 31
0.0
  0
LINE
  5
6178
330
19
100
AcDbEntity
  8
0
100
AcDbLine
 10
1296.296274829576
 20
2004.908839092138
 30
0.0
 11
1304.148626941525
 21
2012.761144159317
 31
0.0
  0
LINE
  5
6179
330
19
100
AcDbEntity
  8
0
100
AcDbLine
 10
1311.977874829528
 20
2020.220779348935
 30
0.0
 11
1320.199868389558
 21
2028.44274677291
 31
0.0
  0
LINE
  5
617A
330
19
100
AcDbEntity
  8
0
100
AcDbLine
 10
1296.296274829576
 20
2004.539197644116
 30
0.0
 11
1304.518216117554
 21
2012.761144159317
 31
0.0
  0
LINE
  5
617B
330
19
100
AcDbEntity
  8
0
100
AcDbLine
 10
1311.977874829528
 20
2019.851161423328
 30
0.0
 11
1320.569457565529
 21
2028.44274677291
 31
0.0
  0
LINE
  5
617C
330
19
100
AcDbEntity
  8
0
100
AcDbLine
 10
1296.296274829576
 20
2004.169566650539
 30
0.0
 11
1304.887857565576
 21
2012.761144159317
 31
0.0
  0
LINE
  5
617D
330
19
100
AcDbEntity
  8
0
100
AcDbLine
 10
1311.977874829528
 20
2019.481514748141
 30
0.0
 11
1320.939125149547
 21
2028.44274677291
 31
0.0
  0
LINE
  5
617E
330
19
100
AcDbEntity
  8
0
100
AcDbLine
 10
1296.296274829576
 20
2003.799919975295
 30
0.0
 11
1305.257525149536
 21
2012.761144159317
 31
0.0
  0
LINE
  5
617F
330
19
100
AcDbEntity
  8
0
100
AcDbLine
 10
1311.977874829528
 20
2019.111912504143
 30
0.0
 11
1321.308714325576
 21
2028.44274677291
 31
0.0
  0
LINE
  5
6180
330
19
100
AcDbEntity
  8
0
100
AcDbLine
 10
1296.296274829576
 20
2003.430325572102
 30
0.0
 11
1305.627114325565
 21
2012.761144159317
 31
0.0
  0
LINE
  5
6181
330
19
100
AcDbEntity
  8
0
100
AcDbLine
 10
1311.977874829528
 20
2018.742265828899
 30
0.0
 11
1321.67835577354
 21
2028.44274677291
 31
0.0
  0
LINE
  5
6182
330
19
100
AcDbEntity
  8
0
100
AcDbLine
 10
1296.296274829576
 20
2003.060684124138
 30
0.0
 11
1305.996703501536
 21
2012.761144159317
 31
0.0
  0
LINE
  5
6183
330
19
100
AcDbEntity
  8
0
100
AcDbLine
 10
1311.977874829528
 20
2018.372624380935
 30
0.0
 11
1322.047971085565
 21
2028.44274677291
 31
0.0
  0
LINE
  5
6184
330
19
100
AcDbEntity
  8
0
100
AcDbLine
 10
1296.296274829576
 20
2002.691040062534
 30
0.0
 11
1306.366371085554
 21
2012.761144159317
 31
0.0
  0
LINE
  5
6185
330
19
100
AcDbEntity
  8
0
100
AcDbLine
 10
1311.977874829528
 20
2018.003006455328
 30
0.0
 11
1322.417612533529
 21
2028.44274677291
 31
0.0
  0
LINE
  5
6186
330
19
100
AcDbEntity
  8
0
100
AcDbLine
 10
1296.296274829576
 20
2002.321411682539
 30
0.0
 11
1306.736038669572
 21
2012.761144159317
 31
0.0
  0
LINE
  5
6187
330
19
100
AcDbEntity
  8
0
100
AcDbLine
 10
1311.977874829528
 20
2017.633398984107
 30
0.0
 11
1322.787201709558
 21
2028.44274677291
 31
0.0
  0
LINE
  5
6188
330
19
100
AcDbEntity
  8
0
100
AcDbLine
 10
1296.296274829576
 20
2001.951819892928
 30
0.0
 11
1307.105627845543
 21
2012.761144159317
 31
0.0
  0
LINE
  5
6189
330
19
100
AcDbEntity
  8
0
100
AcDbLine
 10
1311.977874829528
 20
2017.263752308921
 30
0.0
 11
1323.156869293576
 21
2028.44274677291
 31
0.0
  0
LINE
  5
618A
330
19
100
AcDbEntity
  8
0
100
AcDbLine
 10
1296.296274829576
 20
2001.582170604102
 30
0.0
 11
1307.475295429562
 21
2012.761144159317
 31
0.0
  0
LINE
  5
618B
330
19
100
AcDbEntity
  8
0
100
AcDbLine
 10
1311.977874829528
 20
2016.894110860899
 30
0.0
 11
1323.526536877536
 21
2028.44274677291
 31
0.0
  0
LINE
  5
618C
330
19
100
AcDbEntity
  8
0
100
AcDbLine
 10
1296.296274829576
 20
2001.212526542497
 30
0.0
 11
1307.844884605532
 21
2012.761144159317
 31
0.0
  0
LINE
  5
618D
330
19
100
AcDbEntity
  8
0
100
AcDbLine
 10
1311.977874829528
 20
2016.524495548932
 30
0.0
 11
1323.896126053565
 21
2028.44274677291
 31
0.0
  0
LINE
  5
618E
330
19
100
AcDbEntity
  8
0
100
AcDbLine
 10
1296.296274829576
 20
2000.842898162503
 30
0.0
 11
1308.214526053554
 21
2012.761144159317
 31
0.0
  0
LINE
  5
618F
330
19
100
AcDbEntity
  8
0
100
AcDbLine
 10
1311.977874829528
 20
2016.15485410091
 30
0.0
 11
1324.265793637525
 21
2028.44274677291
 31
0.0
  0
LINE
  5
6190
330
19
100
AcDbEntity
  8
0
100
AcDbLine
 10
1296.296274829576
 20
2000.473259328122
 30
0.0
 11
1308.584141365521
 21
2012.761144159317
 31
0.0
  0
LINE
  5
6191
330
19
100
AcDbEntity
  8
0
100
AcDbLine
 10
1311.977874829528
 20
2015.785244016107
 30
0.0
 11
1324.635382813554
 21
2028.44274677291
 31
0.0
  0
LINE
  5
6192
330
19
100
AcDbEntity
  8
0
100
AcDbLine
 10
1296.296274829576
 20
2000.103659697705
 30
0.0
 11
1308.953782813543
 21
2012.761144159317
 31
0.0
  0
LINE
  5
6193
330
19
100
AcDbEntity
  8
0
100
AcDbLine
 10
1311.977874829528
 20
2015.415599954503
 30
0.0
 11
1325.005024261576
 21
2028.44274677291
 31
0.0
  0
LINE
  5
6194
330
19
100
AcDbEntity
  8
0
100
AcDbLine
 10
1296.296274829576
 20
1999.734023476906
 30
0.0
 11
1309.323371989572
 21
2012.761144159317
 31
0.0
  0
LINE
  5
6195
330
19
100
AcDbEntity
  8
0
100
AcDbLine
 10
1311.977874829528
 20
2015.045982028895
 30
0.0
 11
1325.374639573543
 21
2028.44274677291
 31
0.0
  0
LINE
  5
6196
330
19
100
AcDbEntity
  8
0
100
AcDbLine
 10
1296.296274829576
 20
1999.364387256107
 30
0.0
 11
1309.693039573532
 21
2012.761144159317
 31
0.0
  0
LINE
  5
6197
330
19
100
AcDbEntity
  8
0
100
AcDbLine
 10
1311.977874829528
 20
2014.676340580932
 30
0.0
 11
1325.744281021565
 21
2028.44274677291
 31
0.0
  0
LINE
  5
6198
330
19
100
AcDbEntity
  8
0
100
AcDbLine
 10
1296.296274829576
 20
1998.994745808143
 30
0.0
 11
1310.062707157551
 21
2012.761144159317
 31
0.0
  0
LINE
  5
6199
330
19
100
AcDbEntity
  8
0
100
AcDbLine
 10
1311.977874829528
 20
2014.306733109711
 30
0.0
 11
1326.113870197536
 21
2028.44274677291
 31
0.0
  0
LINE
  5
619A
330
19
100
AcDbEntity
  8
0
100
AcDbLine
 10
1296.296274829576
 20
1998.625151404892
 30
0.0
 11
1310.432296333521
 21
2012.761144159317
 31
0.0
  0
LINE
  5
619B
330
19
100
AcDbEntity
  8
0
100
AcDbLine
 10
1311.977874829528
 20
2013.93709427533
 30
0.0
 11
1326.483537781554
 21
2028.44274677291
 31
0.0
  0
LINE
  5
619C
330
19
100
AcDbEntity
  8
0
100
AcDbLine
 10
1296.296274829576
 20
1998.255507343346
 30
0.0
 11
1310.80188550955
 21
2012.761144159317
 31
0.0
  0
LINE
  5
619D
330
19
100
AcDbEntity
  8
0
100
AcDbLine
 10
1311.977874829528
 20
2013.567444986503
 30
0.0
 11
1326.853205365573
 21
2028.44274677291
 31
0.0
  0
LINE
  5
619E
330
19
100
AcDbEntity
  8
0
100
AcDbLine
 10
1296.296274829576
 20
1997.885865895324
 30
0.0
 11
1311.171553093569
 21
2012.761144159317
 31
0.0
  0
LINE
  5
619F
330
19
100
AcDbEntity
  8
0
100
AcDbLine
 10
1311.977874829528
 20
2013.197827060895
 30
0.0
 11
1327.222794541543
 21
2028.44274677291
 31
0.0
  0
LINE
  5
61A0
330
19
100
AcDbEntity
  8
0
100
AcDbLine
 10
1296.296274829576
 20
1997.516232288107
 30
0.0
 11
1311.541194541532
 21
2012.761144159317
 31
0.0
  0
LINE
  5
61A1
330
19
100
AcDbEntity
  8
0
100
AcDbLine
 10
1311.977874829528
 20
2012.828224816897
 30
0.0
 11
1327.592383717572
 21
2028.44274677291
 31
0.0
  0
LINE
  5
61A2
330
19
100
AcDbEntity
  8
0
100
AcDbLine
 10
1296.296274829576
 20
1997.146640498496
 30
0.0
 11
1311.910809853558
 21
2012.761144159317
 31
0.0
  0
LINE
  5
61A3
330
19
100
AcDbEntity
  8
0
100
AcDbLine
 10
1312.280451301522
 20
2012.761144159317
 30
0.0
 11
1327.659448693543
 21
2028.14015984653
 31
0.0
  0
LINE
  5
61A4
330
19
100
AcDbEntity
  8
0
100
AcDbLine
 10
1296.598799029576
 20
1997.079546772889
 30
0.0
 11
1311.977874829528
 21
2012.458578141711
 31
0.0
  0
LINE
  5
61A5
330
19
100
AcDbEntity
  8
0
100
AcDbLine
 10
1312.650066613547
 20
2012.761144159317
 30
0.0
 11
1327.659448693543
 21
2027.770518398508
 31
0.0
  0
LINE
  5
61A6
330
19
100
AcDbEntity
  8
0
100
AcDbLine
 10
1296.968466613536
 20
1997.079546772889
 30
0.0
 11
1311.977874829528
 21
2012.08893930733
 31
0.0
  0
LINE
  5
61A7
330
19
100
AcDbEntity
  8
0
100
AcDbLine
 10
1313.019708061569
 20
2012.761144159317
 30
0.0
 11
1327.659448693543
 21
2027.400908313705
 31
0.0
  0
LINE
  5
61A8
330
19
100
AcDbEntity
  8
0
100
AcDbLine
 10
1297.338134197554
 20
1997.079546772889
 30
0.0
 11
1311.977874829528
 21
2011.719313540917
 31
0.0
  0
LINE
  5
61A9
330
19
100
AcDbEntity
  8
0
100
AcDbLine
 10
1313.38929723754
 20
2012.761144159317
 30
0.0
 11
1327.659448693543
 21
2027.031266865742
 31
0.0
  0
LINE
  5
61AA
330
19
100
AcDbEntity
  8
0
100
AcDbLine
 10
1297.707723373525
 20
1997.079546772889
 30
0.0
 11
1311.977874829528
 21
2011.349669479313
 31
0.0
  0
LINE
  5
61AB
330
19
100
AcDbEntity
  8
0
100
AcDbLine
 10
1313.758964821558
 20
2012.761144159317
 30
0.0
 11
1327.659448693543
 21
2026.661654167298
 31
0.0
  0
LINE
  5
61AC
330
19
100
AcDbEntity
  8
0
100
AcDbLine
 10
1298.077312549554
 20
1997.079546772889
 30
0.0
 11
1311.977874829528
 21
2010.980067235315
 31
0.0
  0
LINE
  5
61AD
330
19
100
AcDbEntity
  8
0
100
AcDbLine
 10
1314.128553997529
 20
2012.761144159317
 30
0.0
 11
1327.659448693543
 21
2026.29200487853
 31
0.0
  0
LINE
  5
61AE
330
19
100
AcDbEntity
  8
0
100
AcDbLine
 10
1298.446980133572
 20
1997.079546772889
 30
0.0
 11
1311.977874829528
 21
2010.610423173711
 31
0.0
  0
LINE
  5
61AF
330
19
100
AcDbEntity
  8
0
100
AcDbLine
 10
1314.498221581547
 20
2012.761144159317
 30
0.0
 11
1327.659448693543
 21
2025.922363430508
 31
0.0
  0
LINE
  5
61B0
330
19
100
AcDbEntity
  8
0
100
AcDbLine
 10
1298.816621581536
 20
1997.079546772889
 30
0.0
 11
1311.977874829528
 21
2010.240779112107
 31
0.0
  0
LINE
  5
61B1
330
19
100
AcDbEntity
  8
0
100
AcDbLine
 10
1314.867889165565
 20
2012.761144159317
 30
0.0
 11
1327.659448693543
 21
2025.55276118651
 31
0.0
  0
LINE
  5
61B2
330
19
100
AcDbEntity
  8
0
100
AcDbLine
 10
1299.186236893562
 20
1997.079546772889
 30
0.0
 11
1311.977874829528
 21
2009.871161186499
 31
0.0
  0
LINE
  5
61B3
330
19
100
AcDbEntity
  8
0
100
AcDbLine
 10
1315.237478341536
 20
2012.761144159317
 30
0.0
 11
1327.659448693543
 21
2025.183132806516
 31
0.0
  0
LINE
  5
61B4
330
19
100
AcDbEntity
  8
0
100
AcDbLine
 10
1299.555826069532
 20
1997.079546772889
 30
0.0
 11
1311.977874829528
 21
2009.501553715337
 31
0.0
  0
LINE
  5
61B5
330
19
100
AcDbEntity
  8
0
100
AcDbLine
 10
1315.607067517565
 20
2012.761144159317
 30
0.0
 11
1327.659448693543
 21
2024.813491358494
 31
0.0
  0
LINE
  5
61B6
330
19
100
AcDbEntity
  8
0
100
AcDbLine
 10
1299.925467517554
 20
1997.079546772889
 30
0.0
 11
1311.977874829528
 21
2009.131912267315
 31
0.0
  0
LINE
  5
61B7
330
19
100
AcDbEntity
  8
0
100
AcDbLine
 10
1315.976735101525
 20
2012.761144159317
 30
0.0
 11
1327.659448693543
 21
2024.44384991053
 31
0.0
  0
LINE
  5
61B8
330
19
100
AcDbEntity
  8
0
100
AcDbLine
 10
1300.295135101573
 20
1997.079546772889
 30
0.0
 11
1311.977874829528
 21
2008.762270819293
 31
0.0
  0
LINE
  5
61B9
330
19
100
AcDbEntity
  8
0
100
AcDbLine
 10
1316.346376549547
 20
2012.761144159317
 30
0.0
 11
1327.659448693543
 21
2024.074247666532
 31
0.0
  0
LINE
  5
61BA
330
19
100
AcDbEntity
  8
0
100
AcDbLine
 10
1300.664802685533
 20
1997.079546772889
 30
0.0
 11
1311.977874829528
 21
2008.392647666521
 31
0.0
  0
LINE
  5
61BB
330
19
100
AcDbEntity
  8
0
100
AcDbLine
 10
1316.715965725576
 20
2012.761144159317
 30
0.0
 11
1327.659448693543
 21
2023.704627127342
 31
0.0
  0
LINE
  5
61BC
330
19
100
AcDbEntity
  8
0
100
AcDbLine
 10
1301.034391861562
 20
1997.079546772889
 30
0.0
 11
1311.977874829528
 21
2008.023045422523
 31
0.0
  0
LINE
  5
61BD
330
19
100
AcDbEntity
  8
0
100
AcDbLine
 10
1317.085633309536
 20
2012.761144159317
 30
0.0
 11
1327.659448693543
 21
2023.334993520125
 31
0.0
  0
LINE
  5
61BE
330
19
100
AcDbEntity
  8
0
100
AcDbLine
 10
1301.403981037532
 20
1997.079546772889
 30
0.0
 11
1311.977874829528
 21
2007.653406588142
 31
0.0
  0
LINE
  5
61BF
330
19
100
AcDbEntity
  8
0
100
AcDbLine
 10
1317.455222485565
 20
2012.761144159317
 30
0.0
 11
1327.659448693543
 21
2022.965339004134
 31
0.0
  0
LINE
  5
61C0
330
19
100
AcDbEntity
  8
0
100
AcDbLine
 10
1301.773648621551
 20
1997.079546772889
 30
0.0
 11
1311.977874829528
 21
2007.283757299315
 31
0.0
  0
LINE
  5
61C1
330
19
100
AcDbEntity
  8
0
100
AcDbLine
 10
1317.824890069525
 20
2012.761144159317
 30
0.0
 11
1327.659448693543
 21
2022.595734146495
 31
0.0
  0
LINE
  5
61C2
330
19
100
AcDbEntity
  8
0
100
AcDbLine
 10
1302.143290069573
 20
1997.079546772889
 30
0.0
 11
1311.977874829528
 21
2006.914134146543
 31
0.0
  0
LINE
  5
61C3
330
19
100
AcDbEntity
  8
0
100
AcDbLine
 10
1318.194557653544
 20
2012.761144159317
 30
0.0
 11
1327.659448693543
 21
2022.22608747131
 31
0.0
  0
LINE
  5
61C4
330
19
100
AcDbEntity
  8
0
100
AcDbLine
 10
1302.51290538154
 20
1997.079546772889
 30
0.0
 11
1311.977874829528
 21
2006.544492698521
 31
0.0
  0
LINE
  5
61C5
330
19
100
AcDbEntity
  8
0
100
AcDbLine
 10
1318.564146829573
 20
2012.761144159317
 30
0.0
 11
1327.659448693543
 21
2021.856477386506
 31
0.0
  0
LINE
  5
61C6
330
19
100
AcDbEntity
  8
0
100
AcDbLine
 10
1302.882494557569
 20
1997.079546772889
 30
0.0
 11
1311.977874829528
 21
2006.174893068105
 31
0.0
  0
LINE
  5
61C7
330
19
100
AcDbEntity
  8
0
100
AcDbLine
 10
1318.933736005543
 20
2012.761144159317
 30
0.0
 11
1327.659448693543
 21
2021.486833324903
 31
0.0
  0
LINE
  5
61C8
330
19
100
AcDbEntity
  8
0
100
AcDbLine
 10
1303.252136005532
 20
1997.079546772889
 30
0.0
 11
1311.977874829528
 21
2005.805251620142
 31
0.0
  0
LINE
  5
61C9
330
19
100
AcDbEntity
  8
0
100
AcDbLine
 10
1319.303403589561
 20
2012.761144159317
 30
0.0
 11
1327.659448693543
 21
2021.117186649716
 31
0.0
  0
LINE
  5
61CA
330
19
100
AcDbEntity
  8
0
100
AcDbLine
 10
1303.621803589551
 20
1997.079546772889
 30
0.0
 11
1311.977874829528
 21
2005.435607558538
 31
0.0
  0
LINE
  5
61CB
330
19
100
AcDbEntity
  8
0
100
AcDbLine
 10
1319.673045037525
 20
2012.761144159317
 30
0.0
 11
1327.659448693543
 21
2020.747576564913
 31
0.0
  0
LINE
  5
61CC
330
19
100
AcDbEntity
  8
0
100
AcDbLine
 10
1303.991471173569
 20
1997.079546772889
 30
0.0
 11
1311.977874829528
 21
2005.065981792125
 31
0.0
  0
LINE
  5
61CD
330
19
100
AcDbEntity
  8
0
100
AcDbLine
 10
1320.042634213554
 20
2012.761144159317
 30
0.0
 11
1327.659448693543
 21
2020.377963866528
 31
0.0
  0
LINE
  5
61CE
330
19
100
AcDbEntity
  8
0
100
AcDbLine
 10
1304.36106034954
 20
1997.079546772889
 30
0.0
 11
1311.977874829528
 21
2004.696379548127
 31
0.0
  0
LINE
  5
61CF
330
19
100
AcDbEntity
  8
0
100
AcDbLine
 10
1320.412301797573
 20
2012.761144159317
 30
0.0
 11
1327.659448693543
 21
2020.008319804924
 31
0.0
  0
LINE
  5
61D0
330
19
100
AcDbEntity
  8
0
100
AcDbLine
 10
1304.730649525569
 20
1997.079546772889
 30
0.0
 11
1311.977874829528
 21
2004.326738100105
 31
0.0
  0
LINE
  5
61D1
330
19
100
AcDbEntity
  8
0
100
AcDbLine
 10
1320.781890973543
 20
2012.761144159317
 30
0.0
 11
1327.659448693543
 21
2019.638680970543
 31
0.0
  0
LINE
  5
61D2
330
19
100
AcDbEntity
  8
0
100
AcDbLine
 10
1305.100317109529
 20
1997.079546772889
 30
0.0
 11
1311.977874829528
 21
2003.957094038501
 31
0.0
  0
LINE
  5
61D3
330
19
100
AcDbEntity
  8
0
100
AcDbLine
 10
1321.151558557561
 20
2012.761144159317
 30
0.0
 11
1327.659448693543
 21
2019.2690682721
 31
0.0
  0
LINE
  5
61D4
330
19
100
AcDbEntity
  8
0
100
AcDbLine
 10
1305.469958557551
 20
1997.079546772889
 30
0.0
 11
1311.977874829528
 21
2003.587473499311
 31
0.0
  0
LINE
  5
61D5
330
19
100
AcDbEntity
  8
0
100
AcDbLine
 10
1321.521147733532
 20
2012.761144159317
 30
0.0
 11
1327.659448693543
 21
2018.899416369691
 31
0.0
  0
LINE
  5
61D6
330
19
100
AcDbEntity
  8
0
100
AcDbLine
 10
1305.839573869576
 20
1997.079546772889
 30
0.0
 11
1311.977874829528
 21
2003.217826824125
 31
0.0
  0
LINE
  5
61D7
330
19
100
AcDbEntity
  8
0
100
AcDbLine
 10
1321.890815317551
 20
2012.761144159317
 30
0.0
 11
1327.659448693543
 21
2018.529803671306
 31
0.0
  0
LINE
  5
61D8
330
19
100
AcDbEntity
  8
0
100
AcDbLine
 10
1306.209163045547
 20
1997.079546772889
 30
0.0
 11
1311.977874829528
 21
2002.848224580127
 31
0.0
  0
LINE
  5
61D9
330
19
100
AcDbEntity
  8
0
100
AcDbLine
 10
1322.260404493521
 20
2012.761144159317
 30
0.0
 11
1327.659448693543
 21
2018.160164836924
 31
0.0
  0
LINE
  5
61DA
330
19
100
AcDbEntity
  8
0
100
AcDbLine
 10
1306.578804493569
 20
1997.079546772889
 30
0.0
 11
1311.977874829528
 21
2002.478580518523
 31
0.0
  0
LINE
  5
61DB
330
19
100
AcDbEntity
  8
0
100
AcDbLine
 10
1322.63007207754
 20
2012.761144159317
 30
0.0
 11
1327.659448693543
 21
2017.790557365704
 31
0.0
  0
LINE
  5
61DC
330
19
100
AcDbEntity
  8
0
100
AcDbLine
 10
1306.948472077529
 20
1997.079546772889
 30
0.0
 11
1311.977874829528
 21
2002.108959979333
 31
0.0
  0
LINE
  5
61DD
330
19
100
AcDbEntity
  8
0
100
AcDbLine
 10
1322.999661253569
 20
2012.761144159317
 30
0.0
 11
1327.659448693543
 21
2017.42091591774
 31
0.0
  0
LINE
  5
61DE
330
19
100
AcDbEntity
  8
0
100
AcDbLine
 10
1307.318061253558
 20
1997.079546772889
 30
0.0
 11
1311.977874829528
 21
2001.739315917729
 31
0.0
  0
LINE
  5
61DF
330
19
100
AcDbEntity
  8
0
100
AcDbLine
 10
1323.369302701532
 20
2012.761144159317
 30
0.0
 11
1327.659448693543
 21
2017.051300605714
 31
0.0
  0
LINE
  5
61E0
330
19
100
AcDbEntity
  8
0
100
AcDbLine
 10
1307.687676565525
 20
1997.079546772889
 30
0.0
 11
1311.977874829528
 21
2001.369718900896
 31
0.0
  0
LINE
  5
61E1
330
19
100
AcDbEntity
  8
0
100
AcDbLine
 10
1323.738970285551
 20
2012.761144159317
 30
0.0
 11
1327.659448693543
 21
2016.681651316946
 31
0.0
  0
LINE
  5
61E2
330
19
100
AcDbEntity
  8
0
100
AcDbLine
 10
1308.057318013547
 20
1997.079546772889
 30
0.0
 11
1311.977874829528
 21
2001.000066998545
 31
0.0
  0
LINE
  5
61E3
330
19
100
AcDbEntity
  8
0
100
AcDbLine
 10
1324.108559461521
 20
2012.761144159317
 30
0.0
 11
1327.659448693543
 21
2016.312007255342
 31
0.0
  0
LINE
  5
61E4
330
19
100
AcDbEntity
  8
0
100
AcDbLine
 10
1308.426985597565
 20
1997.079546772889
 30
0.0
 11
1311.977874829528
 21
2000.630425550523
 31
0.0
  0
LINE
  5
61E5
330
19
100
AcDbEntity
  8
0
100
AcDbLine
 10
1324.47822704554
 20
2012.761144159317
 30
0.0
 11
1327.659448693543
 21
2015.942397170539
 31
0.0
  0
LINE
  5
61E6
330
19
100
AcDbEntity
  8
0
100
AcDbLine
 10
1308.796627045529
 20
1997.079546772889
 30
0.0
 11
1311.977874829528
 21
2000.260802397693
 31
0.0
  0
LINE
  5
61E7
330
19
100
AcDbEntity
  8
0
100
AcDbLine
 10
1324.847816221569
 20
2012.761144159317
 30
0.0
 11
1327.659448693543
 21
2015.572787085736
 31
0.0
  0
LINE
  5
61E8
330
19
100
AcDbEntity
  8
0
100
AcDbLine
 10
1309.166242357554
 20
1997.079546772889
 30
0.0
 11
1311.977874829528
 21
1999.891205380917
 31
0.0
  0
LINE
  5
61E9
330
19
100
AcDbEntity
  8
0
100
AcDbLine
 10
1325.217483805529
 20
2012.761144159317
 30
0.0
 11
1327.659448693543
 21
2015.203145637714
 31
0.0
  0
LINE
  5
61EA
330
19
100
AcDbEntity
  8
0
100
AcDbLine
 10
1309.535831533525
 20
1997.079546772889
 30
0.0
 11
1311.977874829528
 21
1999.521561319313
 31
0.0
  0
LINE
  5
61EB
330
19
100
AcDbEntity
  8
0
100
AcDbLine
 10
1325.587072981558
 20
2012.761144159317
 30
0.0
 11
1327.659448693543
 21
2014.833501576111
 31
0.0
  0
LINE
  5
61EC
330
19
100
AcDbEntity
  8
0
100
AcDbLine
 10
1309.905499117543
 20
1997.079546772889
 30
0.0
 11
1311.977874829528
 21
1999.151919871291
 31
0.0
  0
LINE
  5
61ED
330
19
100
AcDbEntity
  8
0
100
AcDbLine
 10
1325.956740565576
 20
2012.761144159317
 30
0.0
 11
1327.659448693543
 21
2014.46388103692
 31
0.0
  0
LINE
  5
61EE
330
19
100
AcDbEntity
  8
0
100
AcDbLine
 10
1310.275140565565
 20
1997.079546772889
 30
0.0
 11
1311.977874829528
 21
1998.782288877714
 31
0.0
  0
LINE
  5
61EF
330
19
100
AcDbEntity
  8
0
100
AcDbLine
 10
1326.326329741547
 20
2012.761144159317
 30
0.0
 11
1327.659448693543
 21
2014.094242202539
 31
0.0
  0
LINE
  5
61F0
330
19
100
AcDbEntity
  8
0
100
AcDbLine
 10
1310.644729741536
 20
1997.079546772889
 30
0.0
 11
1311.977874829528
 21
1998.412647429693
 31
0.0
  0
LINE
  5
61F1
330
19
100
AcDbEntity
  8
0
100
AcDbLine
 10
1326.695997325565
 20
2012.761144159317
 30
0.0
 11
1327.659448693543
 21
2013.724632117737
 31
0.0
  0
LINE
  5
61F2
330
19
100
AcDbEntity
  8
0
100
AcDbLine
 10
1311.014345053562
 20
1997.079546772889
 30
0.0
 11
1311.977874829528
 21
1998.043047799335
 31
0.0
  0
LINE
  5
61F3
330
19
100
AcDbEntity
  8
0
100
AcDbLine
 10
1327.065586501536
 20
2012.761144159317
 30
0.0
 11
1327.659448693543
 21
2013.354988056132
 31
0.0
  0
LINE
  5
61F4
330
19
100
AcDbEntity
  8
0
100
AcDbLine
 10
1311.383986501525
 20
1997.079546772889
 30
0.0
 11
1311.977874829528
 21
1997.673406351313
 31
0.0
  0
LINE
  5
61F5
330
19
100
AcDbEntity
  8
0
100
AcDbLine
 10
1327.435227949558
 20
2012.761144159317
 30
0.0
 11
1327.659448693543
 21
2012.985346608111
 31
0.0
  0
LINE
  5
61F6
330
19
100
AcDbEntity
  8
0
100
AcDbLine
 10
1311.753654085543
 20
1997.079546772889
 30
0.0
 11
1311.977874829528
 21
1997.303762289709
 31
0.0
  0
LINE
  5
61F7
330
19
100
AcDbEntity
  8
0
100
AcDbLine
 10
1376.376820889163
 20
2027.166683194532
 30
0.0
 11
1376.755462889188
 21
2027.545295494564
 31
0.0
  0
LINE
  5
61F8
330
19
100
AcDbEntity
  8
0
100
AcDbLine
 10
1376.376820889163
 20
2026.69995759458
 30
0.0
 11
1377.222214889167
 21
2027.545295494564
 31
0.0
  0
LINE
  5
61F9
330
19
100
AcDbEntity
  8
0
100
AcDbLine
 10
1376.376820889163
 20
2026.23327159458
 30
0.0
 11
1377.688867889148
 21
2027.545295494564
 31
0.0
  0
LINE
  5
61FA
330
19
100
AcDbEntity
  8
0
100
AcDbLine
 10
1376.376820889163
 20
2025.766552594562
 30
0.0
 11
1378.155619889185
 21
2027.545295494564
 31
0.0
  0
LINE
  5
61FB
330
19
100
AcDbEntity
  8
0
100
AcDbLine
 10
1376.376820889163
 20
2025.299830294577
 30
0.0
 11
1378.622272889166
 21
2027.545295494564
 31
0.0
  0
LINE
  5
61FC
330
19
100
AcDbEntity
  8
0
100
AcDbLine
 10
1376.376820889163
 20
2024.833150894569
 30
0.0
 11
1379.088991889184
 21
2027.545295494564
 31
0.0
  0
LINE
  5
61FD
330
19
100
AcDbEntity
  8
0
100
AcDbLine
 10
1376.376820889163
 20
2024.366431894551
 30
0.0
 11
1379.555677889184
 21
2027.545295494564
 31
0.0
  0
LINE
  5
61FE
330
19
100
AcDbEntity
  8
0
100
AcDbLine
 10
1376.722396889156
 20
2024.245295494576
 30
0.0
 11
1379.67685388917
 21
2027.199759094582
 31
0.0
  0
LINE
  5
61FF
330
19
100
AcDbEntity
  8
0
100
AcDbLine
 10
1377.189148889134
 20
2024.245295494576
 30
0.0
 11
1379.67685388917
 21
2026.733036794539
 31
0.0
  0
LINE
  5
6200
330
19
100
AcDbEntity
  8
0
100
AcDbLine
 10
1377.655801889174
 20
2024.245295494576
 30
0.0
 11
1379.67685388917
 21
2026.266354094564
 31
0.0
  0
LINE
  5
6201
330
19
100
AcDbEntity
  8
0
100
AcDbLine
 10
1378.122553889152
 20
2024.245295494576
 30
0.0
 11
1379.67685388917
 21
2025.799631794579
 31
0.0
  0
LINE
  5
6202
330
19
100
AcDbEntity
  8
0
100
AcDbLine
 10
1378.589206889133
 20
2024.245295494576
 30
0.0
 11
1379.67685388917
 21
2025.332952394571
 31
0.0
  0
LINE
  5
6203
330
19
100
AcDbEntity
  8
0
100
AcDbLine
 10
1379.055925889152
 20
2024.245295494576
 30
0.0
 11
1379.67685388917
 21
2024.866233394553
 31
0.0
  0
LINE
  5
6204
330
19
100
AcDbEntity
  8
0
100
AcDbLine
 10
1379.522611889151
 20
2024.245295494576
 30
0.0
 11
1379.67685388917
 21
2024.399544094528
 31
0.0
  0
LINE
  5
6205
330
19
100
AcDbEntity
  8
0
100
AcDbLine
 10
1311.977874829528
 20
1997.079546772889
 30
0.0
 11
1311.977874829528
 21
2044.124352000144
 31
0.0
  0
LINE
  5
6206
330
19
100
AcDbEntity
  8
0
100
AcDbLine
 10
1332.886674829562
 20
2044.124352000144
 30
0.0
 11
1332.886674829562
 21
2059.805954613736
 31
0.0
  0
LINE
  5
6207
330
19
100
AcDbEntity
  8
0
100
AcDbLine
 10
1311.977874829528
 20
2044.124352000144
 30
0.0
 11
1332.886674829562
 21
2044.124352000144
 31
0.0
  0
LINE
  5
6208
330
19
100
AcDbEntity
  8
0
100
AcDbLine
 10
1327.659448693543
 20
2028.44274677291
 30
0.0
 11
1296.296274829576
 21
2028.44274677291
 31
0.0
  0
LINE
  5
6209
330
19
100
AcDbEntity
  8
0
100
AcDbLine
 10
1476.208420889139
 20
2011.951026694572
 30
0.0
 11
1493.307964889136
 21
2011.951026694572
 31
0.0
  0
LINE
  5
620A
330
19
100
AcDbEntity
  8
0
100
AcDbLine
 10
1476.208420889139
 20
2025.895295494541
 30
0.0
 11
1493.307964889136
 21
2025.895295494541
 31
0.0
  0
LINE
  5
620B
330
19
100
AcDbEntity
  8
0
100
AcDbLine
 10
1476.208420889139
 20
2039.920295494564
 30
0.0
 11
1476.208420889139
 21
2011.951026694572
 31
0.0
  0
LINE
  5
620C
330
19
100
AcDbEntity
  8
0
100
AcDbLine
 10
1476.208420889139
 20
2039.920295494564
 30
0.0
 11
1493.307964889136
 21
2039.920295494564
 31
0.0
  0
LINE
  5
620D
330
19
100
AcDbEntity
  8
0
100
AcDbLine
 10
1447.038400889178
 20
2039.920295494564
 30
0.0
 11
1447.038400889178
 21
2011.870295494576
 31
0.0
  0
LINE
  5
620E
330
19
100
AcDbEntity
  8
0
100
AcDbLine
 10
1430.905063889142
 20
2011.870295494576
 30
0.0
 11
1443.659101889156
 21
2039.920295494564
 31
0.0
  0
LINE
  5
620F
330
19
100
AcDbEntity
  8
0
100
AcDbLine
 10
1418.15095988915
 20
2039.920295494564
 30
0.0
 11
1430.905063889142
 21
2011.870295494576
 31
0.0
  0
LINE
  5
6210
330
19
100
AcDbEntity
  8
0
100
AcDbLine
 10
1404.933502889158
 20
2025.895295494541
 30
0.0
 11
1416.500959889185
 21
2011.870295494576
 31
0.0
  0
LINE
  5
6211
330
19
100
AcDbEntity
  8
0
100
AcDbLine
 10
1393.366177889147
 20
2039.920295494564
 30
0.0
 11
1393.366177889147
 21
2011.870295494576
 31
0.0
  0
LINE
  5
6212
330
19
100
AcDbEntity
  8
0
100
AcDbLine
 10
1393.366177889147
 20
2025.895295494541
 30
0.0
 11
1409.488492889133
 21
2025.895295494541
 31
0.0
  0
LINE
  5
6213
330
19
100
AcDbEntity
  8
0
100
AcDbLine
 10
1393.366177889147
 20
2039.920295494564
 30
0.0
 11
1409.488492889133
 21
2039.920295494564
 31
0.0
  0
LINE
  5
6214
330
19
100
AcDbEntity
  8
0
100
AcDbLine
 10
1379.67685388917
 20
2024.245295494576
 30
0.0
 11
1376.376820889163
 21
2024.245295494576
 31
0.0
  0
LINE
  5
6215
330
19
100
AcDbEntity
  8
0
100
AcDbLine
 10
1379.67685388917
 20
2027.545295494564
 30
0.0
 11
1379.67685388917
 21
2024.245295494576
 31
0.0
  0
LINE
  5
6216
330
19
100
AcDbEntity
  8
0
100
AcDbLine
 10
1376.376820889163
 20
2027.545295494564
 30
0.0
 11
1379.67685388917
 21
2027.545295494564
 31
0.0
  0
LINE
  5
6217
330
19
100
AcDbEntity
  8
0
100
AcDbLine
 10
1376.376820889163
 20
2024.245295494576
 30
0.0
 11
1376.376820889163
 21
2027.545295494564
 31
0.0
  0
LINE
  5
6218
330
19
100
AcDbEntity
  8
0
100
AcDbLine
 10
1343.578582889146
 20
2025.895295494541
 30
0.0
 11
1362.687430889149
 21
2025.895295494541
 31
0.0
  0
LINE
  5
6219
330
19
100
AcDbEntity
  8
0
100
AcDbLine
 10
1343.578582889146
 20
2025.895295494541
 30
0.0
 11
1362.687430889149
 21
2025.895295494541
 31
0.0
  0
LINE
  5
621A
330
19
100
AcDbEntity
  8
0
100
AcDbLine
 10
1343.578582889146
 20
2039.920295494564
 30
0.0
 11
1343.578582889146
 21
2011.870295494576
 31
0.0
  0
LINE
  5
621B
330
19
100
AcDbEntity
  8
0
100
AcDbLine
 10
1343.578582889146
 20
2039.920295494564
 30
0.0
 11
1362.687430889149
 21
2039.920295494564
 31
0.0
  0
LINE
  5
621C
330
19
100
AcDbEntity
  8
0
100
AcDbLine
 10
1296.296274829576
 20
2038.897149386539
 30
0.0
 11
1296.296274829576
 21
2028.44274677291
 31
0.0
  0
LINE
  5
621D
330
19
100
AcDbEntity
  8
0
100
AcDbLine
 10
1332.886674829562
 20
2059.805954613736
 30
0.0
 11
1317.205074829551
 21
2059.805954613736
 31
0.0
  0
LINE
  5
621E
330
19
100
AcDbEntity
  8
0
100
AcDbLine
 10
1327.659448693543
 20
2012.761144159317
 30
0.0
 11
1327.659448693543
 21
2028.44274677291
 31
0.0
  0
LINE
  5
621F
330
19
100
AcDbEntity
  8
0
100
AcDbLine
 10
1296.296274829576
 20
2012.761144159317
 30
0.0
 11
1327.659448693543
 21
2012.761144159317
 31
0.0
  0
LINE
  5
6220
330
19
100
AcDbEntity
  8
0
100
AcDbLine
 10
1296.296274829576
 20
1997.079546772889
 30
0.0
 11
1296.296274829576
 21
2012.761144159317
 31
0.0
  0
LINE
  5
6221
330
19
100
AcDbEntity
  8
0
100
AcDbLine
 10
1296.296274829576
 20
1997.079546772889
 30
0.0
 11
1311.977874829528
 21
1997.079546772889
 31
0.0
  0
LINE
  5
6222
330
19
100
AcDbEntity
  8
0
100
AcDbLine
 10
1674.233601042804
 20
2008.727758062377
 30
0.0
 11
1674.233601042804
 21
1992.727754762352
 31
0.0
  0
LINE
  5
6223
330
19
100
AcDbEntity
  8
0
100
AcDbLine
 10
1450.733667042783
 20
2064.727754762352
 30
0.0
 11
1450.733667042783
 21
2104.727754762352
 31
0.0
  0
LINE
  5
6224
330
19
100
AcDbEntity
  8
0
100
AcDbLine
 10
1434.233700042801
 20
2064.727754762352
 30
0.0
 11
1434.233700042801
 21
2104.727754762352
 31
0.0
  0
LINE
  5
6225
330
19
100
AcDbEntity
  8
0
100
AcDbLine
 10
1379.633667042806
 20
2064.727754762352
 30
0.0
 11
1379.633667042806
 21
2084.727754762352
 31
0.0
  0
LINE
  5
6226
330
19
100
AcDbEntity
  8
0
100
AcDbLine
 10
1506.233601042804
 20
2008.727758062377
 30
0.0
 11
1774.233601042804
 21
2008.727758062377
 31
0.0
  0
LINE
  5
6227
330
19
100
AcDbEntity
  8
0
100
AcDbLine
 10
1506.233601042804
 20
2104.727754762352
 30
0.0
 11
1506.233601042804
 21
1992.727764662369
 31
0.0
  0
LINE
  5
6228
330
19
100
AcDbEntity
  8
0
100
AcDbLine
 10
1282.233601042804
 20
2104.727754762352
 30
0.0
 11
1774.233601042804
 21
2104.727754762352
 31
0.0
  0
LINE
  5
6229
330
19
100
AcDbEntity
  8
0
100
AcDbLine
 10
1774.233601042804
 20
1992.727754762352
 30
0.0
 11
1774.233601042804
 21
3100.727678762355
 31
0.0
  0
LINE
  5
622A
330
19
100
AcDbEntity
  8
0
100
AcDbLine
 10
234.2335970428321
 20
3100.727678762355
 30
0.0
 11
234.2335970428321
 21
1992.727754762352
 31
0.0
  0
LINE
  5
6701
330
19
100
AcDbEntity
  8
0
  6
PHANTOM
 62
     5
 48
0.25
100
AcDbLine
 10
1261.33882558132
 20
2431.444985767779
 30
0.0
 11
1261.33882558132
 21
2413.444985767779
 31
0.0
  0
LINE
  5
6702
330
19
100
AcDbEntity
  8
0
  6
PHANTOM
 62
     5
 48
0.25
100
AcDbLine
 10
573.3388255813206
 20
2431.444985767779
 30
0.0
 11
573.3388255813206
 21
2413.444985767779
 31
0.0
  0
LINE
  5
6703
330
19
100
AcDbEntity
  8
0
  6
PHANTOM
 62
     5
 48
0.25
100
AcDbLine
 10
1261.33882558132
 20
2804.444985767779
 30
0.0
 11
1261.33882558132
 21
2786.444985767779
 31
0.0
  0
LINE
  5
6704
330
19
100
AcDbEntity
  8
0
  6
PHANTOM
 62
     5
 48
0.25
100
AcDbLine
 10
573.3388255813206
 20
2804.444985767778
 30
0.0
 11
573.3388255813206
 21
2786.444985767779
 31
0.0
  0
LINE
  5
6705
330
19
100
AcDbEntity
  8
0
 48
5.0
100
AcDbLine
 10
1532.734312745956
 20
2805.444985767779
 30
0.0
 11
1532.734312745956
 21
2786.444985767779
 31
0.0
  0
LINE
  5
6706
330
19
100
AcDbEntity
  8
0
 48
5.0
100
AcDbLine
 10
1532.734312745956
 20
2805.444985767779
 30
0.0
 11
1484.734312745956
 21
2805.444985767779
 31
0.0
  0
CIRCLE
  5
6708
330
19
100
AcDbEntity
  8
0
  6
PHANTOM
 62
     5
 48
0.25
100
AcDbCircle
 10
1192.33882558132
 20
2796.444985767779
 30
0.0
 40
1.649999999999999
  0
LINE
  5
6709
330
19
100
AcDbEntity
  8
0
 48
5.0
100
AcDbLine
 10
1532.734312745956
 20
2431.444985767779
 30
0.0
 11
1532.734312745956
 21
2412.444985767779
 31
0.0
  0
LINE
  5
670A
330
19
100
AcDbEntity
  8
0
 48
5.0
100
AcDbLine
 10
1532.734312745956
 20
2412.444985767779
 30
0.0
 11
1484.734312745956
 21
2412.444985767779
 31
0.0
  0
CIRCLE
  5
670B
330
19
100
AcDbEntity
  8
0
  6
PHANTOM
 62
     5
 48
0.25
100
AcDbCircle
 10
1192.33882558132
 20
2421.444985767779
 30
0.0
 40
1.649999999999999
  0
LINE
  5
670C
330
19
100
AcDbEntity
  8
0
  6
PHANTOM
 62
     5
 48
0.25
100
AcDbLine
 10
1252.33882558132
 20
2786.444985767779
 30
0.0
 11
1252.33882558132
 21
2431.444985767779
 31
0.0
  0
LINE
  5
670D
330
19
100
AcDbEntity
  8
0
 48
5.0
100
AcDbLine
 10
1266.338825581321
 20
2804.444985767779
 30
0.0
 11
1266.338825581321
 21
2413.444985767779
 31
0.0
  0
LINE
  5
670E
330
19
100
AcDbEntity
  8
0
 48
5.0
100
AcDbLine
 10
1519.734312745956
 20
2804.444985767779
 30
0.0
 11
1519.734312745956
 21
2413.444985767779
 31
0.0
  0
LINE
  5
670F
330
19
100
AcDbEntity
  8
0
 48
5.0
100
AcDbLine
 10
1484.734312745956
 20
2805.444985767779
 30
0.0
 11
1484.734312745956
 21
2412.444985767779
 31
0.0
  0
CIRCLE
  5
6710
330
19
100
AcDbEntity
  8
0
  6
PHANTOM
 62
     5
 48
0.25
100
AcDbCircle
 10
642.3388255813206
 20
2796.444985767779
 30
0.0
 40
1.649999999999999
  0
CIRCLE
  5
6713
330
19
100
AcDbEntity
  8
0
  6
PHANTOM
 62
     5
 48
0.25
100
AcDbCircle
 10
642.3388255813206
 20
2421.444985767779
 30
0.0
 40
1.649999999999999
  0
LINE
  5
6714
330
19
100
AcDbEntity
  8
0
  6
PHANTOM
 62
     5
 48
0.25
100
AcDbLine
 10
582.3388255813206
 20
2786.444985767779
 30
0.0
 11
582.3388255813206
 21
2431.444985767779
 31
0.0
  0
LINE
  5
6715
330
19
100
AcDbEntity
  8
0
 48
5.0
100
AcDbLine
 10
568.3388255813206
 20
2804.444985767779
 30
0.0
 11
568.3388255813206
 21
2413.444985767779
 31
0.0
  0
LINE
  5
6717
330
19
100
AcDbEntity
  8
0
  6
PHANTOM
 62
     5
 48
0.25
100
AcDbLine
 10
573.3388255813206
 20
2431.444985767779
 30
0.0
 11
1261.33882558132
 21
2431.444985767779
 31
0.0
  0
LINE
  5
6718
330
19
100
AcDbEntity
  8
0
  6
PHANTOM
 62
     5
 48
0.25
100
AcDbLine
 10
573.3388255813206
 20
2786.444985767779
 30
0.0
 11
1261.33882558132
 21
2786.444985767779
 31
0.0
  0
LINE
  5
6719
330
19
100
AcDbEntity
  8
0
 48
5.0
100
AcDbLine
 10
573.3388255813206
 20
2412.444985767779
 30
0.0
 11
1261.33882558132
 21
2412.444985767779
 31
0.0
  0
LINE
  5
671A
330
19
100
AcDbEntity
  8
0
 48
5.0
100
AcDbLine
 10
573.3388255813206
 20
2805.444985767778
 30
0.0
 11
1261.33882558132
 21
2805.444985767779
 31
0.0
  0
LINE
  5
67F9
330
19
100
AcDbEntity
  8
0
100
AcDbLine
 10
568.3388255813206
 20
2413.444985767779
 30
0.0
 11
573.3388255813206
 21
2413.444985767779
 31
0.0
  0
LINE
  5
67FA
330
19
100
AcDbEntity
  8
0
100
AcDbLine
 10
573.3388255813206
 20
2413.444985767779
 30
0.0
 11
573.3388255813206
 21
2412.444985767778
 31
0.0
  0
LINE
  5
67FB
330
19
100
AcDbEntity
  8
0
 48
5.0
100
AcDbLine
 10
1261.33882558132
 20
2413.444985767779
 30
0.0
 11
1266.338825581321
 21
2413.444985767779
 31
0.0
  0
LINE
  5
67FC
330
19
100
AcDbEntity
  8
0
100
AcDbLine
 10
1261.33882558132
 20
2412.444985767779
 30
0.0
 11
1261.33882558132
 21
2413.444985767779
 31
0.0
  0
LINE
  5
67FD
330
19
100
AcDbEntity
  8
0
 48
5.0
100
AcDbLine
 10
1261.33882558132
 20
2804.444985767779
 30
0.0
 11
1266.338825581321
 21
2804.444985767779
 31
0.0
  0
LINE
  5
67FE
330
19
100
AcDbEntity
  8
0
100
AcDbLine
 10
1261.33882558132
 20
2805.444985767779
 30
0.0
 11
1261.33882558132
 21
2804.444985767779
 31
0.0
  0
LINE
  5
67FF
330
19
100
AcDbEntity
  8
0
 48
5.0
100
AcDbLine
 10
568.3388255813206
 20
2804.444985767779
 30
0.0
 11
573.3388255813206
 21
2804.444985767779
 31
0.0
  0
LINE
  5
6800
330
19
100
AcDbEntity
  8
0
100
AcDbLine
 10
573.3388255813206
 20
2804.444985767779
 30
0.0
 11
573.3388255813206
 21
2805.444985767778
 31
0.0
  0
LINE
  5
6801
330
19
100
AcDbEntity
  8
0
 48
5.0
100
AcDbLine
 10
1531.734312745956
 20
2431.444985767779
 30
0.0
 11
1531.734312745956
 21
2413.444985767779
 31
0.0
  0
LINE
  5
6802
330
19
100
AcDbEntity
  8
0
 48
5.0
100
AcDbLine
 10
1531.734312745956
 20
2413.444985767779
 30
0.0
 11
1484.734312745956
 21
2413.44498576778
 31
0.0
  0
LINE
  5
6803
330
19
100
AcDbEntity
  8
0
 48
5.0
100
AcDbLine
 10
1531.734312745956
 20
2804.444985767779
 30
0.0
 11
1531.734312745956
 21
2786.444985767779
 31
0.0
  0
LINE
  5
6804
330
19
100
AcDbEntity
  8
0
 48
5.0
100
AcDbLine
 10
1531.734312745956
 20
2804.444985767779
 30
0.0
 11
1484.734312745956
 21
2804.444985767779
 31
0.0
  0
LINE
  5
6805
330
19
100
AcDbEntity
  8
0
100
AcDbLine
 10
1531.734312745956
 20
2431.444985767779
 30
0.0
 11
1532.734312745956
 21
2431.444985767779
 31
0.0
  0
LINE
  5
6806
330
19
100
AcDbEntity
  8
0
100
AcDbLine
 10
1531.734312745956
 20
2786.444985767779
 30
0.0
 11
1532.734312745956
 21
2786.444985767779
 31
0.0
  0
LINE
  5
6808
330
19
100
AcDbEntity
  8
0
100
AcDbLine
 10
568.3388255813206
 20
2281.471915104606
 30
0.0
 11
568.3388255813206
 21
2246.471915104606
 31
0.0
  0
LINE
  5
680A
330
19
100
AcDbEntity
  8
0
100
AcDbLine
 10
1261.338825581321
 20
2281.471915104606
 30
0.0
 11
1261.33882558132
 21
2233.471915104606
 31
0.0
  0
LINE
  5
680B
330
19
100
AcDbEntity
  8
0
100
AcDbLine
 10
568.3388255813206
 20
2281.471915104606
 30
0.0
 11
1266.338825581321
 21
2281.471915104606
 31
0.0
  0
LINE
  5
680C
330
19
100
AcDbEntity
  8
0
100
AcDbLine
 10
569.3388255813206
 20
2280.471915104606
 30
0.0
 11
569.3388255813206
 21
2247.471915104606
 31
0.0
  0
LINE
  5
680F
330
19
100
AcDbEntity
  8
0
100
AcDbLine
 10
573.3388255813206
 20
2281.471915104606
 30
0.0
 11
573.3388255813206
 21
2233.471915104606
 31
0.0
  0
LINE
  5
6810
330
19
100
AcDbEntity
  8
0
100
AcDbLine
 10
568.3388255813206
 20
2246.471915104606
 30
0.0
 11
573.3388255813206
 21
2246.471915104606
 31
0.0
  0
LINE
  5
6811
330
19
100
AcDbEntity
  8
0
100
AcDbLine
 10
569.3388255813206
 20
2247.471915104606
 30
0.0
 11
573.3388255813206
 21
2247.471915104606
 31
0.0
  0
LINE
  5
6817
330
19
100
AcDbEntity
  8
0
100
AcDbLine
 10
573.3388255813206
 20
2233.471915104606
 30
0.0
 11
1261.338825581321
 21
2233.471915104606
 31
0.0
  0
LINE
  5
6818
330
19
100
AcDbEntity
  8
0
100
AcDbLine
 10
569.3388255813206
 20
2280.471915104606
 30
0.0
 11
573.3388255813204
 21
2280.471915104606
 31
0.0
  0
LINE
  5
681A
330
19
100
AcDbEntity
  8
0
100
AcDbLine
 10
1265.33882558132
 20
2280.471915104606
 30
0.0
 11
1261.338825581321
 21
2280.471915104606
 31
0.0
  0
LINE
  5
681B
330
19
100
AcDbEntity
  8
0
100
AcDbLine
 10
1265.33882558132
 20
2247.471915104606
 30
0.0
 11
1261.338825581321
 21
2247.471915104606
 31
0.0
  0
LINE
  5
681C
330
19
100
AcDbEntity
  8
0
100
AcDbLine
 10
1266.338825581321
 20
2246.471915104606
 30
0.0
 11
1261.338825581321
 21
2246.471915104606
 31
0.0
  0
LINE
  5
681D
330
19
100
AcDbEntity
  8
0
100
AcDbLine
 10
1265.33882558132
 20
2280.471915104606
 30
0.0
 11
1265.33882558132
 21
2247.471915104606
 31
0.0
  0
LINE
  5
681E
330
19
100
AcDbEntity
  8
0
100
AcDbLine
 10
1266.338825581321
 20
2281.471915104606
 30
0.0
 11
1266.338825581321
 21
2246.471915104606
 31
0.0
  0
LINE
  5
68E6
330
19
100
AcDbEntity
  8
0
100
AcDbLine
 10
568.3388255813206
 20
2234.471915104606
 30
0.0
 11
568.3388255813206
 21
2151.378782998373
 31
0.0
  0
LINE
  5
68E7
330
19
100
AcDbEntity
  8
0
100
AcDbLine
 10
1266.338825581321
 20
2234.471915104606
 30
0.0
 11
1266.338825581321
 21
2151.378782998373
 31
0.0
  0
LINE
  5
68E8
330
19
100
AcDbEntity
  8
0
100
AcDbLine
 10
578.3388255813206
 20
2159.378782998372
 30
0.0
 11
1256.338825581321
 21
2159.378782998372
 31
0.0
  0
LINE
  5
68EC
330
19
100
AcDbEntity
  8
0
100
AcDbLine
 10
556.3388255813206
 20
2281.471915104606
 30
0.0
 11
472.9044157498701
 21
2281.471915104606
 31
0.0
  0
LINE
  5
68ED
330
19
100
AcDbEntity
  8
0
100
AcDbLine
 10
561.3388255813206
 20
2233.471915104606
 30
0.0
 11
472.9044157498701
 21
2233.471915104606
 31
0.0
  0
LINE
  5
68EE
330
19
100
AcDbEntity
  8
0
100
AcDbLine
 10
480.9044157498701
 20
2271.471915104606
 30
0.0
 11
480.9044157498701
 21
2243.471915104606
 31
0.0
  0
LINE
  5
68F2
330
19
100
AcDbEntity
  8
0
100
AcDbLine
 10
568.3388255813206
 20
2816.444985767779
 30
0.0
 11
568.3388255813206
 21
2910.937814667434
 31
0.0
  0
LINE
  5
68F3
330
19
100
AcDbEntity
  8
0
100
AcDbLine
 10
1266.338825581321
 20
2816.44498576778
 30
0.0
 11
1266.338825581321
 21
2910.937814667434
 31
0.0
  0
LINE
  5
68F4
330
19
100
AcDbEntity
  8
0
100
AcDbLine
 10
578.3388255813206
 20
2902.937814667434
 30
0.0
 11
1256.338825581321
 21
2902.937814667434
 31
0.0
  0
LINE
  5
68F8
330
19
100
AcDbEntity
  8
0
100
AcDbLine
 10
561.3388255813206
 20
2805.444985767779
 30
0.0
 11
472.9044157498702
 21
2805.444985767779
 31
0.0
  0
LINE
  5
68F9
330
19
100
AcDbEntity
  8
0
100
AcDbLine
 10
561.3388255813206
 20
2412.444985767778
 30
0.0
 11
472.9044157498701
 21
2412.444985767778
 31
0.0
  0
LINE
  5
68FA
330
19
100
AcDbEntity
  8
0
100
AcDbLine
 10
480.9044157498702
 20
2795.444985767779
 30
0.0
 11
480.9044157498701
 21
2422.444985767779
 31
0.0
  0
LINE
  5
68FE
330
19
100
AcDbEntity
  8
0
100
AcDbLine
 10
1544.734312745956
 20
2786.44498576778
 30
0.0
 11
1608.957843356717
 21
2786.44498576778
 31
0.0
  0
LINE
  5
68FF
330
19
100
AcDbEntity
  8
0
100
AcDbLine
 10
1544.734312745956
 20
2805.444985767779
 30
0.0
 11
1608.957843356717
 21
2805.444985767779
 31
0.0
  0
LINE
  5
6900
330
19
100
AcDbEntity
  8
0
100
AcDbLine
 10
1600.957843356718
 20
2776.44498576778
 30
0.0
 11
1600.957843356718
 21
2766.44498576778
 31
0.0
  0
LINE
  5
6901
330
19
100
AcDbEntity
  8
0
100
AcDbLine
 10
1600.957843356718
 20
2815.44498576778
 30
0.0
 11
1600.957843356718
 21
2844.964985767779
 31
0.0
  0
LINE
  5
6902
330
19
100
AcDbEntity
  8
0
100
AcDbLine
 10
1600.957843356718
 20
2786.44498576778
 30
0.0
 11
1600.957843356718
 21
2805.444985767779
 31
0.0
  0
LINE
  5
6906
330
19
100
AcDbEntity
  8
0
100
AcDbLine
 10
1472.734312745956
 20
2805.444985767779
 30
0.0
 11
1416.668822744136
 21
2805.444985767779
 31
0.0
  0
LINE
  5
6907
330
19
100
AcDbEntity
  8
0
100
AcDbLine
 10
1472.734312745956
 20
2412.444985767779
 30
0.0
 11
1416.668822744136
 21
2412.444985767779
 31
0.0
  0
LINE
  5
6908
330
19
100
AcDbEntity
  8
0
100
AcDbLine
 10
1424.668822744136
 20
2795.444985767779
 30
0.0
 11
1424.668822744136
 21
2422.444985767779
 31
0.0
  0
LINE
  5
690C
330
19
100
AcDbEntity
  8
0
100
AcDbLine
 10
1532.734312745956
 20
2817.444985767779
 30
0.0
 11
1532.734312745956
 21
2910.937814667434
 31
0.0
  0
LINE
  5
690D
330
19
100
AcDbEntity
  8
0
100
AcDbLine
 10
1484.734312745956
 20
2817.44498576778
 30
0.0
 11
1484.734312745956
 21
2910.937814667434
 31
0.0
  0
LINE
  5
690E
330
19
100
AcDbEntity
  8
0
100
AcDbLine
 10
1522.734312745956
 20
2902.937814667434
 30
0.0
 11
1494.734312745956
 21
2902.937814667434
 31
0.0
  0
TEXT
  5
6912
330
19
100
AcDbEntity
  8
0
100
AcDbText
 10
1439.252669842251
 20
2095.015848200201
 30
0.0
 40
8.4
  1
投
 41
0.8
100
AcDbText
  0
TEXT
  5
6913
330
19
100
AcDbEntity
  8
0
100
AcDbText
 10
1439.252669842251
 20
2081.015848200201
 30
0.0
 40
8.4
  1
影
 41
0.8
100
AcDbText
  0
TEXT
  5
6914
330
19
100
AcDbEntity
  8
0
100
AcDbText
 10
1439.252669842251
 20
2067.015848200201
 30
0.0
 40
8.4
  1
法
 41
0.8
100
AcDbText
  0
TEXT
  5
6915
330
19
100
AcDbEntity
  8
0
100
AcDbText
 10
1287.305617542813
 20
2069.327754762353
 30
0.0
 40
10.8
  1
製図
 41
0.8
100
AcDbText
  0
TEXT
  5
6916
330
19
100
AcDbEntity
  8
0
100
AcDbText
 10
1287.305617542813
 20
2089.327754762353
 30
0.0
 40
10.8
  1
尺度
 41
0.8
100
AcDbText
  0
TEXT
  5
6917
330
19
100
AcDbEntity
  8
0
100
AcDbText
 10
1328.457667042782
 20
2089.327754762353
 30
0.0
 40
10.8
  1
１／４　　（Ａ３）
 41
0.8
100
AcDbText
  0
TEXT
  5
6918
330
19
100
AcDbEntity
  8
0
100
AcDbText
 10
1583.785601042803
 20
2083.327756412366
 30
0.0
 40
10.8
  1
(SHSI)天板（窓なし）
 41
0.8
100
AcDbText
  0
TEXT
  5
6919
330
19
100
AcDbEntity
  8
0
100
AcDbText
 10
1558.441601042803
 20
2051.327758062378
 30
0.0
 40
10.8
  1
W600×D900用　FRT-SS69
 41
0.8
100
AcDbText
  0
TEXT
  5
691A
330
19
100
AcDbEntity
  8
0
100
AcDbText
 10
1626.121601042803
 20
2019.327758062378
 30
0.0
 40
10.8
  1
外観図
 41
0.8
100
AcDbText
  0
TEXT
  5
691B
330
19
100
AcDbEntity
  8
0
100
AcDbText
 10
1501.534312745956
 20
2906.937814667434
 30
0.0
 40
10.8
  1
48
 41
0.8
  7
y-4
100
AcDbText
  0
LINE
  5
691C
330
19
100
AcDbEntity
  8
0
100
AcDbLine
 10
1494.734312745956
 20
2901.271148000768
 30
0.0
 11
1484.734312745956
 21
2902.937814667434
 31
0.0
  0
LINE
  5
691D
330
19
100
AcDbEntity
  8
0
100
AcDbLine
 10
1484.734312745956
 20
2902.937814667434
 30
0.0
 11
1494.734312745956
 21
2904.6044813341
 31
0.0
  0
LINE
  5
691E
330
19
100
AcDbEntity
  8
0
100
AcDbLine
 10
1484.734312745956
 20
2902.937814667434
 30
0.0
 11
1494.734312745956
 21
2902.937814667434
 31
0.0
  0
LINE
  5
691F
330
19
100
AcDbEntity
  8
0
100
AcDbLine
 10
1522.734312745956
 20
2904.6044813341
 30
0.0
 11
1532.734312745956
 21
2902.937814667434
 31
0.0
  0
LINE
  5
6920
330
19
100
AcDbEntity
  8
0
100
AcDbLine
 10
1532.734312745956
 20
2902.937814667434
 30
0.0
 11
1522.734312745956
 21
2901.271148000768
 31
0.0
  0
LINE
  5
6921
330
19
100
AcDbEntity
  8
0
100
AcDbLine
 10
1532.734312745956
 20
2902.937814667434
 30
0.0
 11
1522.734312745956
 21
2902.937814667434
 31
0.0
  0
TEXT
  5
6922
330
19
100
AcDbEntity
  8
0
100
AcDbText
 10
1420.668822744136
 20
2597.42498576778
 30
0.0
 40
10.8
  1
393
 50
90.0
 41
0.8
  7
y-4
100
AcDbText
  0
LINE
  5
6923
330
19
100
AcDbEntity
  8
0
100
AcDbLine
 10
1426.335489410803
 20
2422.444985767779
 30
0.0
 11
1424.668822744136
 21
2412.444985767779
 31
0.0
  0
LINE
  5
6924
330
19
100
AcDbEntity
  8
0
100
AcDbLine
 10
1424.668822744136
 20
2412.444985767779
 30
0.0
 11
1423.002156077469
 21
2422.444985767779
 31
0.0
  0
LINE
  5
6925
330
19
100
AcDbEntity
  8
0
100
AcDbLine
 10
1424.668822744136
 20
2412.444985767779
 30
0.0
 11
1424.668822744136
 21
2422.444985767779
 31
0.0
  0
LINE
  5
6926
330
19
100
AcDbEntity
  8
0
100
AcDbLine
 10
1423.00215607747
 20
2795.444985767779
 30
0.0
 11
1424.668822744136
 21
2805.444985767779
 31
0.0
  0
LINE
  5
6927
330
19
100
AcDbEntity
  8
0
100
AcDbLine
 10
1424.668822744136
 20
2805.444985767779
 30
0.0
 11
1426.335489410803
 21
2795.444985767779
 31
0.0
  0
LINE
  5
6928
330
19
100
AcDbEntity
  8
0
100
AcDbLine
 10
1424.668822744136
 20
2805.444985767779
 30
0.0
 11
1424.668822744136
 21
2795.444985767779
 31
0.0
  0
TEXT
  5
6929
330
19
100
AcDbEntity
  8
0
100
AcDbText
 10
1596.957843356717
 20
2829.44498576778
 30
0.0
 40
10.8
  1
19
 50
90.0
 41
0.8
  7
y-4
100
AcDbText
  0
LINE
  5
692A
330
19
100
AcDbEntity
  8
0
100
AcDbLine
 10
1602.624510023384
 20
2815.44498576778
 30
0.0
 11
1600.957843356718
 21
2805.444985767779
 31
0.0
  0
LINE
  5
692B
330
19
100
AcDbEntity
  8
0
100
AcDbLine
 10
1600.957843356718
 20
2805.444985767779
 30
0.0
 11
1599.291176690051
 21
2815.44498576778
 31
0.0
  0
LINE
  5
692C
330
19
100
AcDbEntity
  8
0
100
AcDbLine
 10
1600.957843356718
 20
2805.444985767779
 30
0.0
 11
1600.957843356718
 21
2815.44498576778
 31
0.0
  0
LINE
  5
692D
330
19
100
AcDbEntity
  8
0
100
AcDbLine
 10
1599.291176690051
 20
2776.44498576778
 30
0.0
 11
1600.957843356718
 21
2786.44498576778
 31
0.0
  0
LINE
  5
692E
330
19
100
AcDbEntity
  8
0
100
AcDbLine
 10
1600.957843356718
 20
2786.44498576778
 30
0.0
 11
1602.624510023384
 21
2776.44498576778
 31
0.0
  0
LINE
  5
692F
330
19
100
AcDbEntity
  8
0
100
AcDbLine
 10
1600.957843356718
 20
2786.44498576778
 30
0.0
 11
1600.957843356718
 21
2776.44498576778
 31
0.0
  0
TEXT
  5
6930
330
19
100
AcDbEntity
  8
0
100
AcDbText
 10
476.9044157498697
 20
2597.424985767779
 30
0.0
 40
10.8
  1
393
 50
90.0
 41
0.8
  7
y-4
100
AcDbText
  0
LINE
  5
6931
330
19
100
AcDbEntity
  8
0
100
AcDbLine
 10
482.5710824165367
 20
2422.444985767779
 30
0.0
 11
480.9044157498701
 21
2412.444985767778
 31
0.0
  0
LINE
  5
6932
330
19
100
AcDbEntity
  8
0
100
AcDbLine
 10
480.9044157498701
 20
2412.444985767778
 30
0.0
 11
479.2377490832034
 21
2422.444985767779
 31
0.0
  0
LINE
  5
6933
330
19
100
AcDbEntity
  8
0
100
AcDbLine
 10
480.9044157498701
 20
2412.444985767778
 30
0.0
 11
480.9044157498701
 21
2422.444985767779
 31
0.0
  0
LINE
  5
6934
330
19
100
AcDbEntity
  8
0
100
AcDbLine
 10
479.2377490832035
 20
2795.444985767779
 30
0.0
 11
480.9044157498702
 21
2805.444985767779
 31
0.0
  0
LINE
  5
6935
330
19
100
AcDbEntity
  8
0
100
AcDbLine
 10
480.9044157498702
 20
2805.444985767779
 30
0.0
 11
482.5710824165368
 21
2795.444985767779
 31
0.0
  0
LINE
  5
6936
330
19
100
AcDbEntity
  8
0
100
AcDbLine
 10
480.9044157498702
 20
2805.444985767779
 30
0.0
 11
480.9044157498702
 21
2795.444985767779
 31
0.0
  0
TEXT
  5
6937
330
19
100
AcDbEntity
  8
0
100
AcDbText
 10
905.8188255813208
 20
2906.937814667434
 30
0.0
 40
10.8
  1
698
 41
0.8
  7
y-4
100
AcDbText
  0
LINE
  5
6938
330
19
100
AcDbEntity
  8
0
100
AcDbLine
 10
1256.338825581321
 20
2904.6044813341
 30
0.0
 11
1266.338825581321
 21
2902.937814667434
 31
0.0
  0
LINE
  5
6939
330
19
100
AcDbEntity
  8
0
100
AcDbLine
 10
1266.338825581321
 20
2902.937814667434
 30
0.0
 11
1256.338825581321
 21
2901.271148000768
 31
0.0
  0
LINE
  5
693A
330
19
100
AcDbEntity
  8
0
100
AcDbLine
 10
1266.338825581321
 20
2902.937814667434
 30
0.0
 11
1256.338825581321
 21
2902.937814667434
 31
0.0
  0
LINE
  5
693B
330
19
100
AcDbEntity
  8
0
100
AcDbLine
 10
578.3388255813206
 20
2901.271148000768
 30
0.0
 11
568.3388255813206
 21
2902.937814667434
 31
0.0
  0
LINE
  5
693C
330
19
100
AcDbEntity
  8
0
100
AcDbLine
 10
568.3388255813206
 20
2902.937814667434
 30
0.0
 11
578.3388255813206
 21
2904.6044813341
 31
0.0
  0
LINE
  5
693D
330
19
100
AcDbEntity
  8
0
100
AcDbLine
 10
568.3388255813206
 20
2902.937814667434
 30
0.0
 11
578.3388255813206
 21
2902.937814667434
 31
0.0
  0
TEXT
  5
693E
330
19
100
AcDbEntity
  8
0
100
AcDbText
 10
476.9044157498696
 20
2250.271915104606
 30
0.0
 40
10.8
  1
48
 50
90.0
 41
0.8
  7
y-4
100
AcDbText
  0
LINE
  5
693F
330
19
100
AcDbEntity
  8
0
100
AcDbLine
 10
482.5710824165367
 20
2243.471915104606
 30
0.0
 11
480.9044157498701
 21
2233.471915104606
 31
0.0
  0
LINE
  5
6940
330
19
100
AcDbEntity
  8
0
100
AcDbLine
 10
480.9044157498701
 20
2233.471915104606
 30
0.0
 11
479.2377490832034
 21
2243.471915104606
 31
0.0
  0
LINE
  5
6941
330
19
100
AcDbEntity
  8
0
100
AcDbLine
 10
480.9044157498701
 20
2233.471915104606
 30
0.0
 11
480.9044157498701
 21
2243.471915104606
 31
0.0
  0
LINE
  5
6942
330
19
100
AcDbEntity
  8
0
100
AcDbLine
 10
479.2377490832034
 20
2271.471915104606
 30
0.0
 11
480.9044157498701
 21
2281.471915104606
 31
0.0
  0
LINE
  5
6943
330
19
100
AcDbEntity
  8
0
100
AcDbLine
 10
480.9044157498701
 20
2281.471915104606
 30
0.0
 11
482.5710824165367
 21
2271.471915104606
 31
0.0
  0
LINE
  5
6944
330
19
100
AcDbEntity
  8
0
100
AcDbLine
 10
480.9044157498701
 20
2281.471915104606
 30
0.0
 11
480.9044157498701
 21
2271.471915104606
 31
0.0
  0
TEXT
  5
6945
330
19
100
AcDbEntity
  8
0
100
AcDbText
 10
905.8188255813206
 20
2163.378782998372
 30
0.0
 40
10.8
  1
698
 41
0.8
  7
y-4
100
AcDbText
  0
LINE
  5
6946
330
19
100
AcDbEntity
  8
0
100
AcDbLine
 10
1256.338825581321
 20
2161.045449665039
 30
0.0
 11
1266.338825581321
 21
2159.378782998372
 31
0.0
  0
LINE
  5
6947
330
19
100
AcDbEntity
  8
0
100
AcDbLine
 10
1266.338825581321
 20
2159.378782998372
 30
0.0
 11
1256.338825581321
 21
2157.712116331706
 31
0.0
  0
LINE
  5
6948
330
19
100
AcDbEntity
  8
0
100
AcDbLine
 10
1266.338825581321
 20
2159.378782998372
 30
0.0
 11
1256.338825581321
 21
2159.378782998372
 31
0.0
  0
LINE
  5
6949
330
19
100
AcDbEntity
  8
0
100
AcDbLine
 10
578.3388255813206
 20
2157.712116331706
 30
0.0
 11
568.3388255813206
 21
2159.378782998372
 31
0.0
  0
LINE
  5
694A
330
19
100
AcDbEntity
  8
0
100
AcDbLine
 10
568.3388255813206
 20
2159.378782998372
 30
0.0
 11
578.3388255813206
 21
2161.045449665039
 31
0.0
  0
LINE
  5
694B
330
19
100
AcDbEntity
  8
0
100
AcDbLine
 10
568.3388255813206
 20
2159.378782998372
 30
0.0
 11
578.3388255813206
 21
2159.378782998372
 31
0.0
  0
ENDSEC
  0
SECTION
  2
OBJECTS
  0
DICTIONARY
  5
C
330
0
100
AcDbDictionary
281
     1
  3
ACAD_COLOR
350
55A0
  3
ACAD_GROUP
350
D
  3
ACAD_LAYOUT
350
4423
  3
ACAD_MATERIAL
350
559F
  3
ACAD_MLINESTYLE
350
E
  3
ACAD_PLOTSETTINGS
350
4424
  3
ACAD_PLOTSTYLENAME
350
4421
  3
AcadDim
350
65EC
  3
ACDBHEADERROUNDTRIPXREC
350
694E
  3
AcDbVariableDictionary
350
68DA
  3
DWGPROPS
350
694D
  0
DICTIONARY
  5
5CEB
330
2
100
AcDbDictionary
280
     1
281
     1
  3
ACAD_LAYERSTATES
360
5CEC
  0
DICTIONARY
  5
55A0
102
{ACAD_REACTORS
330
C
102
}
330
C
100
AcDbDictionary
281
     1
  0
DICTIONARY
  5
D
102
{ACAD_REACTORS
330
C
102
}
330
C
100
AcDbDictionary
281
     1
  3
*A1
350
562A
  0
DICTIONARY
  5
4423
102
{ACAD_REACTORS
330
C
102
}
330
C
100
AcDbDictionary
281
     1
  3
Model
350
4425
  3
ﾚｲｱｳﾄ1
350
4426
  0
DICTIONARY
  5
559F
102
{ACAD_REACTORS
330
C
102
}
330
C
100
AcDbDictionary
281
     1
  0
DICTIONARY
  5
E
102
{ACAD_REACTORS
330
C
102
}
330
C
100
AcDbDictionary
281
     1
  3
STANDARD
350
1C
  0
DICTIONARY
  5
4424
102
{ACAD_REACTORS
330
C
102
}
330
C
100
AcDbDictionary
281
     1
  0
ACDBDICTIONARYWDFLT
  5
4421
102
{ACAD_REACTORS
330
C
102
}
330
C
100
AcDbDictionary
281
     1
  3
Normal
350
4422
100
AcDbDictionaryWithDefault
340
4422
  0
XRECORD
  5
65EC
102
{ACAD_REACTORS
330
C
102
}
330
C
100
AcDbXrecord
280
     1
 90
   990106
  3

 60
     0
 61
     0
 62
     1
 63
     3
 64
     0
 65
     0
 66
     0
 67
     3
 68
     1
 69
     0
 70
     0
 71
     0
 72
     0
 40
0.0
170
     0
  0
DICTIONARY
  5
694E
102
{ACAD_REACTORS
330
C
102
}
330
C
100
AcDbDictionary
281
     1
  3
COLORDICT
350
6950
  3
MATERIALDICT
350
694F
  0
DICTIONARY
  5
68DA
102
{ACAD_REACTORS
330
C
102
}
330
C
100
AcDbDictionary
281
     1
  3
DIMASSOC
350
68DB
  3
PROJECTNAME
350
68DC
  0
XRECORD
  5
694D
102
{ACAD_REACTORS
330
C
102
}
330
C
100
AcDbXrecord
280
     1
  1
DWGPROPS COOKIE
  2

  3

  4

  6

  7

  8

  9

300
=
301
=
302
=
303
=
304
=
305
=
306
=
307
=
308
=
309
=
 40
2.14616736111111
 41
2450571.401945833
 42
2458457.623516169
  1

 90
        0
  0
DICTIONARY
  5
5CEC
102
{ACAD_REACTORS
330
5CEB
102
}
330
5CEB
100
AcDbDictionary
281
     1
  0
GROUP
  5
562A
102
{ACAD_REACTORS
330
D
102
}
330
D
100
AcDbGroup
300

 70
     1
 71
     1
  0
LAYOUT
  5
4425
102
{ACAD_XDICTIONARY
360
6951
102
}
102
{ACAD_REACTORS
330
4423
102
}
330
4423
100
AcDbPlotSettings
  1

  2
HONSYAPRT41.pc3
  4
A3
  6
OLE1
 40
5.873749732971191
 41
5.873747825622558
 42
5.70440673828125
 43
5.873748779296875
 44
296.9259948730469
 45
420.1159973144531
 46
1.959999999999999
 47
2.169999999999999
 48
0.0
 49
0.0
140
0.0
141
0.0
142
1.0
143
5.0
 70
 11940
 72
     1
 73
     1
 74
     1
  7
aclt.ctb
 75
     0
147
0.2
148
0.0924438080628534
149
0.064392711135497
100
AcDbLayout
  1
Model
 70
     1
 71
     0
 10
0.0
 20
0.0
 11
12.0
 21
9.0
 12
0.0
 22
0.0
 32
0.0
 14
0.0
 24
0.0
 34
0.0
 15
0.0
 25
0.0
 35
0.0
146
0.0
 13
0.0
 23
0.0
 33
0.0
 16
1.0
 26
0.0
 36
0.0
 17
0.0
 27
1.0
 37
0.0
 76
     0
330
19
  0
LAYOUT
  5
4426
102
{ACAD_XDICTIONARY
360
6953
102
}
102
{ACAD_REACTORS
330
4423
102
}
330
4423
100
AcDbPlotSettings
  1

  2
FUJITSU XL-5310
  4

  6

 40
0.0
 41
0.0
 42
0.0
 43
0.0
 44
0.0
 45
0.0
 46
0.0
 47
0.0
 48
0.0
 49
0.0
140
0.0
141
0.0
142
1.0
143
1.0
 70
   688
 72
     0
 73
     0
 74
     5
  7
aclt.ctb
 75
    16
147
1.0
148
0.0
149
0.0
100
AcDbLayout
  1
ﾚｲｱｳﾄ1
 70
     1
 71
     1
 10
0.0
 20
0.0
 11
12.0
 21
9.0
 12
0.0
 22
0.0
 32
0.0
 14
1.000000000000000E+20
 24
1.000000000000000E+20
 34
1.000000000000000E+20
 15
-1.000000000000000E+20
 25
-1.000000000000000E+20
 35
-1.000000000000000E+20
146
0.0
 13
0.0
 23
0.0
 33
0.0
 16
1.0
 26
0.0
 36
0.0
 17
0.0
 27
1.0
 37
0.0
 76
     0
330
16
  0
MLINESTYLE
  5
1C
102
{ACAD_REACTORS
330
E
102
}
330
E
100
AcDbMlineStyle
  2
STANDARD
 70
     0
  3

 62
     0
 51
90.0
 52
90.0
 71
     2
 49
0.5
 62
   256
  6
BYLAYER
 49
-0.5
 62
   256
  6
BYLAYER
  0
ACDBPLACEHOLDER
  5
4422
102
{ACAD_REACTORS
330
4421
102
}
330
4421
  0
XRECORD
  5
6950
102
{ACAD_REACTORS
330
694E
102
}
330
694E
100
AcDbXrecord
280
     1
340
55A0
  0
XRECORD
  5
694F
102
{ACAD_REACTORS
330
694E
102
}
330
694E
100
AcDbXrecord
280
     1
340
559F
  0
DICTIONARYVAR
  5
68DB
102
{ACAD_REACTORS
330
68DA
102
}
330
68DA
100
DictionaryVariables
280
     0
  1
1
  0
DICTIONARYVAR
  5
68DC
102
{ACAD_REACTORS
330
68DA
102
}
330
68DA
100
DictionaryVariables
280
     0
  1

  0
DICTIONARY
  5
6951
330
4425
100
AcDbDictionary
280
     1
281
     1
  3
ACAD_XREC_ROUNDTRIP
360
6952
  0
DICTIONARY
  5
6953
330
4426
100
AcDbDictionary
280
     1
281
     1
  3
ACAD_XREC_ROUNDTRIP
360
6954
  0
XRECORD
  5
6952
102
{ACAD_REACTORS
330
6951
102
}
330
6951
100
AcDbXrecord
280
     1
102
SHADEPLOT
 70
     0
102
SHADEPLOTRESLEVEL
 70
     2
102
SHADEPLOTCUSTOMDPI
 70
   300
  0
XRECORD
  5
6954
102
{ACAD_REACTORS
330
6953
102
}
330
6953
100
AcDbXrecord
280
     1
102
SHADEPLOT
 70
     0
102
SHADEPLOTRESLEVEL
 70
     2
102
SHADEPLOTCUSTOMDPI
 70
   300
  0
ENDSEC
  0
EOF
