  0
SECTION
  2
HEADER
  9
$ACADVER
  1
AC1015
  9
$ACADMAINTVER
 70
    20
  9
$DWGCODEPAGE
  3
ANSI_932
  9
$INSBASE
 10
0.0
 20
0.0
 30
0.0
  9
$EXTMIN
 10
134.1950988092894
 20
1952.55584605361
 30
-0.000000000000013
  9
$EXTMAX
 10
1814.324815066486
 20
3140.868937953599
 30
0.0000000000000023
  9
$LIMMIN
 10
124.999995
 20
34.99999500000001
  9
$LIMMAX
 10
2020.0001
 20
1384.9999
  9
$ORTHOMODE
 70
     1
  9
$REGENMODE
 70
     1
  9
$FILLMODE
 70
     1
  9
$QTEXTMODE
 70
     0
  9
$MIRRTEXT
 70
     1
  9
$LTSCALE
 40
1.0
  9
$ATTMODE
 70
     1
  9
$TEXTSIZE
 40
10.8
  9
$TRACEWID
 40
0.05
  9
$TEXTSTYLE
  7
y-4
  9
$CLAYER
  8
0
  9
$CELTYPE
  6
BYLAYER
  9
$CECOLOR
 62
   256
  9
$CELTSCALE
 40
1.0
  9
$DISPSILH
 70
     0
  9
$DIMSCALE
 40
4.0
  9
$DIMASZ
 40
2.5
  9
$DIMEXO
 40
3.0
  9
$DIMDLI
 40
7.0
  9
$DIMRND
 40
0.0
  9
$DIMDLE
 40
0.0
  9
$DIMEXE
 40
2.0
  9
$DIMTP
 40
0.0
  9
$DIMTM
 40
0.0
  9
$DIMTXT
 40
2.7
  9
$DIMCEN
 40
0.0
  9
$DIMTSZ
 40
0.0
  9
$DIMTOL
 70
     0
  9
$DIMLIM
 70
     0
  9
$DIMTIH
 70
     0
  9
$DIMTOH
 70
     0
  9
$DIMSE1
 70
     0
  9
$DIMSE2
 70
     0
  9
$DIMTAD
 70
     1
  9
$DIMZIN
 70
     8
  9
$DIMBLK
  1
OPEN
  9
$DIMASO
 70
     1
  9
$DIMSHO
 70
     1
  9
$DIMPOST
  1

  9
$DIMAPOST
  1

  9
$DIMALT
 70
     0
  9
$DIMALTD
 70
     2
  9
$DIMALTF
 40
25.4
  9
$DIMLFAC
 40
1.0
  9
$DIMTOFL
 70
     1
  9
$DIMTVP
 40
0.0
  9
$DIMTIX
 70
     0
  9
$DIMSOXD
 70
     0
  9
$DIMSAH
 70
     0
  9
$DIMBLK1
  1

  9
$DIMBLK2
  1

  9
$DIMSTYLE
  2
y-4
  9
$DIMCLRD
 70
     4
  9
$DIMCLRE
 70
     4
  9
$DIMCLRT
 70
     3
  9
$DIMTFAC
 40
1.0
  9
$DIMGAP
 40
1.0
  9
$DIMJUST
 70
     0
  9
$DIMSD1
 70
     0
  9
$DIMSD2
 70
     0
  9
$DIMTOLJ
 70
     1
  9
$DIMTZIN
 70
     0
  9
$DIMALTZ
 70
     0
  9
$DIMALTTZ
 70
     0
  9
$DIMUPT
 70
     0
  9
$DIMDEC
 70
     8
  9
$DIMTDEC
 70
     8
  9
$DIMALTU
 70
     2
  9
$DIMALTTD
 70
     2
  9
$DIMTXSTY
  7
y-4
  9
$DIMAUNIT
 70
     0
  9
$DIMADEC
 70
     8
  9
$DIMALTRND
 40
0.0
  9
$DIMAZIN
 70
     2
  9
$DIMDSEP
 70
    46
  9
$DIMATFIT
 70
     3
  9
$DIMFRAC
 70
     0
  9
$DIMLDRBLK
  1
OPEN
  9
$DIMLUNIT
 70
     2
  9
$DIMLWD
 70
    -2
  9
$DIMLWE
 70
    -2
  9
$DIMTMOVE
 70
     0
  9
$LUNITS
 70
     2
  9
$LUPREC
 70
     8
  9
$SKETCHINC
 40
0.1
  9
$FILLETRAD
 40
4.799999999999999
  9
$AUNITS
 70
     0
  9
$AUPREC
 70
     6
  9
$MENU
  1
acad
  9
$ELEVATION
 40
0.0
  9
$PELEVATION
 40
0.0
  9
$THICKNESS
 40
0.0
  9
$LIMCHECK
 70
     0
  9
$CHAMFERA
 40
0.0
  9
$CHAMFERB
 40
0.0
  9
$CHAMFERC
 40
0.0
  9
$CHAMFERD
 40
0.0
  9
$SKPOLY
 70
     0
  9
$TDCREATE
 40
2450571.401945833
  9
$TDUCREATE
 40
2450571.026945834
  9
$TDUPDATE
 40
2458456.701972292
  9
$TDUUPDATE
 40
2458456.326972292
  9
$TDINDWG
 40
2.1754259838
  9
$TDUSRTIMER
 40
2.1754259838
  9
$USRTIMER
 70
     1
  9
$ANGBASE
 50
0.0
  9
$ANGDIR
 70
     0
  9
$PDMODE
 70
     0
  9
$PDSIZE
 40
0.0
  9
$PLINEWID
 40
0.0
  9
$SPLFRAME
 70
     0
  9
$SPLINETYPE
 70
     6
  9
$SPLINESEGS
 70
     8
  9
$HANDSEED
  5
925F
  9
$SURFTAB1
 70
     6
  9
$SURFTAB2
 70
     6
  9
$SURFTYPE
 70
     6
  9
$SURFU
 70
     6
  9
$SURFV
 70
     6
  9
$UCSBASE
  2

  9
$UCSNAME
  2

  9
$UCSORG
 10
0.0
 20
0.0
 30
0.0
  9
$UCSXDIR
 10
1.0
 20
0.0
 30
0.0
  9
$UCSYDIR
 10
0.0
 20
1.0
 30
0.0
  9
$UCSORTHOREF
  2

  9
$UCSORTHOVIEW
 70
     0
  9
$UCSORGTOP
 10
0.0
 20
0.0
 30
0.0
  9
$UCSORGBOTTOM
 10
0.0
 20
0.0
 30
0.0
  9
$UCSORGLEFT
 10
0.0
 20
0.0
 30
0.0
  9
$UCSORGRIGHT
 10
0.0
 20
0.0
 30
0.0
  9
$UCSORGFRONT
 10
0.0
 20
0.0
 30
0.0
  9
$UCSORGBACK
 10
0.0
 20
0.0
 30
0.0
  9
$PUCSBASE
  2

  9
$PUCSNAME
  2

  9
$PUCSORG
 10
0.0
 20
0.0
 30
0.0
  9
$PUCSXDIR
 10
1.0
 20
0.0
 30
0.0
  9
$PUCSYDIR
 10
0.0
 20
1.0
 30
0.0
  9
$PUCSORTHOREF
  2

  9
$PUCSORTHOVIEW
 70
     0
  9
$PUCSORGTOP
 10
0.0
 20
0.0
 30
0.0
  9
$PUCSORGBOTTOM
 10
0.0
 20
0.0
 30
0.0
  9
$PUCSORGLEFT
 10
0.0
 20
0.0
 30
0.0
  9
$PUCSORGRIGHT
 10
0.0
 20
0.0
 30
0.0
  9
$PUCSORGFRONT
 10
0.0
 20
0.0
 30
0.0
  9
$PUCSORGBACK
 10
0.0
 20
0.0
 30
0.0
  9
$USERI1
 70
     0
  9
$USERI2
 70
     0
  9
$USERI3
 70
     0
  9
$USERI4
 70
     0
  9
$USERI5
 70
     0
  9
$USERR1
 40
0.0
  9
$USERR2
 40
0.0
  9
$USERR3
 40
0.0
  9
$USERR4
 40
0.0
  9
$USERR5
 40
0.0
  9
$WORLDVIEW
 70
     1
  9
$SHADEDGE
 70
     3
  9
$SHADEDIF
 70
    70
  9
$TILEMODE
 70
     1
  9
$MAXACTVP
 70
    16
  9
$PINSBASE
 10
0.0
 20
0.0
 30
0.0
  9
$PLIMCHECK
 70
     0
  9
$PEXTMIN
 10
1.000000000000000E+20
 20
1.000000000000000E+20
 30
1.000000000000000E+20
  9
$PEXTMAX
 10
-1.000000000000000E+20
 20
-1.000000000000000E+20
 30
-1.000000000000000E+20
  9
$PLIMMIN
 10
0.0
 20
0.0
  9
$PLIMMAX
 10
12.0
 20
9.0
  9
$UNITMODE
 70
     0
  9
$VISRETAIN
 70
     0
  9
$PLINEGEN
 70
     0
  9
$PSLTSCALE
 70
     1
  9
$TREEDEPTH
 70
  3020
  9
$CMLSTYLE
  2
STANDARD
  9
$CMLJUST
 70
     0
  9
$CMLSCALE
 40
1.0
  9
$PROXYGRAPHICS
 70
     1
  9
$MEASUREMENT
 70
     1
  9
$CELWEIGHT
370
    -1
  9
$ENDCAPS
280
     0
  9
$JOINSTYLE
280
     0
  9
$LWDISPLAY
290
     0
  9
$INSUNITS
 70
     0
  9
$HYPERLINKBASE
  1

  9
$STYLESHEET
  1
aclt.ctb
  9
$XEDIT
290
     1
  9
$CEPSNTYPE
380
     0
  9
$PSTYLEMODE
290
     1
  9
$FINGERPRINTGUID
  2
{674A3D2F-9450-11D4-AE94-0050DA5D4354}
  9
$VERSIONGUID
  2
{40EC049F-CE91-4772-8394-7895977C1C70}
  9
$EXTNAMES
290
     1
  9
$PSVPSCALE
 40
0.0
  9
$OLESTARTUP
290
     0
  0
ENDSEC
  0
SECTION
  2
CLASSES
  0
CLASS
  1
ACDBDICTIONARYWDFLT
  2
AcDbDictionaryWithDefault
  3
ObjectDBX Classes
 90
        0
280
     0
281
     0
  0
CLASS
  1
ACDBPLACEHOLDER
  2
AcDbPlaceHolder
  3
ObjectDBX Classes
 90
        0
280
     0
281
     0
  0
CLASS
  1
LAYOUT
  2
AcDbLayout
  3
ObjectDBX Classes
 90
        0
280
     0
281
     0
  0
CLASS
  1
SORTENTSTABLE
  2
AcDbSortentsTable
  3
ObjectDBX Classes
 90
    32768
280
     0
281
     0
  0
CLASS
  1
DICTIONARYVAR
  2
AcDbDictionaryVar
  3
ObjectDBX Classes
 90
        0
280
     0
281
     0
  0
ENDSEC
  0
SECTION
  2
TABLES
  0
TABLE
  2
VPORT
  5
8
330
0
100
AcDbSymbolTable
 70
     4
  0
VPORT
  5
9256
330
8
100
AcDbSymbolTableRecord
100
AcDbViewportTableRecord
  2
*Active
 70
     0
 10
0.0
 20
0.0
 11
1.0
 21
1.0
 12
974.2599569378874
 22
2546.712392003605
 13
0.0
 23
0.0
 14
1.0
 24
1.0
 15
50.0
 25
50.0
 16
0.0
 26
0.0
 36
1.0
 17
0.0
 27
0.0
 37
0.0
 40
1197.304111510833
 41
2.029040404040403
 42
50.0
 43
0.0
 44
0.0
 50
0.0
 51
0.0
 71
     0
 72
   100
 73
     1
 74
     0
 75
     0
 76
     0
 77
     0
 78
     0
281
     0
 65
     1
110
0.0
120
0.0
130
0.0
111
1.0
121
0.0
131
0.0
112
0.0
122
1.0
132
0.0
 79
     0
146
0.0
  0
ENDTAB
  0
TABLE
  2
LTYPE
  5
5
330
0
100
AcDbSymbolTable
 70
    12
  0
LTYPE
  5
13
330
5
100
AcDbSymbolTableRecord
100
AcDbLinetypeTableRecord
  2
BYBLOCK
 70
     0
  3

 72
    65
 73
     0
 40
0.0
  0
LTYPE
  5
14
330
5
100
AcDbSymbolTableRecord
100
AcDbLinetypeTableRecord
  2
BYLAYER
 70
     0
  3

 72
    65
 73
     0
 40
0.0
  0
LTYPE
  5
15
330
5
100
AcDbSymbolTableRecord
100
AcDbLinetypeTableRecord
  2
CONTINUOUS
 70
     0
  3
実線
 72
    65
 73
     0
 40
0.0
  0
ENDTAB
  0
TABLE
  2
LAYER
  5
2
102
{ACAD_XDICTIONARY
360
5CEB
102
}
330
0
100
AcDbSymbolTable
 70
    10
  0
LAYER
  5
F
330
2
100
AcDbSymbolTableRecord
100
AcDbLayerTableRecord
  2
0
 70
     0
 62
     7
  6
CONTINUOUS
370
    -3
390
4422
  0
LAYER
  5
25F
330
2
100
AcDbSymbolTableRecord
100
AcDbLayerTableRecord
  2
DEFPOINTS
 70
     0
 62
     7
  6
CONTINUOUS
290
     0
370
    -3
390
4422
  0
ENDTAB
  0
TABLE
  2
STYLE
  5
3
330
0
100
AcDbSymbolTable
 70
     6
  0
STYLE
  5
10
330
3
100
AcDbSymbolTableRecord
100
AcDbTextStyleTableRecord
  2
STANDARD
 70
     0
 40
12.0
 41
0.8
 50
0.0
 71
     0
 42
12.0
  3
TXT.shx
  4
BIGFONT.shx
  0
STYLE
  5
6511
330
3
100
AcDbSymbolTableRecord
100
AcDbTextStyleTableRecord
  2
y-4
 70
     0
 40
10.8
 41
0.8
 50
0.0
 71
     0
 42
10.8
  3
TXT.shx
  4
BIGFONT.shx
  0
ENDTAB
  0
TABLE
  2
VIEW
  5
6
330
0
100
AcDbSymbolTable
 70
     1
  0
VIEW
  5
D90
330
6
100
AcDbSymbolTableRecord
100
AcDbViewTableRecord
  2
OLE1
 70
     0
 40
1116.00004
 10
1068.487167009901
 20
558.00002
 41
2136.974334019802
 11
0.0
 21
0.0
 31
1.0
 12
0.0
 22
0.0
 32
0.0
 42
50.0
 43
0.0
 44
0.0
 50
0.0
 71
     0
281
     0
 72
     0
  0
ENDTAB
  0
TABLE
  2
UCS
  5
7
330
0
100
AcDbSymbolTable
 70
     0
  0
ENDTAB
  0
TABLE
  2
APPID
  5
9
330
0
100
AcDbSymbolTable
 70
     1
  0
APPID
  5
11
330
9
100
AcDbSymbolTableRecord
100
AcDbRegAppTableRecord
  2
ACAD
 70
     0
  0
ENDTAB
  0
TABLE
  2
DIMSTYLE
  5
A
330
0
100
AcDbSymbolTable
 70
    12
100
AcDbDimStyleTable
 71
     2
340
6515
340
220
  0
DIMSTYLE
105
220
330
A
100
AcDbSymbolTableRecord
100
AcDbDimStyleTableRecord
  2
STANDARD
 70
     0
340
10
  0
DIMSTYLE
105
6515
330
A
100
AcDbSymbolTableRecord
100
AcDbDimStyleTableRecord
  2
y-4
 70
     0
 40
4.0
 41
2.5
 42
3.0
 43
7.0
 44
2.0
 73
     0
 74
     0
 77
     1
 78
     8
 79
     2
140
2.7
141
0.0
147
1.0
172
     1
176
     4
177
     4
178
     3
179
     8
271
     8
272
     8
340
6511
341
24C
342
24C
  0
ENDTAB
  0
TABLE
  2
BLOCK_RECORD
  5
1
330
0
100
AcDbSymbolTable
 70
   105
  0
BLOCK_RECORD
  5
19
330
1
100
AcDbSymbolTableRecord
100
AcDbBlockTableRecord
  2
*MODEL_SPACE
340
4425
  0
BLOCK_RECORD
  5
16
330
1
100
AcDbSymbolTableRecord
100
AcDbBlockTableRecord
  2
*PAPER_SPACE
340
4426
  0
BLOCK_RECORD
  5
24C
330
1
100
AcDbSymbolTableRecord
100
AcDbBlockTableRecord
  2
_OPEN
340
0
102
{BLKREFS
331
6821
331
6822
331
6813
331
6814
331
6805
331
6806
331
67F9
331
67FA
331
67EB
331
67EC
331
67DF
331
67E0
331
67D3
331
67D4
331
67C7
331
67C8
331
67BB
331
67BC
331
67AF
331
67B0
331
67A3
331
67A4
331
6797
331
6798
331
6789
331
678A
331
677D
331
677E
331
6771
331
6772
331
6763
331
6764
331
6755
331
6756
331
6749
331
674A
331
673D
331
673E
331
6731
331
6732
331
6723
331
6724
331
6717
331
6718
331
670B
331
670C
331
66FF
331
6700
331
66F3
331
66F4
331
66E5
331
66E6
331
66D7
331
66D8
331
66C9
331
66CA
331
66BD
331
66BE
331
70AB
331
70AC
331
70B4
331
70B5
331
70BD
331
70BE
331
70C8
331
70C9
331
70D3
331
70D4
331
70DC
331
70DD
331
70E5
331
70E6
331
70EE
331
70EF
331
70F9
331
70FA
331
7102
331
7103
331
710B
331
710C
331
7114
331
7115
331
711D
331
711E
331
7128
331
7129
331
7133
331
7134
331
713E
331
713F
331
7147
331
7148
331
7150
331
7151
331
715B
331
715C
331
7166
331
7167
331
716F
331
7170
331
717A
331
717B
331
7183
331
7184
331
718C
331
718D
331
7195
331
7196
331
719E
331
719F
331
71A7
331
71A8
331
71B0
331
71B1
331
71B9
331
71BA
331
71C4
331
71C5
331
71CD
331
71CE
331
71D6
331
71D7
331
71E1
331
71E2
331
71EA
331
71EB
331
71F5
331
71F6
331
7200
331
7201
331
7209
331
720A
331
7214
331
7215
331
721D
331
721E
331
7226
331
7227
331
722F
331
7230
331
7238
331
7239
331
7457
331
7458
331
7504
331
7505
331
7511
331
7512
331
8575
331
8576
331
8D3C
331
8D3D
331
8D4B
331
8D4C
331
8D58
331
8D59
331
8D65
331
8D66
331
8F67
331
8F68
331
8F71
331
8F72
331
8F95
331
8F96
331
8FA0
331
8FA1
331
8FE1
331
8FE2
331
8FEB
331
8FEC
331
8FF4
331
8FF5
331
8FFD
331
8FFE
331
9008
331
9009
331
9011
331
9012
331
901A
331
901B
331
9025
331
9026
331
902E
331
902F
331
9037
331
9038
331
9040
331
9041
331
9056
331
9057
331
905F
331
9060
331
9068
331
9069
331
9071
331
9072
331
907C
331
907D
331
908E
331
908F
331
9097
331
9098
331
90A0
331
90A1
331
90BD
331
90BE
102
}
  0
ENDTAB
  0
ENDSEC
  0
SECTION
  2
BLOCKS
  0
BLOCK
  5
1A
330
19
100
AcDbEntity
  8
0
100
AcDbBlockBegin
  2
*MODEL_SPACE
 70
     0
 10
0.0
 20
0.0
 30
0.0
  3
*MODEL_SPACE
  1

  0
ENDBLK
  5
1B
330
19
100
AcDbEntity
  8
0
100
AcDbBlockEnd
  0
BLOCK
  5
17
330
16
100
AcDbEntity
 67
     1
  8
0
100
AcDbBlockBegin
  2
*PAPER_SPACE
 70
     0
 10
0.0
 20
0.0
 30
0.0
  3
*PAPER_SPACE
  1

  0
ENDBLK
  5
18
330
16
100
AcDbEntity
 67
     1
  8
0
100
AcDbBlockEnd
  0
BLOCK
  5
24D
330
24C
100
AcDbEntity
  8
0
100
AcDbBlockBegin
  2
_OPEN
 70
     0
 10
0.0
 20
0.0
 30
0.0
  3
_OPEN
  1

  0
LINE
  5
24E
330
24C
100
AcDbEntity
  8
0
  6
ByBlock
 62
     0
100
AcDbLine
 10
-1.0
 20
0.1666666666666666
 30
0.0
 11
0.0
 21
0.0
 31
0.0
  0
LINE
  5
24F
330
24C
100
AcDbEntity
  8
0
  6
ByBlock
 62
     0
100
AcDbLine
 10
0.0
 20
0.0
 30
0.0
 11
-1.0
 21
-0.1666666666666666
 31
0.0
  0
LINE
  5
250
330
24C
100
AcDbEntity
  8
0
  6
ByBlock
 62
     0
100
AcDbLine
 10
0.0
 20
0.0
 30
0.0
 11
-1.0
 21
0.0
 31
0.0
  0
ENDBLK
  5
251
330
24C
100
AcDbEntity
  8
0
100
AcDbBlockEnd
  0
ENDSEC
  0
SECTION
  2
ENTITIES
  0
MTEXT
  5
323
330
19
100
AcDbEntity
  8
0
  6
Continuous
100
AcDbMText
 10
144.2478588099633
 20
166.822615518982
 30
0.0
 40
4.0
 41
44.65581175458782
 71
     1
 72
     5
  1

 73
     1
 44
1.0
1001
ACAD
1000
MTEXTBEGIN
1070
    73
1070
     1
1070
    44
1040
1.0
1070
    74
1070
     0
1000
MTEXTEND
  0
MTEXT
  5
53BE
330
19
100
AcDbEntity
  8
0
  6
Continuous
 62
     3
100
AcDbMText
 10
1720.0001
 20
97.49999250000001
 30
0.0
 40
15.0
 41
150.0
 71
     5
 72
     5
  1

 73
     1
 44
1.0
1001
ACAD
1000
MTEXTBEGIN
1070
    73
1070
     1
1070
    44
1040
1.0
1070
    74
1070
     0
1000
MTEXTEND
  0
LINE
  5
6052
330
19
100
AcDbEntity
  8
0
100
AcDbLine
 10
1814.233601042804
 20
3140.727758762382
 30
0.0
 11
1734.233601042804
 21
3140.727758762382
 31
0.0
  0
LINE
  5
6053
330
19
100
AcDbEntity
  8
0
100
AcDbLine
 10
1814.233601042804
 20
3140.727758762382
 30
0.0
 11
1814.233601042804
 21
3060.727758762383
 31
0.0
  0
LINE
  5
6054
330
19
100
AcDbEntity
  8
0
100
AcDbLine
 10
234.2335970428321
 20
2546.727716762354
 30
0.0
 11
214.2335970428321
 21
2546.727716762354
 31
0.0
  0
LINE
  5
6055
330
19
100
AcDbEntity
  8
0
100
AcDbLine
 10
134.2336010428043
 20
3140.727758762382
 30
0.0
 11
134.2336010428043
 21
3060.727758762383
 31
0.0
  0
LINE
  5
6056
330
19
100
AcDbEntity
  8
0
100
AcDbLine
 10
134.2336010428043
 20
3140.727758762382
 30
0.0
 11
214.2336010428044
 21
3140.727758762382
 31
0.0
  0
LINE
  5
6057
330
19
100
AcDbEntity
  8
0
100
AcDbLine
 10
234.2335970428321
 20
3100.727678762355
 30
0.0
 11
1774.233601042804
 21
3100.727678762355
 31
0.0
  0
LINE
  5
605E
330
19
100
AcDbEntity
  8
0
100
AcDbLine
 10
234.2335970428321
 20
2064.727754762352
 30
0.0
 11
234.2335970428321
 21
1992.727754762352
 31
0.0
  0
LINE
  5
605F
330
19
100
AcDbEntity
  8
0
100
AcDbLine
 10
1310.233634042823
 20
2104.727754762352
 30
0.0
 11
1310.233634042823
 21
2064.727754762352
 31
0.0
  0
LINE
  5
6060
330
19
100
AcDbEntity
  8
0
100
AcDbLine
 10
1506.233601042804
 20
2072.727758062377
 30
0.0
 11
1774.233601042804
 21
2072.727758062377
 31
0.0
  0
LINE
  5
6061
330
19
100
AcDbEntity
  8
0
100
AcDbLine
 10
1506.233601042804
 20
2040.727758062377
 30
0.0
 11
1774.233601042804
 21
2040.727758062377
 31
0.0
  0
LINE
  5
6063
330
19
100
AcDbEntity
  8
0
100
AcDbLine
 10
1282.233601042804
 20
2084.727754762352
 30
0.0
 11
1434.233700042801
 21
2084.727754762352
 31
0.0
  0
LINE
  5
6064
330
19
100
AcDbEntity
  8
0
100
AcDbLine
 10
1552.233601042804
 20
2000.727756412365
 30
0.0
 11
1564.233601042804
 21
2000.727756412365
 31
0.0
  0
LINE
  5
6065
330
19
100
AcDbEntity
  8
0
100
AcDbLine
 10
1616.233601042804
 20
2000.727756412365
 30
0.0
 11
1628.233601042804
 21
2000.727756412365
 31
0.0
  0
LINE
  5
6066
330
19
100
AcDbEntity
  8
0
100
AcDbLine
 10
1453.509526521877
 20
2084.754473533495
 30
0.0
 11
1503.261526521914
 21
2084.754473533495
 31
0.0
  0
LINE
  5
6067
330
19
100
AcDbEntity
  8
0
100
AcDbLine
 10
1499.373526521878
 20
2077.194473533497
 30
0.0
 11
1499.373526521878
 21
2092.314473533493
 31
0.0
  0
LINE
  5
6068
330
19
100
AcDbEntity
  8
0
100
AcDbLine
 10
1479.717526521919
 20
2080.218473533473
 30
0.0
 11
1479.717526521919
 21
2089.290473533517
 31
0.0
  0
CIRCLE
  5
6069
330
19
100
AcDbEntity
  8
0
100
AcDbCircle
 10
1462.581526521921
 20
2084.754473533495
 30
0.0
 40
4.536
  0
CIRCLE
  5
606A
330
19
100
AcDbEntity
  8
0
100
AcDbCircle
 10
1462.581526521921
 20
2084.754473533495
 30
0.0
 40
7.559999999999987
  0
LINE
  5
606B
330
19
100
AcDbEntity
  8
0
100
AcDbLine
 10
1462.581526521921
 20
2093.82647353348
 30
0.0
 11
1462.581526521921
 21
2075.682473533509
 31
0.0
  0
LINE
  5
606C
330
19
100
AcDbEntity
  8
0
100
AcDbLine
 10
1479.717526521919
 20
2089.290473533517
 30
0.0
 11
1499.373526521878
 21
2092.314473533493
 31
0.0
  0
LINE
  5
606D
330
19
100
AcDbEntity
  8
0
100
AcDbLine
 10
1479.717526521919
 20
2080.218473533473
 30
0.0
 11
1499.373526521878
 21
2077.194473533497
 31
0.0
  0
LINE
  5
606E
330
19
100
AcDbEntity
  8
0
100
AcDbLine
 10
1282.233601042804
 20
2064.727754762352
 30
0.0
 11
1282.233601042804
 21
1992.727754762352
 31
0.0
  0
LINE
  5
606F
330
19
100
AcDbEntity
  8
0
100
AcDbLine
 10
1506.233601042804
 20
2064.727754762352
 30
0.0
 11
1282.233601042804
 21
2064.727754762352
 31
0.0
  0
TEXT
  5
6070
330
19
100
AcDbEntity
  8
0
100
AcDbText
 10
1498.409784907977
 20
1976.447301507708
 30
0.0
 40
8.8
  1
Ｄｒａｗｉｎｇ　Ｓｈｅｅｔ　Ａ３（２９７ｍｍ×４２０ｍｍ）
 41
0.8
100
AcDbText
  0
LINE
  5
6071
330
19
100
AcDbEntity
  8
0
100
AcDbLine
 10
1814.233601042804
 20
1952.727758762382
 30
0.0
 11
1734.233601042804
 21
1952.727758762382
 31
0.0
  0
LINE
  5
6072
330
19
100
AcDbEntity
  8
0
100
AcDbLine
 10
1814.233601042804
 20
1952.727758762382
 30
0.0
 11
1814.233601042804
 21
2032.727758762382
 31
0.0
  0
LINE
  5
6073
330
19
100
AcDbEntity
  8
0
100
AcDbLine
 10
134.2336010428043
 20
1952.727758762382
 30
0.0
 11
214.2336010428044
 21
1952.727758762382
 31
0.0
  0
LINE
  5
6074
330
19
100
AcDbEntity
  8
0
100
AcDbLine
 10
134.2336010428043
 20
1952.727758762382
 30
0.0
 11
134.2336010428043
 21
2032.727758762382
 31
0.0
  0
LINE
  5
6075
330
19
100
AcDbEntity
  8
0
100
AcDbLine
 10
234.2335970428321
 20
1992.727754762352
 30
0.0
 11
1774.233601042804
 21
1992.727754762352
 31
0.0
  0
TEXT
  5
6076
330
19
100
AcDbEntity
  8
0
100
AcDbText
 10
1342.197699370481
 20
1998.252558662395
 30
0.0
 40
9.9
  1
日本フォームサービス株式会社
 41
0.9200000000000001
100
AcDbText
  0
LINE
  5
6077
330
19
100
AcDbEntity
  8
0
100
AcDbLine
 10
1471.762693889184
 20
2013.794512294538
 30
0.0
 11
1472.910268889136
 21
2014.396983394529
 31
0.0
  0
LINE
  5
6078
330
19
100
AcDbEntity
  8
0
100
AcDbLine
 10
1469.366926889146
 20
2012.89608399455
 30
0.0
 11
1471.762693889184
 21
2013.794512294538
 31
0.0
  0
LINE
  5
6079
330
19
100
AcDbEntity
  8
0
100
AcDbLine
 10
1466.837344889158
 20
2012.392632694579
 30
0.0
 11
1469.366926889146
 21
2012.89608399455
 31
0.0
  0
LINE
  5
607A
330
19
100
AcDbEntity
  8
0
100
AcDbLine
 10
1464.250837889187
 20
2012.299453894563
 30
0.0
 11
1466.837344889158
 21
2012.392632694579
 31
0.0
  0
LINE
  5
607B
330
19
100
AcDbEntity
  8
0
100
AcDbLine
 10
1461.685945889134
 20
2012.619375694557
 30
0.0
 11
1464.250837889187
 21
2012.299453894563
 31
0.0
  0
LINE
  5
607C
330
19
100
AcDbEntity
  8
0
100
AcDbLine
 10
1459.220614889149
 20
2013.342679594541
 30
0.0
 11
1461.685945889134
 21
2012.619375694557
 31
0.0
  0
LINE
  5
607D
330
19
100
AcDbEntity
  8
0
100
AcDbLine
 10
1456.929787889159
 20
2014.447387594569
 30
0.0
 11
1459.220614889149
 21
2013.342679594541
 31
0.0
  0
LINE
  5
607E
330
19
100
AcDbEntity
  8
0
100
AcDbLine
 10
1454.883061889188
 20
2015.899938694564
 30
0.0
 11
1456.929787889159
 21
2014.447387594569
 31
0.0
  0
LINE
  5
607F
330
19
100
AcDbEntity
  8
0
100
AcDbLine
 10
1453.142608889182
 20
2017.656188794542
 30
0.0
 11
1454.883061889188
 21
2015.899938694564
 31
0.0
  0
LINE
  5
6080
330
19
100
AcDbEntity
  8
0
100
AcDbLine
 10
1451.761294889184
 20
2019.662783494582
 30
0.0
 11
1453.142608889182
 21
2017.656188794542
 31
0.0
  0
LINE
  5
6081
330
19
100
AcDbEntity
  8
0
100
AcDbLine
 10
1450.78112888916
 20
2021.858748694546
 30
0.0
 11
1451.761294889184
 21
2019.662783494582
 31
0.0
  0
LINE
  5
6082
330
19
100
AcDbEntity
  8
0
100
AcDbLine
 10
1450.231843889145
 20
2024.177361694586
 30
0.0
 11
1450.78112888916
 21
2021.858748694546
 31
0.0
  0
LINE
  5
6083
330
19
100
AcDbEntity
  8
0
100
AcDbLine
 10
1450.130203889137
 20
2026.548174094539
 30
0.0
 11
1450.231843889145
 21
2024.177361694586
 31
0.0
  0
LINE
  5
6084
330
19
100
AcDbEntity
  8
0
100
AcDbLine
 10
1450.479244889146
 20
2028.899150194556
 30
0.0
 11
1450.130203889137
 21
2026.548174094539
 31
0.0
  0
LINE
  5
6085
330
19
100
AcDbEntity
  8
0
100
AcDbLine
 10
1451.268340889168
 20
2031.158851594561
 30
0.0
 11
1450.479244889146
 21
2028.899150194556
 31
0.0
  0
LINE
  5
6086
330
19
100
AcDbEntity
  8
0
100
AcDbLine
 10
1452.473566889159
 20
2033.258628394585
 30
0.0
 11
1451.268340889168
 21
2031.158851594561
 31
0.0
  0
LINE
  5
6087
330
19
100
AcDbEntity
  8
0
100
AcDbLine
 10
1454.058292889131
 20
2035.13466849453
 30
0.0
 11
1452.473566889159
 21
2033.258628394585
 31
0.0
  0
LINE
  5
6088
330
19
100
AcDbEntity
  8
0
100
AcDbLine
 10
1455.974338889158
 20
2036.729977594586
 30
0.0
 11
1454.058292889131
 21
2035.13466849453
 31
0.0
  0
LINE
  5
6089
330
19
100
AcDbEntity
  8
0
100
AcDbLine
 10
1458.16349288918
 20
2037.996081994569
 30
0.0
 11
1455.974338889158
 21
2036.729977594586
 31
0.0
  0
LINE
  5
608A
330
19
100
AcDbEntity
  8
0
100
AcDbLine
 10
1460.559292889178
 20
2038.894506994532
 30
0.0
 11
1458.16349288918
 21
2037.996081994569
 31
0.0
  0
LINE
  5
608B
330
19
100
AcDbEntity
  8
0
100
AcDbLine
 10
1463.088874889166
 20
2039.397958294561
 30
0.0
 11
1460.559292889178
 21
2038.894506994532
 31
0.0
  0
LINE
  5
608C
330
19
100
AcDbEntity
  8
0
100
AcDbLine
 10
1465.675381889137
 20
2039.491140394543
 30
0.0
 11
1463.088874889166
 21
2039.397958294561
 31
0.0
  0
LINE
  5
608D
330
19
100
AcDbEntity
  8
0
100
AcDbLine
 10
1468.240273889132
 20
2039.17121859455
 30
0.0
 11
1465.675381889137
 21
2039.491140394543
 31
0.0
  0
LINE
  5
608E
330
19
100
AcDbEntity
  8
0
100
AcDbLine
 10
1470.705571889157
 20
2038.447914694566
 30
0.0
 11
1468.240273889132
 21
2039.17121859455
 31
0.0
  0
LINE
  5
608F
330
19
100
AcDbEntity
  8
0
100
AcDbLine
 10
1472.996398889146
 20
2037.343203394571
 30
0.0
 11
1470.705571889157
 21
2038.447914694566
 31
0.0
  0
ARC
  5
6090
330
19
100
AcDbEntity
  8
0
100
AcDbCircle
 10
1409.488492889133
 20
2032.907795494553
 30
0.0
 40
7.0125
100
AcDbArc
 50
270.0
 51
90.0
  0
LINE
  5
6091
330
19
100
AcDbEntity
  8
0
100
AcDbLine
 10
1375.734871889152
 20
2012.083366594582
 30
0.0
 11
1378.026853889147
 21
2011.870295494576
 31
0.0
  0
LINE
  5
6092
330
19
100
AcDbEntity
  8
0
100
AcDbLine
 10
1373.512552889158
 20
2012.716108594569
 30
0.0
 11
1375.734871889152
 21
2012.083366594582
 31
0.0
  0
LINE
  5
6093
330
19
100
AcDbEntity
  8
0
100
AcDbLine
 10
1371.427381889174
 20
2013.749289094542
 30
0.0
 11
1373.512552889158
 21
2012.716108594569
 31
0.0
  0
LINE
  5
6094
330
19
100
AcDbEntity
  8
0
100
AcDbLine
 10
1369.54271888917
 20
2015.15152179457
 30
0.0
 11
1371.427381889174
 21
2013.749289094542
 31
0.0
  0
LINE
  5
6095
330
19
100
AcDbEntity
  8
0
100
AcDbLine
 10
1367.915884889175
 20
2016.88020039456
 30
0.0
 11
1369.54271888917
 21
2015.15152179457
 31
0.0
  0
LINE
  5
6096
330
19
100
AcDbEntity
  8
0
100
AcDbLine
 10
1366.596214889178
 20
2018.882795494529
 30
0.0
 11
1367.915884889175
 21
2016.88020039456
 31
0.0
  0
LINE
  5
6097
330
19
100
AcDbEntity
  8
0
100
AcDbLine
 10
1365.623902889179
 20
2021.09846499453
 30
0.0
 11
1366.596214889178
 21
2018.882795494529
 31
0.0
  0
LINE
  5
6098
330
19
100
AcDbEntity
  8
0
100
AcDbLine
 10
1365.028417889181
 20
2023.45988229454
 30
0.0
 11
1365.623902889179
 21
2021.09846499453
 31
0.0
  0
LINE
  5
6099
330
19
100
AcDbEntity
  8
0
100
AcDbLine
 10
1364.827909889143
 20
2025.895295494541
 30
0.0
 11
1365.028417889181
 21
2023.45988229454
 31
0.0
  0
LINE
  5
609A
330
19
100
AcDbEntity
  8
0
100
AcDbLine
 10
1365.028417889181
 20
2028.330711994567
 30
0.0
 11
1364.827909889143
 21
2025.895295494541
 31
0.0
  0
LINE
  5
609B
330
19
100
AcDbEntity
  8
0
100
AcDbLine
 10
1365.623902889179
 20
2030.692129294576
 30
0.0
 11
1365.028417889181
 21
2028.330711994567
 31
0.0
  0
LINE
  5
609C
330
19
100
AcDbEntity
  8
0
100
AcDbLine
 10
1366.596214889178
 20
2032.907795494553
 30
0.0
 11
1365.623902889179
 21
2030.692129294576
 31
0.0
  0
LINE
  5
609D
330
19
100
AcDbEntity
  8
0
100
AcDbLine
 10
1367.915884889175
 20
2034.910393894547
 30
0.0
 11
1366.596214889178
 21
2032.907795494553
 31
0.0
  0
LINE
  5
609E
330
19
100
AcDbEntity
  8
0
100
AcDbLine
 10
1369.54271888917
 20
2036.63906919457
 30
0.0
 11
1367.915884889175
 21
2034.910393894547
 31
0.0
  0
LINE
  5
609F
330
19
100
AcDbEntity
  8
0
100
AcDbLine
 10
1371.427381889174
 20
2038.041301894539
 30
0.0
 11
1369.54271888917
 21
2036.63906919457
 31
0.0
  0
LINE
  5
60A0
330
19
100
AcDbEntity
  8
0
100
AcDbLine
 10
1373.512552889158
 20
2039.074485694538
 30
0.0
 11
1371.427381889174
 21
2038.041301894539
 31
0.0
  0
LINE
  5
60A1
330
19
100
AcDbEntity
  8
0
100
AcDbLine
 10
1375.734871889152
 20
2039.707224394557
 30
0.0
 11
1373.512552889158
 21
2039.074485694538
 31
0.0
  0
LINE
  5
60A2
330
19
100
AcDbEntity
  8
0
100
AcDbLine
 10
1378.026853889147
 20
2039.920295494564
 30
0.0
 11
1375.734871889152
 21
2039.707224394557
 31
0.0
  0
LINE
  5
60A3
330
19
100
AcDbEntity
  8
0
100
AcDbLine
 10
1380.318802889182
 20
2039.707224394557
 30
0.0
 11
1378.026853889147
 21
2039.920295494564
 31
0.0
  0
LINE
  5
60A4
330
19
100
AcDbEntity
  8
0
100
AcDbLine
 10
1382.541121889175
 20
2039.074485694538
 30
0.0
 11
1380.318802889182
 21
2039.707224394557
 31
0.0
  0
LINE
  5
60A5
330
19
100
AcDbEntity
  8
0
100
AcDbLine
 10
1384.626292889159
 20
2038.041301894539
 30
0.0
 11
1382.541121889175
 21
2039.074485694538
 31
0.0
  0
LINE
  5
60A6
330
19
100
AcDbEntity
  8
0
100
AcDbLine
 10
1386.510955889163
 20
2036.63906919457
 30
0.0
 11
1384.626292889159
 21
2038.041301894539
 31
0.0
  0
LINE
  5
60A7
330
19
100
AcDbEntity
  8
0
100
AcDbLine
 10
1388.137789889159
 20
2034.910393894547
 30
0.0
 11
1386.510955889163
 21
2036.63906919457
 31
0.0
  0
LINE
  5
60A8
330
19
100
AcDbEntity
  8
0
100
AcDbLine
 10
1389.457459889156
 20
2032.907795494553
 30
0.0
 11
1388.137789889159
 21
2034.910393894547
 31
0.0
  0
LINE
  5
60A9
330
19
100
AcDbEntity
  8
0
100
AcDbLine
 10
1390.429771889154
 20
2030.692129294576
 30
0.0
 11
1389.457459889156
 21
2032.907795494553
 31
0.0
  0
LINE
  5
60AA
330
19
100
AcDbEntity
  8
0
100
AcDbLine
 10
1391.025256889152
 20
2028.330711994567
 30
0.0
 11
1390.429771889154
 21
2030.692129294576
 31
0.0
  0
LINE
  5
60AB
330
19
100
AcDbEntity
  8
0
100
AcDbLine
 10
1391.225764889132
 20
2025.895295494541
 30
0.0
 11
1391.025256889152
 21
2028.330711994567
 31
0.0
  0
LINE
  5
60AC
330
19
100
AcDbEntity
  8
0
100
AcDbLine
 10
1391.025256889152
 20
2023.45988229454
 30
0.0
 11
1391.225764889132
 21
2025.895295494541
 31
0.0
  0
LINE
  5
60AD
330
19
100
AcDbEntity
  8
0
100
AcDbLine
 10
1390.429771889154
 20
2021.09846499453
 30
0.0
 11
1391.025256889152
 21
2023.45988229454
 31
0.0
  0
LINE
  5
60AE
330
19
100
AcDbEntity
  8
0
100
AcDbLine
 10
1389.457459889156
 20
2018.882795494529
 30
0.0
 11
1390.429771889154
 21
2021.09846499453
 31
0.0
  0
LINE
  5
60AF
330
19
100
AcDbEntity
  8
0
100
AcDbLine
 10
1388.137789889159
 20
2016.88020039456
 30
0.0
 11
1389.457459889156
 21
2018.882795494529
 31
0.0
  0
LINE
  5
60B0
330
19
100
AcDbEntity
  8
0
100
AcDbLine
 10
1386.510955889163
 20
2015.15152179457
 30
0.0
 11
1388.137789889159
 21
2016.88020039456
 31
0.0
  0
LINE
  5
60B1
330
19
100
AcDbEntity
  8
0
100
AcDbLine
 10
1384.626292889159
 20
2013.749289094542
 30
0.0
 11
1386.510955889163
 21
2015.15152179457
 31
0.0
  0
LINE
  5
60B2
330
19
100
AcDbEntity
  8
0
100
AcDbLine
 10
1382.541121889175
 20
2012.716108594569
 30
0.0
 11
1384.626292889159
 21
2013.749289094542
 31
0.0
  0
LINE
  5
60B3
330
19
100
AcDbEntity
  8
0
100
AcDbLine
 10
1380.318802889182
 20
2012.083366594582
 30
0.0
 11
1382.541121889175
 21
2012.716108594569
 31
0.0
  0
LINE
  5
60B4
330
19
100
AcDbEntity
  8
0
100
AcDbLine
 10
1378.026853889147
 20
2011.870295494576
 30
0.0
 11
1380.318802889182
 21
2012.083366594582
 31
0.0
  0
ARC
  5
60B5
330
19
100
AcDbEntity
  8
0
100
AcDbCircle
 10
1317.205074829551
 20
2038.897149386539
 30
0.0
 40
20.9088039204
100
AcDbArc
 50
90.0
 51
180.0
  0
LINE
  5
60B6
330
19
100
AcDbEntity
  8
0
100
AcDbLine
 10
1282.233601042804
 20
2104.727754762352
 30
0.0
 11
1282.233601042804
 21
1992.727764662369
 31
0.0
  0
LINE
  5
60B7
330
19
100
AcDbEntity
  8
0
100
AcDbLine
 10
1301.045708749538
 20
2052.165633415294
 30
0.0
 11
1303.93661170957
 21
2055.056525920939
 31
0.0
  0
LINE
  5
60B8
330
19
100
AcDbEntity
  8
0
100
AcDbLine
 10
1299.938483245532
 20
2050.688735100105
 30
0.0
 11
1305.413504797536
 21
2056.163788015328
 31
0.0
  0
LINE
  5
60B9
330
19
100
AcDbEntity
  8
0
100
AcDbLine
 10
1299.278836741556
 20
2049.659473284103
 30
0.0
 11
1306.442740477541
 21
2056.823397928921
 31
0.0
  0
LINE
  5
60BA
330
19
100
AcDbEntity
  8
0
100
AcDbLine
 10
1298.791400341528
 20
2048.802432026495
 30
0.0
 11
1307.29976605354
 21
2057.310821260921
 31
0.0
  0
LINE
  5
60BB
330
19
100
AcDbEntity
  8
0
100
AcDbLine
 10
1298.403646645522
 20
2048.045013360111
 30
0.0
 11
1308.057187333565
 21
2057.698595865701
 31
0.0
  0
LINE
  5
60BC
330
19
100
AcDbEntity
  8
0
100
AcDbLine
 10
1298.083323829553
 20
2047.35511443614
 30
0.0
 11
1308.747099325563
 21
2058.01888731851
 31
0.0
  0
LINE
  5
60BD
330
19
100
AcDbEntity
  8
0
100
AcDbLine
 10
1297.812816229569
 20
2046.714936638498
 30
0.0
 11
1309.387274509565
 21
2058.28942105449
 31
0.0
  0
LINE
  5
60BE
330
19
100
AcDbEntity
  8
0
100
AcDbLine
 10
1297.581094453555
 20
2046.113570800938
 30
0.0
 11
1309.988663869539
 21
2058.521153284891
 31
0.0
  0
LINE
  5
60BF
330
19
100
AcDbEntity
  8
0
100
AcDbLine
 10
1297.380814285578
 20
2045.543691002545
 30
0.0
 11
1310.558533213545
 21
2058.721415157735
 31
0.0
  0
LINE
  5
60C0
330
19
100
AcDbEntity
  8
0
100
AcDbLine
 10
1297.206774661528
 20
2045.000009930532
 30
0.0
 11
1311.102214285558
 21
2058.89547830414
 31
0.0
  0
LINE
  5
60C1
330
19
100
AcDbEntity
  8
0
100
AcDbLine
 10
1297.055002909539
 20
2044.478633320904
 30
0.0
 11
1311.623601349573
 21
2059.04721869291
 31
0.0
  0
LINE
  5
60C2
330
19
100
AcDbEntity
  8
0
100
AcDbLine
 10
1296.922676341528
 20
2043.976626100906
 30
0.0
 11
1312.125647773537
 21
2059.179584464945
 31
0.0
  0
LINE
  5
60C3
330
19
100
AcDbEntity
  8
0
100
AcDbLine
 10
1296.807312037541
 20
2043.491690916139
 30
0.0
 11
1312.61054898156
 21
2059.294901724104
 31
0.0
  0
LINE
  5
60C4
330
19
100
AcDbEntity
  8
0
100
AcDbLine
 10
1296.707132749528
 20
2043.021883248132
 30
0.0
 11
1313.080317445543
 21
2059.395067944089
 31
0.0
  0
LINE
  5
60C5
330
19
100
AcDbEntity
  8
0
100
AcDbLine
 10
1296.620596453526
 20
2042.565749935295
 30
0.0
 11
1313.536495189568
 21
2059.481596399345
 31
0.0
  0
LINE
  5
60C6
330
19
100
AcDbEntity
  8
0
100
AcDbLine
 10
1296.546422485531
 20
2042.121913610506
 30
0.0
 11
1313.980336741522
 21
2059.555783435309
 31
0.0
  0
LINE
  5
60C7
330
19
100
AcDbEntity
  8
0
100
AcDbLine
 10
1296.483565405571
 20
2041.689412468942
 30
0.0
 11
1314.41278299757
 21
2059.618666651323
 31
0.0
  0
LINE
  5
60C8
330
19
100
AcDbEntity
  8
0
100
AcDbLine
 10
1296.431058181544
 20
2041.267248115341
 30
0.0
 11
1314.834957805557
 21
2059.671186943319
 31
0.0
  0
LINE
  5
60C9
330
19
100
AcDbEntity
  8
0
100
AcDbLine
 10
1296.388116733556
 20
2040.854712264102
 30
0.0
 11
1315.247488429573
 21
2059.714112709698
 31
0.0
  0
LINE
  5
60CA
330
19
100
AcDbEntity
  8
0
100
AcDbLine
 10
1296.354087661522
 20
2040.451052198491
 30
0.0
 11
1315.651158949571
 21
2059.748131327345
 31
0.0
  0
LINE
  5
60CB
330
19
100
AcDbEntity
  8
0
100
AcDbLine
 10
1296.328422109574
 20
2040.055703380915
 30
0.0
 11
1316.046492085537
 21
2059.773828242512
 31
0.0
  0
LINE
  5
60CC
330
19
100
AcDbEntity
  8
0
100
AcDbLine
 10
1296.310492813565
 20
2039.668195363322
 30
0.0
 11
1316.434010557576
 21
2059.791734016107
 31
0.0
  0
LINE
  5
60CD
330
19
100
AcDbEntity
  8
0
100
AcDbLine
 10
1296.299907733548
 20
2039.288021107334
 30
0.0
 11
1316.81421094956
 21
2059.802300800932
 31
0.0
  0
LINE
  5
60CE
330
19
100
AcDbEntity
  8
0
100
AcDbLine
 10
1296.296274829576
 20
2038.914731073731
 30
0.0
 11
1317.187485301554
 21
2059.805946772932
 31
0.0
  0
LINE
  5
60CF
330
19
100
AcDbEntity
  8
0
100
AcDbLine
 10
1296.296274829576
 20
2038.545073944099
 30
0.0
 11
1317.557152885572
 21
2059.805954613736
 31
0.0
  0
LINE
  5
60D0
330
19
100
AcDbEntity
  8
0
100
AcDbLine
 10
1296.296274829576
 20
2038.175463859297
 30
0.0
 11
1317.926742061543
 21
2059.805954613736
 31
0.0
  0
LINE
  5
60D1
330
19
100
AcDbEntity
  8
0
100
AcDbLine
 10
1296.296274829576
 20
2037.805811956888
 30
0.0
 11
1318.296409645562
 21
2059.805954613736
 31
0.0
  0
LINE
  5
60D2
330
19
100
AcDbEntity
  8
0
100
AcDbLine
 10
1296.296274829576
 20
2037.43620971289
 30
0.0
 11
1318.666051093525
 21
2059.805954613736
 31
0.0
  0
LINE
  5
60D3
330
19
100
AcDbEntity
  8
0
100
AcDbLine
 10
1296.296274829576
 20
2037.066568264926
 30
0.0
 11
1319.03566640555
 21
2059.805954613736
 31
0.0
  0
LINE
  5
60D4
330
19
100
AcDbEntity
  8
0
100
AcDbLine
 10
1296.296274829576
 20
2036.696926816904
 30
0.0
 11
1319.405307853572
 21
2059.805954613736
 31
0.0
  0
LINE
  5
60D5
330
19
100
AcDbEntity
  8
0
100
AcDbLine
 10
1296.296274829576
 20
2036.327306277714
 30
0.0
 11
1319.774897029543
 21
2059.805954613736
 31
0.0
  0
LINE
  5
60D6
330
19
100
AcDbEntity
  8
0
100
AcDbLine
 10
1296.296274829576
 20
2035.957704033716
 30
0.0
 11
1320.144512341569
 21
2059.805954613736
 31
0.0
  0
LINE
  5
60D7
330
19
100
AcDbEntity
  8
0
100
AcDbLine
 10
1296.296274829576
 20
2035.58805474489
 30
0.0
 11
1320.514153789532
 21
2059.805954613736
 31
0.0
  0
LINE
  5
60D8
330
19
100
AcDbEntity
  8
0
100
AcDbLine
 10
1296.296274829576
 20
2035.218413296926
 30
0.0
 11
1320.88382137355
 21
2059.805954613736
 31
0.0
  0
LINE
  5
60D9
330
19
100
AcDbEntity
  8
0
100
AcDbLine
 10
1296.296274829576
 20
2034.848792757737
 30
0.0
 11
1321.253410549521
 21
2059.805954613736
 31
0.0
  0
LINE
  5
60DA
330
19
100
AcDbEntity
  8
0
100
AcDbLine
 10
1296.296274829576
 20
2034.479190513738
 30
0.0
 11
1321.62307813354
 21
2059.805954613736
 31
0.0
  0
LINE
  5
60DB
330
19
100
AcDbEntity
  8
0
100
AcDbLine
 10
1296.296274829576
 20
2034.109549065716
 30
0.0
 11
1321.992667309569
 21
2059.805954613736
 31
0.0
  0
LINE
  5
60DC
330
19
100
AcDbEntity
  8
0
100
AcDbLine
 10
1296.296274829576
 20
2033.739897163307
 30
0.0
 11
1322.362334893529
 21
2059.805954613736
 31
0.0
  0
LINE
  5
60DD
330
19
100
AcDbEntity
  8
0
100
AcDbLine
 10
1296.296274829576
 20
2033.3702792377
 30
0.0
 11
1322.731924069558
 21
2059.805954613736
 31
0.0
  0
LINE
  5
60DE
330
19
100
AcDbEntity
  8
0
100
AcDbLine
 10
1296.296274829576
 20
2033.000637789736
 30
0.0
 11
1323.101565517521
 21
2059.805954613736
 31
0.0
  0
LINE
  5
60DF
330
19
100
AcDbEntity
  8
0
100
AcDbLine
 10
1296.296274829576
 20
2032.631035545738
 30
0.0
 11
1323.47123310154
 21
2059.805954613736
 31
0.0
  0
LINE
  5
60E0
330
19
100
AcDbEntity
  8
0
100
AcDbLine
 10
1296.296274829576
 20
2032.261394097716
 30
0.0
 11
1323.840822277569
 21
2059.805954613736
 31
0.0
  0
LINE
  5
60E1
330
19
100
AcDbEntity
  8
0
100
AcDbLine
 10
1296.296274829576
 20
2031.891750036112
 30
0.0
 11
1324.210489861529
 21
2059.805954613736
 31
0.0
  0
LINE
  5
60E2
330
19
100
AcDbEntity
  8
0
100
AcDbLine
 10
1296.296274829576
 20
2031.5221242697
 30
0.0
 11
1324.580079037558
 21
2059.805954613736
 31
0.0
  0
LINE
  5
60E3
330
19
100
AcDbEntity
  8
0
100
AcDbLine
 10
1296.296274829576
 20
2031.152522025702
 30
0.0
 11
1324.949746621576
 21
2059.805954613736
 31
0.0
  0
LINE
  5
60E4
330
19
100
AcDbEntity
  8
0
100
AcDbLine
 10
1296.296274829576
 20
2030.782880577738
 30
0.0
 11
1325.319335797547
 21
2059.805954613736
 31
0.0
  0
LINE
  5
60E5
330
19
100
AcDbEntity
  8
0
100
AcDbLine
 10
1296.296274829576
 20
2030.413236516134
 30
0.0
 11
1325.689003381565
 21
2059.805954613736
 31
0.0
  0
LINE
  5
60E6
330
19
100
AcDbEntity
  8
0
100
AcDbLine
 10
1296.296274829576
 20
2030.043618590527
 30
0.0
 11
1326.058592557536
 21
2059.805954613736
 31
0.0
  0
LINE
  5
60E7
330
19
100
AcDbEntity
  8
0
100
AcDbLine
 10
1296.296274829576
 20
2029.673977142504
 30
0.0
 11
1326.428260141554
 21
2059.805954613736
 31
0.0
  0
LINE
  5
60E8
330
19
100
AcDbEntity
  8
0
100
AcDbLine
 10
1296.296274829576
 20
2029.304367057702
 30
0.0
 11
1326.797901589576
 21
2059.805954613736
 31
0.0
  0
LINE
  5
60E9
330
19
100
AcDbEntity
  8
0
100
AcDbLine
 10
1296.296274829576
 20
2028.934722996098
 30
0.0
 11
1327.167490765547
 21
2059.805954613736
 31
0.0
  0
LINE
  5
60EA
330
19
100
AcDbEntity
  8
0
100
AcDbLine
 10
1296.296274829576
 20
2028.56510507049
 30
0.0
 11
1327.537106077572
 21
2059.805954613736
 31
0.0
  0
LINE
  5
60EB
330
19
100
AcDbEntity
  8
0
100
AcDbLine
 10
1312.225173661522
 20
2044.124352000144
 30
0.0
 11
1327.906747525536
 21
2059.805954613736
 31
0.0
  0
LINE
  5
60EC
330
19
100
AcDbEntity
  8
0
100
AcDbLine
 10
1296.543573661569
 20
2028.44274677291
 30
0.0
 11
1311.977874829528
 21
2043.877058395315
 31
0.0
  0
LINE
  5
60ED
330
19
100
AcDbEntity
  8
0
100
AcDbLine
 10
1312.59476283755
 20
2044.124352000144
 30
0.0
 11
1328.276336701565
 21
2059.805954613736
 31
0.0
  0
LINE
  5
60EE
330
19
100
AcDbEntity
  8
0
100
AcDbLine
 10
1296.91316283754
 20
2028.44274677291
 30
0.0
 11
1311.977874829528
 21
2043.507440469707
 31
0.0
  0
LINE
  5
60EF
330
19
100
AcDbEntity
  8
0
100
AcDbLine
 10
1312.964430421569
 20
2044.124352000144
 30
0.0
 11
1328.646082693573
 21
2059.805954613736
 31
0.0
  0
LINE
  5
60F0
330
19
100
AcDbEntity
  8
0
100
AcDbLine
 10
1297.282830421558
 20
2028.44274677291
 30
0.0
 11
1311.977874829528
 21
2043.137788567298
 31
0.0
  0
LINE
  5
60F1
330
19
100
AcDbEntity
  8
0
100
AcDbLine
 10
1313.334071869532
 20
2044.124352000144
 30
0.0
 11
1329.015671869543
 21
2059.805954613736
 31
0.0
  0
LINE
  5
60F2
330
19
100
AcDbEntity
  8
0
100
AcDbLine
 10
1297.652498005576
 20
2028.44274677291
 30
0.0
 11
1311.977874829528
 21
2042.768147119335
 31
0.0
  0
LINE
  5
60F3
330
19
100
AcDbEntity
  8
0
100
AcDbLine
 10
1313.703661045561
 20
2044.124352000144
 30
0.0
 11
1329.385261045572
 21
2059.805954613736
 31
0.0
  0
LINE
  5
60F4
330
19
100
AcDbEntity
  8
0
100
AcDbLine
 10
1298.022087181547
 20
2028.44274677291
 30
0.0
 11
1311.977874829528
 21
2042.398544875337
 31
0.0
  0
LINE
  5
60F5
330
19
100
AcDbEntity
  8
0
100
AcDbLine
 10
1314.073276357529
 20
2044.124352000144
 30
0.0
 11
1329.754928629532
 21
2059.805954613736
 31
0.0
  0
LINE
  5
60F6
330
19
100
AcDbEntity
  8
0
100
AcDbLine
 10
1298.391676357576
 20
2028.44274677291
 30
0.0
 11
1311.977874829528
 21
2042.028934790534
 31
0.0
  0
LINE
  5
60F7
330
19
100
AcDbEntity
  8
0
100
AcDbLine
 10
1314.442917805551
 20
2044.124352000144
 30
0.0
 11
1330.124517805561
 21
2059.805954613736
 31
0.0
  0
LINE
  5
60F8
330
19
100
AcDbEntity
  8
0
100
AcDbLine
 10
1298.761343941536
 20
2028.44274677291
 30
0.0
 11
1311.977874829528
 21
2041.659290728929
 31
0.0
  0
LINE
  5
60F9
330
19
100
AcDbEntity
  8
0
100
AcDbLine
 10
1314.812585389569
 20
2044.124352000144
 30
0.0
 11
1330.494159253525
 21
2059.805954613736
 31
0.0
  0
LINE
  5
60FA
330
19
100
AcDbEntity
  8
0
100
AcDbLine
 10
1299.130985389558
 20
2028.44274677291
 30
0.0
 11
1311.977874829528
 21
2041.289641440103
 31
0.0
  0
LINE
  5
60FB
330
19
100
AcDbEntity
  8
0
100
AcDbLine
 10
1315.18217456554
 20
2044.124352000144
 30
0.0
 11
1330.86377456555
 21
2059.805954613736
 31
0.0
  0
LINE
  5
60FC
330
19
100
AcDbEntity
  8
0
100
AcDbLine
 10
1299.500600701525
 20
2028.44274677291
 30
0.0
 11
1311.977874829528
 21
2040.9200313553
 31
0.0
  0
LINE
  5
60FD
330
19
100
AcDbEntity
  8
0
100
AcDbLine
 10
1315.551842149558
 20
2044.124352000144
 30
0.0
 11
1331.233416013572
 21
2059.805954613736
 31
0.0
  0
LINE
  5
60FE
330
19
100
AcDbEntity
  8
0
100
AcDbLine
 10
1299.870242149547
 20
2028.44274677291
 30
0.0
 11
1311.977874829528
 21
2040.550387293696
 31
0.0
  0
LINE
  5
60FF
330
19
100
AcDbEntity
  8
0
100
AcDbLine
 10
1315.921431325529
 20
2044.124352000144
 30
0.0
 11
1331.603083597532
 21
2059.805954613736
 31
0.0
  0
LINE
  5
6100
330
19
100
AcDbEntity
  8
0
100
AcDbLine
 10
1300.239831325576
 20
2028.44274677291
 30
0.0
 11
1311.977874829528
 21
2040.180777208894
 31
0.0
  0
LINE
  5
6101
330
19
100
AcDbEntity
  8
0
100
AcDbLine
 10
1316.291098909547
 20
2044.124352000144
 30
0.0
 11
1331.972672773561
 21
2059.805954613736
 31
0.0
  0
LINE
  5
6102
330
19
100
AcDbEntity
  8
0
100
AcDbLine
 10
1300.609498909536
 20
2028.44274677291
 30
0.0
 11
1311.977874829528
 21
2039.811127920125
 31
0.0
  0
LINE
  5
6103
330
19
100
AcDbEntity
  8
0
100
AcDbLine
 10
1316.660740357569
 20
2044.124352000144
 30
0.0
 11
1332.342340357521
 21
2059.805954613736
 31
0.0
  0
LINE
  5
6104
330
19
100
AcDbEntity
  8
0
100
AcDbLine
 10
1300.979088085565
 20
2028.44274677291
 30
0.0
 11
1311.977874829528
 21
2039.441491699326
 31
0.0
  0
LINE
  5
6105
330
19
100
AcDbEntity
  8
0
100
AcDbLine
 10
1317.03032953354
 20
2044.124352000144
 30
0.0
 11
1332.71192953355
 21
2059.805954613736
 31
0.0
  0
LINE
  5
6106
330
19
100
AcDbEntity
  8
0
100
AcDbLine
 10
1301.348755669525
 20
2028.44274677291
 30
0.0
 11
1311.977874829528
 21
2039.071881614523
 31
0.0
  0
LINE
  5
6107
330
19
100
AcDbEntity
  8
0
100
AcDbLine
 10
1317.399944845565
 20
2044.124352000144
 30
0.0
 11
1332.886674829562
 21
2059.611061075309
 31
0.0
  0
LINE
  5
6108
330
19
100
AcDbEntity
  8
0
100
AcDbLine
 10
1301.718344845554
 20
2028.44274677291
 30
0.0
 11
1311.977874829528
 21
2038.70225584811
 31
0.0
  0
LINE
  5
6109
330
19
100
AcDbEntity
  8
0
100
AcDbLine
 10
1317.769586293529
 20
2044.124352000144
 30
0.0
 11
1332.886674829562
 21
2059.241417013705
 31
0.0
  0
LINE
  5
610A
330
19
100
AcDbEntity
  8
0
100
AcDbLine
 10
1302.088012429573
 20
2028.44274677291
 30
0.0
 11
1311.977874829528
 21
2038.332622240893
 31
0.0
  0
LINE
  5
610B
330
19
100
AcDbEntity
  8
0
100
AcDbLine
 10
1318.139253877547
 20
2044.124352000144
 30
0.0
 11
1332.886674829562
 21
2058.871775565741
 31
0.0
  0
LINE
  5
610C
330
19
100
AcDbEntity
  8
0
100
AcDbLine
 10
1302.457653877536
 20
2028.44274677291
 30
0.0
 11
1311.977874829528
 21
2037.962970338543
 31
0.0
  0
LINE
  5
610D
330
19
100
AcDbEntity
  8
0
100
AcDbLine
 10
1318.508843053576
 20
2044.124352000144
 30
0.0
 11
1332.886674829562
 21
2058.50218116249
 31
0.0
  0
LINE
  5
610E
330
19
100
AcDbEntity
  8
0
100
AcDbLine
 10
1302.827269189562
 20
2028.44274677291
 30
0.0
 11
1311.977874829528
 21
2037.593368094545
 31
0.0
  0
LINE
  5
610F
330
19
100
AcDbEntity
  8
0
100
AcDbLine
 10
1318.878510637536
 20
2044.124352000144
 30
0.0
 11
1332.886674829562
 21
2058.132539714526
 31
0.0
  0
LINE
  5
6110
330
19
100
AcDbEntity
  8
0
100
AcDbLine
 10
1303.196910637525
 20
2028.44274677291
 30
0.0
 11
1311.977874829528
 21
2037.223726646523
 31
0.0
  0
LINE
  5
6111
330
19
100
AcDbEntity
  8
0
100
AcDbLine
 10
1319.248099813565
 20
2044.124352000144
 30
0.0
 11
1332.886674829562
 21
2057.762895652922
 31
0.0
  0
LINE
  5
6112
330
19
100
AcDbEntity
  8
0
100
AcDbLine
 10
1303.566499813554
 20
2028.44274677291
 30
0.0
 11
1311.977874829528
 21
2036.854108720915
 31
0.0
  0
LINE
  5
6113
330
19
100
AcDbEntity
  8
0
100
AcDbLine
 10
1319.617767397525
 20
2044.124352000144
 30
0.0
 11
1332.886674829562
 21
2057.3932542049
 31
0.0
  0
LINE
  5
6114
330
19
100
AcDbEntity
  8
0
100
AcDbLine
 10
1303.936167397573
 20
2028.44274677291
 30
0.0
 11
1311.977874829528
 21
2036.484464659311
 31
0.0
  0
LINE
  5
6115
330
19
100
AcDbEntity
  8
0
100
AcDbLine
 10
1319.987356573554
 20
2044.124352000144
 30
0.0
 11
1332.886674829562
 21
2057.023667642511
 31
0.0
  0
LINE
  5
6116
330
19
100
AcDbEntity
  8
0
100
AcDbLine
 10
1304.305756573543
 20
2028.44274677291
 30
0.0
 11
1311.977874829528
 21
2036.114854574508
 31
0.0
  0
LINE
  5
6117
330
19
100
AcDbEntity
  8
0
100
AcDbLine
 10
1320.356998021576
 20
2044.124352000144
 30
0.0
 11
1332.886674829562
 21
2056.65402619449
 31
0.0
  0
LINE
  5
6118
330
19
100
AcDbEntity
  8
0
100
AcDbLine
 10
1304.675424157562
 20
2028.44274677291
 30
0.0
 11
1311.977874829528
 21
2035.745213126545
 31
0.0
  0
LINE
  5
6119
330
19
100
AcDbEntity
  8
0
100
AcDbLine
 10
1320.726613333543
 20
2044.124352000144
 30
0.0
 11
1332.886674829562
 21
2056.284397814495
 31
0.0
  0
LINE
  5
611A
330
19
100
AcDbEntity
  8
0
100
AcDbLine
 10
1305.045013333532
 20
2028.44274677291
 30
0.0
 11
1311.977874829528
 21
2035.375603041742
 31
0.0
  0
LINE
  5
611B
330
19
100
AcDbEntity
  8
0
100
AcDbLine
 10
1321.096254781565
 20
2044.124352000144
 30
0.0
 11
1332.886674829562
 21
2055.914756366531
 31
0.0
  0
LINE
  5
611C
330
19
100
AcDbEntity
  8
0
100
AcDbLine
 10
1305.414680917551
 20
2028.44274677291
 30
0.0
 11
1311.977874829528
 21
2035.005958980137
 31
0.0
  0
LINE
  5
611D
330
19
100
AcDbEntity
  8
0
100
AcDbLine
 10
1321.465922365525
 20
2044.124352000144
 30
0.0
 11
1332.886674829562
 21
2055.545096623317
 31
0.0
  0
LINE
  5
611E
330
19
100
AcDbEntity
  8
0
100
AcDbLine
 10
1305.784322365572
 20
2028.44274677291
 30
0.0
 11
1311.977874829528
 21
2034.636309691311
 31
0.0
  0
LINE
  5
611F
330
19
100
AcDbEntity
  8
0
100
AcDbLine
 10
1321.835511541554
 20
2044.124352000144
 30
0.0
 11
1332.886674829562
 21
2055.175512674511
 31
0.0
  0
LINE
  5
6120
330
19
100
AcDbEntity
  8
0
100
AcDbLine
 10
1306.15393767754
 20
2028.44274677291
 30
0.0
 11
1311.977874829528
 21
2034.266699606508
 31
0.0
  0
LINE
  5
6121
330
19
100
AcDbEntity
  8
0
100
AcDbLine
 10
1322.205100717525
 20
2044.124352000144
 30
0.0
 11
1332.886674829562
 21
2054.805884294517
 31
0.0
  0
LINE
  5
6122
330
19
100
AcDbEntity
  8
0
100
AcDbLine
 10
1306.523526853569
 20
2028.44274677291
 30
0.0
 11
1311.977874829528
 21
2033.897081680901
 31
0.0
  0
LINE
  5
6123
330
19
100
AcDbEntity
  8
0
100
AcDbLine
 10
1322.574768301543
 20
2044.124352000144
 30
0.0
 11
1332.886674829562
 21
2054.436242846495
 31
0.0
  0
LINE
  5
6124
330
19
100
AcDbEntity
  8
0
100
AcDbLine
 10
1306.893194437529
 20
2028.44274677291
 30
0.0
 11
1311.977874829528
 21
2033.527437619297
 31
0.0
  0
LINE
  5
6125
330
19
100
AcDbEntity
  8
0
100
AcDbLine
 10
1322.944435885561
 20
2044.124352000144
 30
0.0
 11
1332.886674829562
 21
2054.066601398531
 31
0.0
  0
LINE
  5
6126
330
19
100
AcDbEntity
  8
0
100
AcDbLine
 10
1307.262835885551
 20
2028.44274677291
 30
0.0
 11
1311.977874829528
 21
2033.157804012137
 31
0.0
  0
LINE
  5
6127
330
19
100
AcDbEntity
  8
0
100
AcDbLine
 10
1323.314025061532
 20
2044.124352000144
 30
0.0
 11
1332.886674829562
 21
2053.697006995338
 31
0.0
  0
LINE
  5
6128
330
19
100
AcDbEntity
  8
0
100
AcDbLine
 10
1307.632425061522
 20
2028.44274677291
 30
0.0
 11
1311.977874829528
 21
2032.788193927335
 31
0.0
  0
LINE
  5
6129
330
19
100
AcDbEntity
  8
0
100
AcDbLine
 10
1323.683692645551
 20
2044.124352000144
 30
0.0
 11
1332.886674829562
 21
2053.327355092929
 31
0.0
  0
LINE
  5
612A
330
19
100
AcDbEntity
  8
0
100
AcDbLine
 10
1308.00209264554
 20
2028.44274677291
 30
0.0
 11
1311.977874829528
 21
2032.418542024926
 31
0.0
  0
LINE
  5
612B
330
19
100
AcDbEntity
  8
0
100
AcDbLine
 10
1324.053281821521
 20
2044.124352000144
 30
0.0
 11
1332.886674829562
 21
2052.957721485712
 31
0.0
  0
LINE
  5
612C
330
19
100
AcDbEntity
  8
0
100
AcDbLine
 10
1308.371681821569
 20
2028.44274677291
 30
0.0
 11
1311.977874829528
 21
2032.048924099318
 31
0.0
  0
LINE
  5
612D
330
19
100
AcDbEntity
  8
0
100
AcDbLine
 10
1324.422923269543
 20
2044.124352000144
 30
0.0
 11
1332.886674829562
 21
2052.588077424108
 31
0.0
  0
LINE
  5
612E
330
19
100
AcDbEntity
  8
0
100
AcDbLine
 10
1308.741349405529
 20
2028.44274677291
 30
0.0
 11
1311.977874829528
 21
2031.679290492101
 31
0.0
  0
LINE
  5
612F
330
19
100
AcDbEntity
  8
0
100
AcDbLine
 10
1324.792590853562
 20
2044.124352000144
 30
0.0
 11
1332.886674829562
 21
2052.218443816891
 31
0.0
  0
LINE
  5
6130
330
19
100
AcDbEntity
  8
0
100
AcDbLine
 10
1309.110938581558
 20
2028.44274677291
 30
0.0
 11
1311.977874829528
 21
2031.309649044138
 31
0.0
  0
LINE
  5
6131
330
19
100
AcDbEntity
  8
0
100
AcDbLine
 10
1325.162180029532
 20
2044.124352000144
 30
0.0
 11
1332.886674829562
 21
2051.848849413698
 31
0.0
  0
LINE
  5
6132
330
19
100
AcDbEntity
  8
0
100
AcDbLine
 10
1309.480606165576
 20
2028.44274677291
 30
0.0
 11
1311.977874829528
 21
2030.94002850489
 31
0.0
  0
LINE
  5
6133
330
19
100
AcDbEntity
  8
0
100
AcDbLine
 10
1325.531769205561
 20
2044.124352000144
 30
0.0
 11
1332.886674829562
 21
2051.479215806538
 31
0.0
  0
LINE
  5
6134
330
19
100
AcDbEntity
  8
0
100
AcDbLine
 10
1309.850195341547
 20
2028.44274677291
 30
0.0
 11
1311.977874829528
 21
2030.570418420145
 31
0.0
  0
LINE
  5
6135
330
19
100
AcDbEntity
  8
0
100
AcDbLine
 10
1325.901436789521
 20
2044.124352000144
 30
0.0
 11
1332.886674829562
 21
2051.109571744934
 31
0.0
  0
LINE
  5
6136
330
19
100
AcDbEntity
  8
0
100
AcDbLine
 10
1310.219862925565
 20
2028.44274677291
 30
0.0
 11
1311.977874829528
 21
2030.200769131318
 31
0.0
  0
LINE
  5
6137
330
19
100
AcDbEntity
  8
0
100
AcDbLine
 10
1326.27110437354
 20
2044.124352000144
 30
0.0
 11
1332.886674829562
 21
2050.739922456108
 31
0.0
  0
LINE
  5
6138
330
19
100
AcDbEntity
  8
0
100
AcDbLine
 10
1310.589504373529
 20
2028.44274677291
 30
0.0
 11
1311.977874829528
 21
2029.831125069714
 31
0.0
  0
LINE
  5
6139
330
19
100
AcDbEntity
  8
0
100
AcDbLine
 10
1326.640693549569
 20
2044.124352000144
 30
0.0
 11
1332.886674829562
 21
2050.370335893719
 31
0.0
  0
LINE
  5
613A
330
19
100
AcDbEntity
  8
0
100
AcDbLine
 10
1310.959093549558
 20
2028.44274677291
 30
0.0
 11
1311.977874829528
 21
2029.461525439298
 31
0.0
  0
LINE
  5
613B
330
19
100
AcDbEntity
  8
0
100
AcDbLine
 10
1327.010282725539
 20
2044.124352000144
 30
0.0
 11
1332.886674829562
 21
2050.000710127307
 31
0.0
  0
LINE
  5
613C
330
19
100
AcDbEntity
  8
0
100
AcDbLine
 10
1311.328708861525
 20
2028.44274677291
 30
0.0
 11
1311.977874829528
 21
2029.091904900109
 31
0.0
  0
LINE
  5
613D
330
19
100
AcDbEntity
  8
0
100
AcDbLine
 10
1327.379950309558
 20
2044.124352000144
 30
0.0
 11
1332.886674829562
 21
2049.631068679343
 31
0.0
  0
LINE
  5
613E
330
19
100
AcDbEntity
  8
0
100
AcDbLine
 10
1311.698350309547
 20
2028.44274677291
 30
0.0
 11
1311.977874829528
 21
2028.722263452145
 31
0.0
  0
LINE
  5
613F
330
19
100
AcDbEntity
  8
0
100
AcDbLine
 10
1327.749591757521
 20
2044.124352000144
 30
0.0
 11
1332.886674829562
 21
2049.261416776934
 31
0.0
  0
LINE
  5
6140
330
19
100
AcDbEntity
  8
0
100
AcDbLine
 10
1311.977874829528
 20
2028.352622004123
 30
0.0
 11
1312.068017893565
 21
2028.44274677291
 31
0.0
  0
LINE
  5
6141
330
19
100
AcDbEntity
  8
0
100
AcDbLine
 10
1296.296274829576
 20
2012.671037685722
 30
0.0
 11
1296.386365621561
 21
2012.761144159317
 31
0.0
  0
LINE
  5
6142
330
19
100
AcDbEntity
  8
0
100
AcDbLine
 10
1328.119207069547
 20
2044.124352000144
 30
0.0
 11
1332.886674829562
 21
2048.891814532936
 31
0.0
  0
LINE
  5
6143
330
19
100
AcDbEntity
  8
0
100
AcDbLine
 10
1311.977874829528
 20
2027.983001464933
 30
0.0
 11
1312.437607069536
 21
2028.44274677291
 31
0.0
  0
LINE
  5
6144
330
19
100
AcDbEntity
  8
0
100
AcDbLine
 10
1296.296274829576
 20
2012.30141191931
 30
0.0
 11
1296.756033205522
 21
2012.761144159317
 31
0.0
  0
LINE
  5
6145
330
19
100
AcDbEntity
  8
0
100
AcDbLine
 10
1328.488848517569
 20
2044.124352000144
 30
0.0
 11
1332.886674829562
 21
2048.522180925719
 31
0.0
  0
LINE
  5
6146
330
19
100
AcDbEntity
  8
0
100
AcDbLine
 10
1311.977874829528
 20
2027.613360016911
 30
0.0
 11
1312.807274653554
 21
2028.44274677291
 31
0.0
  0
LINE
  5
6147
330
19
100
AcDbEntity
  8
0
100
AcDbLine
 10
1296.296274829576
 20
2011.931767857705
 30
0.0
 11
1297.125674653544
 21
2012.761144159317
 31
0.0
  0
LINE
  5
6148
330
19
100
AcDbEntity
  8
0
100
AcDbLine
 10
1328.858437693539
 20
2044.124352000144
 30
0.0
 11
1332.886674829562
 21
2048.15254470492
 31
0.0
  0
LINE
  5
6149
330
19
100
AcDbEntity
  8
0
100
AcDbLine
 10
1311.977874829528
 20
2027.243749932109
 30
0.0
 11
1313.176863829525
 21
2028.44274677291
 31
0.0
  0
LINE
  5
614A
330
19
100
AcDbEntity
  8
0
100
AcDbLine
 10
1296.296274829576
 20
2011.56217084093
 30
0.0
 11
1297.495263829573
 21
2012.761144159317
 31
0.0
  0
LINE
  5
614B
330
19
100
AcDbEntity
  8
0
100
AcDbLine
 10
1329.228105277558
 20
2044.124352000144
 30
0.0
 11
1332.886674829562
 21
2047.782911097703
 31
0.0
  0
LINE
  5
614C
330
19
100
AcDbEntity
  8
0
100
AcDbLine
 10
1311.977874829528
 20
2026.874116324892
 30
0.0
 11
1313.546531413543
 21
2028.44274677291
 31
0.0
  0
LINE
  5
614D
330
19
100
AcDbEntity
  8
0
100
AcDbLine
 10
1296.296274829576
 20
2011.192529392908
 30
0.0
 11
1297.86487914154
 21
2012.761144159317
 31
0.0
  0
LINE
  5
614E
330
19
100
AcDbEntity
  8
0
100
AcDbLine
 10
1329.597772861576
 20
2044.124352000144
 30
0.0
 11
1332.886674829562
 21
2047.413269649739
 31
0.0
  0
LINE
  5
614F
330
19
100
AcDbEntity
  8
0
100
AcDbLine
 10
1311.977874829528
 20
2026.504472263346
 30
0.0
 11
1313.916120589572
 21
2028.44274677291
 31
0.0
  0
LINE
  5
6150
330
19
100
AcDbEntity
  8
0
100
AcDbLine
 10
1296.296274829576
 20
2010.822885331304
 30
0.0
 11
1298.234520589562
 21
2012.761144159317
 31
0.0
  0
LINE
  5
6151
330
19
100
AcDbEntity
  8
0
100
AcDbLine
 10
1329.967362037547
 20
2044.124352000144
 30
0.0
 11
1332.886674829562
 21
2047.043659564936
 31
0.0
  0
LINE
  5
6152
330
19
100
AcDbEntity
  8
0
100
AcDbLine
 10
1311.977874829528
 20
2026.134846496933
 30
0.0
 11
1314.285762037536
 21
2028.44274677291
 31
0.0
  0
LINE
  5
6153
330
19
100
AcDbEntity
  8
0
100
AcDbLine
 10
1296.296274829576
 20
2010.453254337727
 30
0.0
 11
1298.604188173522
 21
2012.761144159317
 31
0.0
  0
LINE
  5
6154
330
19
100
AcDbEntity
  8
0
100
AcDbLine
 10
1330.336951213576
 20
2044.124352000144
 30
0.0
 11
1332.886674829562
 21
2046.674031184942
 31
0.0
  0
LINE
  5
6155
330
19
100
AcDbEntity
  8
0
100
AcDbLine
 10
1311.977874829528
 20
2025.765244252935
 30
0.0
 11
1314.655377349561
 21
2028.44274677291
 31
0.0
  0
LINE
  5
6156
330
19
100
AcDbEntity
  8
0
100
AcDbLine
 10
1296.296274829576
 20
2010.083662548116
 30
0.0
 11
1298.973777349551
 21
2012.761144159317
 31
0.0
  0
LINE
  5
6157
330
19
100
AcDbEntity
  8
0
100
AcDbLine
 10
1330.706618797536
 20
2044.124352000144
 30
0.0
 11
1332.886674829562
 21
2046.304397577725
 31
0.0
  0
LINE
  5
6158
330
19
100
AcDbEntity
  8
0
100
AcDbLine
 10
1311.977874829528
 20
2025.395602804914
 30
0.0
 11
1315.025018797525
 21
2028.44274677291
 31
0.0
  0
LINE
  5
6159
330
19
100
AcDbEntity
  8
0
100
AcDbLine
 10
1296.296274829576
 20
2009.71401587293
 30
0.0
 11
1299.343366525521
 21
2012.761144159317
 31
0.0
  0
LINE
  5
615A
330
19
100
AcDbEntity
  8
0
100
AcDbLine
 10
1331.076260245558
 20
2044.124352000144
 30
0.0
 11
1332.886674829562
 21
2045.934756129703
 31
0.0
  0
LINE
  5
615B
330
19
100
AcDbEntity
  8
0
100
AcDbLine
 10
1311.977874829528
 20
2025.025950902505
 30
0.0
 11
1315.394686381543
 21
2028.44274677291
 31
0.0
  0
LINE
  5
615C
330
19
100
AcDbEntity
  8
0
100
AcDbLine
 10
1296.296274829576
 20
2009.344371811326
 30
0.0
 11
1299.71303410954
 21
2012.761144159317
 31
0.0
  0
LINE
  5
615D
330
19
100
AcDbEntity
  8
0
100
AcDbLine
 10
1331.445875557525
 20
2044.124352000144
 30
0.0
 11
1332.886674829562
 21
2045.565161726509
 31
0.0
  0
LINE
  5
615E
330
19
100
AcDbEntity
  8
0
100
AcDbLine
 10
1311.977874829528
 20
2024.656340817702
 30
0.0
 11
1315.764275557572
 21
2028.44274677291
 31
0.0
  0
LINE
  5
615F
330
19
100
AcDbEntity
  8
0
100
AcDbLine
 10
1296.296274829576
 20
2008.974746044914
 30
0.0
 11
1300.082701693558
 21
2012.761144159317
 31
0.0
  0
LINE
  5
6160
330
19
100
AcDbEntity
  8
0
100
AcDbLine
 10
1331.815517005547
 20
2044.124352000144
 30
0.0
 11
1332.886674829562
 21
2045.1955098241
 31
0.0
  0
LINE
  5
6161
330
19
100
AcDbEntity
  8
0
100
AcDbLine
 10
1311.977874829528
 20
2024.286699369738
 30
0.0
 11
1316.133943141532
 21
2028.44274677291
 31
0.0
  0
LINE
  5
6162
330
19
100
AcDbEntity
  8
0
100
AcDbLine
 10
1296.296274829576
 20
2008.605099369727
 30
0.0
 11
1300.452343141522
 21
2012.761144159317
 31
0.0
  0
LINE
  5
6163
330
19
100
AcDbEntity
  8
0
100
AcDbLine
 10
1332.185106181576
 20
2044.124352000144
 30
0.0
 11
1332.886674829562
 21
2044.825884057688
 31
0.0
  0
LINE
  5
6164
330
19
100
AcDbEntity
  8
0
100
AcDbLine
 10
1311.977874829528
 20
2023.917089284935
 30
0.0
 11
1316.503532317561
 21
2028.44274677291
 31
0.0
  0
LINE
  5
6165
330
19
100
AcDbEntity
  8
0
100
AcDbLine
 10
1296.296274829576
 20
2008.235504966534
 30
0.0
 11
1300.821932317551
 21
2012.761144159317
 31
0.0
  0
LINE
  5
6166
330
19
100
AcDbEntity
  8
0
100
AcDbLine
 10
1332.554773765536
 20
2044.124352000144
 30
0.0
 11
1332.886674829562
 21
2044.456242609725
 31
0.0
  0
LINE
  5
6167
330
19
100
AcDbEntity
  8
0
100
AcDbLine
 10
1311.977874829528
 20
2023.547442609691
 30
0.0
 11
1316.873199901522
 21
2028.44274677291
 31
0.0
  0
LINE
  5
6168
330
19
100
AcDbEntity
  8
0
100
AcDbLine
 10
1296.296274829576
 20
2007.865858291289
 30
0.0
 11
1301.191547629576
 21
2012.761144159317
 31
0.0
  0
LINE
  5
6169
330
19
100
AcDbEntity
  8
0
100
AcDbLine
 10
1311.977874829528
 20
2023.177827297724
 30
0.0
 11
1317.242789077551
 21
2028.44274677291
 31
0.0
  0
LINE
  5
616A
330
19
100
AcDbEntity
  8
0
100
AcDbLine
 10
1296.296274829576
 20
2007.496232524935
 30
0.0
 11
1301.56118907754
 21
2012.761144159317
 31
0.0
  0
LINE
  5
616B
330
19
100
AcDbEntity
  8
0
100
AcDbLine
 10
1311.977874829528
 20
2022.808188463342
 30
0.0
 11
1317.612456661569
 21
2028.44274677291
 31
0.0
  0
LINE
  5
616C
330
19
100
AcDbEntity
  8
0
100
AcDbLine
 10
1296.296274829576
 20
2007.126591076914
 30
0.0
 11
1301.930856661558
 21
2012.761144159317
 31
0.0
  0
LINE
  5
616D
330
19
100
AcDbEntity
  8
0
100
AcDbLine
 10
1311.977874829528
 20
2022.438583605703
 30
0.0
 11
1317.982045837539
 21
2028.44274677291
 31
0.0
  0
LINE
  5
616E
330
19
100
AcDbEntity
  8
0
100
AcDbLine
 10
1296.296274829576
 20
2006.75699667372
 30
0.0
 11
1302.300445837529
 21
2012.761144159317
 31
0.0
  0
LINE
  5
616F
330
19
100
AcDbEntity
  8
0
100
AcDbLine
 10
1311.977874829528
 20
2022.068929089713
 30
0.0
 11
1318.351687285561
 21
2028.44274677291
 31
0.0
  0
LINE
  5
6170
330
19
100
AcDbEntity
  8
0
100
AcDbLine
 10
1296.296274829576
 20
2006.387349998534
 30
0.0
 11
1302.670035013558
 21
2012.761144159317
 31
0.0
  0
LINE
  5
6171
330
19
100
AcDbEntity
  8
0
100
AcDbLine
 10
1311.977874829528
 20
2021.699290255331
 30
0.0
 11
1318.721354869522
 21
2028.44274677291
 31
0.0
  0
LINE
  5
6172
330
19
100
AcDbEntity
  8
0
100
AcDbLine
 10
1296.296274829576
 20
2006.01770593693
 30
0.0
 11
1303.039702597576
 21
2012.761144159317
 31
0.0
  0
LINE
  5
6173
330
19
100
AcDbEntity
  8
0
100
AcDbLine
 10
1311.977874829528
 20
2021.329672329724
 30
0.0
 11
1319.090944045551
 21
2028.44274677291
 31
0.0
  0
LINE
  5
6174
330
19
100
AcDbEntity
  8
0
100
AcDbLine
 10
1296.296274829576
 20
2005.648077556935
 30
0.0
 11
1303.409370181536
 21
2012.761144159317
 31
0.0
  0
LINE
  5
6175
330
19
100
AcDbEntity
  8
0
100
AcDbLine
 10
1311.977874829528
 20
2020.960064858503
 30
0.0
 11
1319.460533221521
 21
2028.44274677291
 31
0.0
  0
LINE
  5
6176
330
19
100
AcDbEntity
  8
0
100
AcDbLine
 10
1296.296274829576
 20
2005.278483153742
 30
0.0
 11
1303.778959357565
 21
2012.761144159317
 31
0.0
  0
LINE
  5
6177
330
19
100
AcDbEntity
  8
0
100
AcDbLine
 10
1311.977874829528
 20
2020.590423410539
 30
0.0
 11
1319.83020080554
 21
2028.44274677291
 31
0.0
  0
LINE
  5
6178
330
19
100
AcDbEntity
  8
0
100
AcDbLine
 10
1296.296274829576
 20
2004.908839092138
 30
0.0
 11
1304.148626941525
 21
2012.761144159317
 31
0.0
  0
LINE
  5
6179
330
19
100
AcDbEntity
  8
0
100
AcDbLine
 10
1311.977874829528
 20
2020.220779348935
 30
0.0
 11
1320.199868389558
 21
2028.44274677291
 31
0.0
  0
LINE
  5
617A
330
19
100
AcDbEntity
  8
0
100
AcDbLine
 10
1296.296274829576
 20
2004.539197644116
 30
0.0
 11
1304.518216117554
 21
2012.761144159317
 31
0.0
  0
LINE
  5
617B
330
19
100
AcDbEntity
  8
0
100
AcDbLine
 10
1311.977874829528
 20
2019.851161423328
 30
0.0
 11
1320.569457565529
 21
2028.44274677291
 31
0.0
  0
LINE
  5
617C
330
19
100
AcDbEntity
  8
0
100
AcDbLine
 10
1296.296274829576
 20
2004.169566650539
 30
0.0
 11
1304.887857565576
 21
2012.761144159317
 31
0.0
  0
LINE
  5
617D
330
19
100
AcDbEntity
  8
0
100
AcDbLine
 10
1311.977874829528
 20
2019.481514748141
 30
0.0
 11
1320.939125149547
 21
2028.44274677291
 31
0.0
  0
LINE
  5
617E
330
19
100
AcDbEntity
  8
0
100
AcDbLine
 10
1296.296274829576
 20
2003.799919975295
 30
0.0
 11
1305.257525149536
 21
2012.761144159317
 31
0.0
  0
LINE
  5
617F
330
19
100
AcDbEntity
  8
0
100
AcDbLine
 10
1311.977874829528
 20
2019.111912504143
 30
0.0
 11
1321.308714325576
 21
2028.44274677291
 31
0.0
  0
LINE
  5
6180
330
19
100
AcDbEntity
  8
0
100
AcDbLine
 10
1296.296274829576
 20
2003.430325572102
 30
0.0
 11
1305.627114325565
 21
2012.761144159317
 31
0.0
  0
LINE
  5
6181
330
19
100
AcDbEntity
  8
0
100
AcDbLine
 10
1311.977874829528
 20
2018.742265828899
 30
0.0
 11
1321.67835577354
 21
2028.44274677291
 31
0.0
  0
LINE
  5
6182
330
19
100
AcDbEntity
  8
0
100
AcDbLine
 10
1296.296274829576
 20
2003.060684124138
 30
0.0
 11
1305.996703501536
 21
2012.761144159317
 31
0.0
  0
LINE
  5
6183
330
19
100
AcDbEntity
  8
0
100
AcDbLine
 10
1311.977874829528
 20
2018.372624380935
 30
0.0
 11
1322.047971085565
 21
2028.44274677291
 31
0.0
  0
LINE
  5
6184
330
19
100
AcDbEntity
  8
0
100
AcDbLine
 10
1296.296274829576
 20
2002.691040062534
 30
0.0
 11
1306.366371085554
 21
2012.761144159317
 31
0.0
  0
LINE
  5
6185
330
19
100
AcDbEntity
  8
0
100
AcDbLine
 10
1311.977874829528
 20
2018.003006455328
 30
0.0
 11
1322.417612533529
 21
2028.44274677291
 31
0.0
  0
LINE
  5
6186
330
19
100
AcDbEntity
  8
0
100
AcDbLine
 10
1296.296274829576
 20
2002.321411682539
 30
0.0
 11
1306.736038669572
 21
2012.761144159317
 31
0.0
  0
LINE
  5
6187
330
19
100
AcDbEntity
  8
0
100
AcDbLine
 10
1311.977874829528
 20
2017.633398984107
 30
0.0
 11
1322.787201709558
 21
2028.44274677291
 31
0.0
  0
LINE
  5
6188
330
19
100
AcDbEntity
  8
0
100
AcDbLine
 10
1296.296274829576
 20
2001.951819892928
 30
0.0
 11
1307.105627845543
 21
2012.761144159317
 31
0.0
  0
LINE
  5
6189
330
19
100
AcDbEntity
  8
0
100
AcDbLine
 10
1311.977874829528
 20
2017.263752308921
 30
0.0
 11
1323.156869293576
 21
2028.44274677291
 31
0.0
  0
LINE
  5
618A
330
19
100
AcDbEntity
  8
0
100
AcDbLine
 10
1296.296274829576
 20
2001.582170604102
 30
0.0
 11
1307.475295429562
 21
2012.761144159317
 31
0.0
  0
LINE
  5
618B
330
19
100
AcDbEntity
  8
0
100
AcDbLine
 10
1311.977874829528
 20
2016.894110860899
 30
0.0
 11
1323.526536877536
 21
2028.44274677291
 31
0.0
  0
LINE
  5
618C
330
19
100
AcDbEntity
  8
0
100
AcDbLine
 10
1296.296274829576
 20
2001.212526542497
 30
0.0
 11
1307.844884605532
 21
2012.761144159317
 31
0.0
  0
LINE
  5
618D
330
19
100
AcDbEntity
  8
0
100
AcDbLine
 10
1311.977874829528
 20
2016.524495548932
 30
0.0
 11
1323.896126053565
 21
2028.44274677291
 31
0.0
  0
LINE
  5
618E
330
19
100
AcDbEntity
  8
0
100
AcDbLine
 10
1296.296274829576
 20
2000.842898162503
 30
0.0
 11
1308.214526053554
 21
2012.761144159317
 31
0.0
  0
LINE
  5
618F
330
19
100
AcDbEntity
  8
0
100
AcDbLine
 10
1311.977874829528
 20
2016.15485410091
 30
0.0
 11
1324.265793637525
 21
2028.44274677291
 31
0.0
  0
LINE
  5
6190
330
19
100
AcDbEntity
  8
0
100
AcDbLine
 10
1296.296274829576
 20
2000.473259328122
 30
0.0
 11
1308.584141365521
 21
2012.761144159317
 31
0.0
  0
LINE
  5
6191
330
19
100
AcDbEntity
  8
0
100
AcDbLine
 10
1311.977874829528
 20
2015.785244016107
 30
0.0
 11
1324.635382813554
 21
2028.44274677291
 31
0.0
  0
LINE
  5
6192
330
19
100
AcDbEntity
  8
0
100
AcDbLine
 10
1296.296274829576
 20
2000.103659697705
 30
0.0
 11
1308.953782813543
 21
2012.761144159317
 31
0.0
  0
LINE
  5
6193
330
19
100
AcDbEntity
  8
0
100
AcDbLine
 10
1311.977874829528
 20
2015.415599954503
 30
0.0
 11
1325.005024261576
 21
2028.44274677291
 31
0.0
  0
LINE
  5
6194
330
19
100
AcDbEntity
  8
0
100
AcDbLine
 10
1296.296274829576
 20
1999.734023476906
 30
0.0
 11
1309.323371989572
 21
2012.761144159317
 31
0.0
  0
LINE
  5
6195
330
19
100
AcDbEntity
  8
0
100
AcDbLine
 10
1311.977874829528
 20
2015.045982028895
 30
0.0
 11
1325.374639573543
 21
2028.44274677291
 31
0.0
  0
LINE
  5
6196
330
19
100
AcDbEntity
  8
0
100
AcDbLine
 10
1296.296274829576
 20
1999.364387256107
 30
0.0
 11
1309.693039573532
 21
2012.761144159317
 31
0.0
  0
LINE
  5
6197
330
19
100
AcDbEntity
  8
0
100
AcDbLine
 10
1311.977874829528
 20
2014.676340580932
 30
0.0
 11
1325.744281021565
 21
2028.44274677291
 31
0.0
  0
LINE
  5
6198
330
19
100
AcDbEntity
  8
0
100
AcDbLine
 10
1296.296274829576
 20
1998.994745808143
 30
0.0
 11
1310.062707157551
 21
2012.761144159317
 31
0.0
  0
LINE
  5
6199
330
19
100
AcDbEntity
  8
0
100
AcDbLine
 10
1311.977874829528
 20
2014.306733109711
 30
0.0
 11
1326.113870197536
 21
2028.44274677291
 31
0.0
  0
LINE
  5
619A
330
19
100
AcDbEntity
  8
0
100
AcDbLine
 10
1296.296274829576
 20
1998.625151404892
 30
0.0
 11
1310.432296333521
 21
2012.761144159317
 31
0.0
  0
LINE
  5
619B
330
19
100
AcDbEntity
  8
0
100
AcDbLine
 10
1311.977874829528
 20
2013.93709427533
 30
0.0
 11
1326.483537781554
 21
2028.44274677291
 31
0.0
  0
LINE
  5
619C
330
19
100
AcDbEntity
  8
0
100
AcDbLine
 10
1296.296274829576
 20
1998.255507343346
 30
0.0
 11
1310.80188550955
 21
2012.761144159317
 31
0.0
  0
LINE
  5
619D
330
19
100
AcDbEntity
  8
0
100
AcDbLine
 10
1311.977874829528
 20
2013.567444986503
 30
0.0
 11
1326.853205365573
 21
2028.44274677291
 31
0.0
  0
LINE
  5
619E
330
19
100
AcDbEntity
  8
0
100
AcDbLine
 10
1296.296274829576
 20
1997.885865895324
 30
0.0
 11
1311.171553093569
 21
2012.761144159317
 31
0.0
  0
LINE
  5
619F
330
19
100
AcDbEntity
  8
0
100
AcDbLine
 10
1311.977874829528
 20
2013.197827060895
 30
0.0
 11
1327.222794541543
 21
2028.44274677291
 31
0.0
  0
LINE
  5
61A0
330
19
100
AcDbEntity
  8
0
100
AcDbLine
 10
1296.296274829576
 20
1997.516232288107
 30
0.0
 11
1311.541194541532
 21
2012.761144159317
 31
0.0
  0
LINE
  5
61A1
330
19
100
AcDbEntity
  8
0
100
AcDbLine
 10
1311.977874829528
 20
2012.828224816897
 30
0.0
 11
1327.592383717572
 21
2028.44274677291
 31
0.0
  0
LINE
  5
61A2
330
19
100
AcDbEntity
  8
0
100
AcDbLine
 10
1296.296274829576
 20
1997.146640498496
 30
0.0
 11
1311.910809853558
 21
2012.761144159317
 31
0.0
  0
LINE
  5
61A3
330
19
100
AcDbEntity
  8
0
100
AcDbLine
 10
1312.280451301522
 20
2012.761144159317
 30
0.0
 11
1327.659448693543
 21
2028.14015984653
 31
0.0
  0
LINE
  5
61A4
330
19
100
AcDbEntity
  8
0
100
AcDbLine
 10
1296.598799029576
 20
1997.079546772889
 30
0.0
 11
1311.977874829528
 21
2012.458578141711
 31
0.0
  0
LINE
  5
61A5
330
19
100
AcDbEntity
  8
0
100
AcDbLine
 10
1312.650066613547
 20
2012.761144159317
 30
0.0
 11
1327.659448693543
 21
2027.770518398508
 31
0.0
  0
LINE
  5
61A6
330
19
100
AcDbEntity
  8
0
100
AcDbLine
 10
1296.968466613536
 20
1997.079546772889
 30
0.0
 11
1311.977874829528
 21
2012.08893930733
 31
0.0
  0
LINE
  5
61A7
330
19
100
AcDbEntity
  8
0
100
AcDbLine
 10
1313.019708061569
 20
2012.761144159317
 30
0.0
 11
1327.659448693543
 21
2027.400908313705
 31
0.0
  0
LINE
  5
61A8
330
19
100
AcDbEntity
  8
0
100
AcDbLine
 10
1297.338134197554
 20
1997.079546772889
 30
0.0
 11
1311.977874829528
 21
2011.719313540917
 31
0.0
  0
LINE
  5
61A9
330
19
100
AcDbEntity
  8
0
100
AcDbLine
 10
1313.38929723754
 20
2012.761144159317
 30
0.0
 11
1327.659448693543
 21
2027.031266865742
 31
0.0
  0
LINE
  5
61AA
330
19
100
AcDbEntity
  8
0
100
AcDbLine
 10
1297.707723373525
 20
1997.079546772889
 30
0.0
 11
1311.977874829528
 21
2011.349669479313
 31
0.0
  0
LINE
  5
61AB
330
19
100
AcDbEntity
  8
0
100
AcDbLine
 10
1313.758964821558
 20
2012.761144159317
 30
0.0
 11
1327.659448693543
 21
2026.661654167298
 31
0.0
  0
LINE
  5
61AC
330
19
100
AcDbEntity
  8
0
100
AcDbLine
 10
1298.077312549554
 20
1997.079546772889
 30
0.0
 11
1311.977874829528
 21
2010.980067235315
 31
0.0
  0
LINE
  5
61AD
330
19
100
AcDbEntity
  8
0
100
AcDbLine
 10
1314.128553997529
 20
2012.761144159317
 30
0.0
 11
1327.659448693543
 21
2026.29200487853
 31
0.0
  0
LINE
  5
61AE
330
19
100
AcDbEntity
  8
0
100
AcDbLine
 10
1298.446980133572
 20
1997.079546772889
 30
0.0
 11
1311.977874829528
 21
2010.610423173711
 31
0.0
  0
LINE
  5
61AF
330
19
100
AcDbEntity
  8
0
100
AcDbLine
 10
1314.498221581547
 20
2012.761144159317
 30
0.0
 11
1327.659448693543
 21
2025.922363430508
 31
0.0
  0
LINE
  5
61B0
330
19
100
AcDbEntity
  8
0
100
AcDbLine
 10
1298.816621581536
 20
1997.079546772889
 30
0.0
 11
1311.977874829528
 21
2010.240779112107
 31
0.0
  0
LINE
  5
61B1
330
19
100
AcDbEntity
  8
0
100
AcDbLine
 10
1314.867889165565
 20
2012.761144159317
 30
0.0
 11
1327.659448693543
 21
2025.55276118651
 31
0.0
  0
LINE
  5
61B2
330
19
100
AcDbEntity
  8
0
100
AcDbLine
 10
1299.186236893562
 20
1997.079546772889
 30
0.0
 11
1311.977874829528
 21
2009.871161186499
 31
0.0
  0
LINE
  5
61B3
330
19
100
AcDbEntity
  8
0
100
AcDbLine
 10
1315.237478341536
 20
2012.761144159317
 30
0.0
 11
1327.659448693543
 21
2025.183132806516
 31
0.0
  0
LINE
  5
61B4
330
19
100
AcDbEntity
  8
0
100
AcDbLine
 10
1299.555826069532
 20
1997.079546772889
 30
0.0
 11
1311.977874829528
 21
2009.501553715337
 31
0.0
  0
LINE
  5
61B5
330
19
100
AcDbEntity
  8
0
100
AcDbLine
 10
1315.607067517565
 20
2012.761144159317
 30
0.0
 11
1327.659448693543
 21
2024.813491358494
 31
0.0
  0
LINE
  5
61B6
330
19
100
AcDbEntity
  8
0
100
AcDbLine
 10
1299.925467517554
 20
1997.079546772889
 30
0.0
 11
1311.977874829528
 21
2009.131912267315
 31
0.0
  0
LINE
  5
61B7
330
19
100
AcDbEntity
  8
0
100
AcDbLine
 10
1315.976735101525
 20
2012.761144159317
 30
0.0
 11
1327.659448693543
 21
2024.44384991053
 31
0.0
  0
LINE
  5
61B8
330
19
100
AcDbEntity
  8
0
100
AcDbLine
 10
1300.295135101573
 20
1997.079546772889
 30
0.0
 11
1311.977874829528
 21
2008.762270819293
 31
0.0
  0
LINE
  5
61B9
330
19
100
AcDbEntity
  8
0
100
AcDbLine
 10
1316.346376549547
 20
2012.761144159317
 30
0.0
 11
1327.659448693543
 21
2024.074247666532
 31
0.0
  0
LINE
  5
61BA
330
19
100
AcDbEntity
  8
0
100
AcDbLine
 10
1300.664802685533
 20
1997.079546772889
 30
0.0
 11
1311.977874829528
 21
2008.392647666521
 31
0.0
  0
LINE
  5
61BB
330
19
100
AcDbEntity
  8
0
100
AcDbLine
 10
1316.715965725576
 20
2012.761144159317
 30
0.0
 11
1327.659448693543
 21
2023.704627127342
 31
0.0
  0
LINE
  5
61BC
330
19
100
AcDbEntity
  8
0
100
AcDbLine
 10
1301.034391861562
 20
1997.079546772889
 30
0.0
 11
1311.977874829528
 21
2008.023045422523
 31
0.0
  0
LINE
  5
61BD
330
19
100
AcDbEntity
  8
0
100
AcDbLine
 10
1317.085633309536
 20
2012.761144159317
 30
0.0
 11
1327.659448693543
 21
2023.334993520125
 31
0.0
  0
LINE
  5
61BE
330
19
100
AcDbEntity
  8
0
100
AcDbLine
 10
1301.403981037532
 20
1997.079546772889
 30
0.0
 11
1311.977874829528
 21
2007.653406588142
 31
0.0
  0
LINE
  5
61BF
330
19
100
AcDbEntity
  8
0
100
AcDbLine
 10
1317.455222485565
 20
2012.761144159317
 30
0.0
 11
1327.659448693543
 21
2022.965339004134
 31
0.0
  0
LINE
  5
61C0
330
19
100
AcDbEntity
  8
0
100
AcDbLine
 10
1301.773648621551
 20
1997.079546772889
 30
0.0
 11
1311.977874829528
 21
2007.283757299315
 31
0.0
  0
LINE
  5
61C1
330
19
100
AcDbEntity
  8
0
100
AcDbLine
 10
1317.824890069525
 20
2012.761144159317
 30
0.0
 11
1327.659448693543
 21
2022.595734146495
 31
0.0
  0
LINE
  5
61C2
330
19
100
AcDbEntity
  8
0
100
AcDbLine
 10
1302.143290069573
 20
1997.079546772889
 30
0.0
 11
1311.977874829528
 21
2006.914134146543
 31
0.0
  0
LINE
  5
61C3
330
19
100
AcDbEntity
  8
0
100
AcDbLine
 10
1318.194557653544
 20
2012.761144159317
 30
0.0
 11
1327.659448693543
 21
2022.22608747131
 31
0.0
  0
LINE
  5
61C4
330
19
100
AcDbEntity
  8
0
100
AcDbLine
 10
1302.51290538154
 20
1997.079546772889
 30
0.0
 11
1311.977874829528
 21
2006.544492698521
 31
0.0
  0
LINE
  5
61C5
330
19
100
AcDbEntity
  8
0
100
AcDbLine
 10
1318.564146829573
 20
2012.761144159317
 30
0.0
 11
1327.659448693543
 21
2021.856477386506
 31
0.0
  0
LINE
  5
61C6
330
19
100
AcDbEntity
  8
0
100
AcDbLine
 10
1302.882494557569
 20
1997.079546772889
 30
0.0
 11
1311.977874829528
 21
2006.174893068105
 31
0.0
  0
LINE
  5
61C7
330
19
100
AcDbEntity
  8
0
100
AcDbLine
 10
1318.933736005543
 20
2012.761144159317
 30
0.0
 11
1327.659448693543
 21
2021.486833324903
 31
0.0
  0
LINE
  5
61C8
330
19
100
AcDbEntity
  8
0
100
AcDbLine
 10
1303.252136005532
 20
1997.079546772889
 30
0.0
 11
1311.977874829528
 21
2005.805251620142
 31
0.0
  0
LINE
  5
61C9
330
19
100
AcDbEntity
  8
0
100
AcDbLine
 10
1319.303403589561
 20
2012.761144159317
 30
0.0
 11
1327.659448693543
 21
2021.117186649716
 31
0.0
  0
LINE
  5
61CA
330
19
100
AcDbEntity
  8
0
100
AcDbLine
 10
1303.621803589551
 20
1997.079546772889
 30
0.0
 11
1311.977874829528
 21
2005.435607558538
 31
0.0
  0
LINE
  5
61CB
330
19
100
AcDbEntity
  8
0
100
AcDbLine
 10
1319.673045037525
 20
2012.761144159317
 30
0.0
 11
1327.659448693543
 21
2020.747576564913
 31
0.0
  0
LINE
  5
61CC
330
19
100
AcDbEntity
  8
0
100
AcDbLine
 10
1303.991471173569
 20
1997.079546772889
 30
0.0
 11
1311.977874829528
 21
2005.065981792125
 31
0.0
  0
LINE
  5
61CD
330
19
100
AcDbEntity
  8
0
100
AcDbLine
 10
1320.042634213554
 20
2012.761144159317
 30
0.0
 11
1327.659448693543
 21
2020.377963866528
 31
0.0
  0
LINE
  5
61CE
330
19
100
AcDbEntity
  8
0
100
AcDbLine
 10
1304.36106034954
 20
1997.079546772889
 30
0.0
 11
1311.977874829528
 21
2004.696379548127
 31
0.0
  0
LINE
  5
61CF
330
19
100
AcDbEntity
  8
0
100
AcDbLine
 10
1320.412301797573
 20
2012.761144159317
 30
0.0
 11
1327.659448693543
 21
2020.008319804924
 31
0.0
  0
LINE
  5
61D0
330
19
100
AcDbEntity
  8
0
100
AcDbLine
 10
1304.730649525569
 20
1997.079546772889
 30
0.0
 11
1311.977874829528
 21
2004.326738100105
 31
0.0
  0
LINE
  5
61D1
330
19
100
AcDbEntity
  8
0
100
AcDbLine
 10
1320.781890973543
 20
2012.761144159317
 30
0.0
 11
1327.659448693543
 21
2019.638680970543
 31
0.0
  0
LINE
  5
61D2
330
19
100
AcDbEntity
  8
0
100
AcDbLine
 10
1305.100317109529
 20
1997.079546772889
 30
0.0
 11
1311.977874829528
 21
2003.957094038501
 31
0.0
  0
LINE
  5
61D3
330
19
100
AcDbEntity
  8
0
100
AcDbLine
 10
1321.151558557561
 20
2012.761144159317
 30
0.0
 11
1327.659448693543
 21
2019.2690682721
 31
0.0
  0
LINE
  5
61D4
330
19
100
AcDbEntity
  8
0
100
AcDbLine
 10
1305.469958557551
 20
1997.079546772889
 30
0.0
 11
1311.977874829528
 21
2003.587473499311
 31
0.0
  0
LINE
  5
61D5
330
19
100
AcDbEntity
  8
0
100
AcDbLine
 10
1321.521147733532
 20
2012.761144159317
 30
0.0
 11
1327.659448693543
 21
2018.899416369691
 31
0.0
  0
LINE
  5
61D6
330
19
100
AcDbEntity
  8
0
100
AcDbLine
 10
1305.839573869576
 20
1997.079546772889
 30
0.0
 11
1311.977874829528
 21
2003.217826824125
 31
0.0
  0
LINE
  5
61D7
330
19
100
AcDbEntity
  8
0
100
AcDbLine
 10
1321.890815317551
 20
2012.761144159317
 30
0.0
 11
1327.659448693543
 21
2018.529803671306
 31
0.0
  0
LINE
  5
61D8
330
19
100
AcDbEntity
  8
0
100
AcDbLine
 10
1306.209163045547
 20
1997.079546772889
 30
0.0
 11
1311.977874829528
 21
2002.848224580127
 31
0.0
  0
LINE
  5
61D9
330
19
100
AcDbEntity
  8
0
100
AcDbLine
 10
1322.260404493521
 20
2012.761144159317
 30
0.0
 11
1327.659448693543
 21
2018.160164836924
 31
0.0
  0
LINE
  5
61DA
330
19
100
AcDbEntity
  8
0
100
AcDbLine
 10
1306.578804493569
 20
1997.079546772889
 30
0.0
 11
1311.977874829528
 21
2002.478580518523
 31
0.0
  0
LINE
  5
61DB
330
19
100
AcDbEntity
  8
0
100
AcDbLine
 10
1322.63007207754
 20
2012.761144159317
 30
0.0
 11
1327.659448693543
 21
2017.790557365704
 31
0.0
  0
LINE
  5
61DC
330
19
100
AcDbEntity
  8
0
100
AcDbLine
 10
1306.948472077529
 20
1997.079546772889
 30
0.0
 11
1311.977874829528
 21
2002.108959979333
 31
0.0
  0
LINE
  5
61DD
330
19
100
AcDbEntity
  8
0
100
AcDbLine
 10
1322.999661253569
 20
2012.761144159317
 30
0.0
 11
1327.659448693543
 21
2017.42091591774
 31
0.0
  0
LINE
  5
61DE
330
19
100
AcDbEntity
  8
0
100
AcDbLine
 10
1307.318061253558
 20
1997.079546772889
 30
0.0
 11
1311.977874829528
 21
2001.739315917729
 31
0.0
  0
LINE
  5
61DF
330
19
100
AcDbEntity
  8
0
100
AcDbLine
 10
1323.369302701532
 20
2012.761144159317
 30
0.0
 11
1327.659448693543
 21
2017.051300605714
 31
0.0
  0
LINE
  5
61E0
330
19
100
AcDbEntity
  8
0
100
AcDbLine
 10
1307.687676565525
 20
1997.079546772889
 30
0.0
 11
1311.977874829528
 21
2001.369718900896
 31
0.0
  0
LINE
  5
61E1
330
19
100
AcDbEntity
  8
0
100
AcDbLine
 10
1323.738970285551
 20
2012.761144159317
 30
0.0
 11
1327.659448693543
 21
2016.681651316946
 31
0.0
  0
LINE
  5
61E2
330
19
100
AcDbEntity
  8
0
100
AcDbLine
 10
1308.057318013547
 20
1997.079546772889
 30
0.0
 11
1311.977874829528
 21
2001.000066998545
 31
0.0
  0
LINE
  5
61E3
330
19
100
AcDbEntity
  8
0
100
AcDbLine
 10
1324.108559461521
 20
2012.761144159317
 30
0.0
 11
1327.659448693543
 21
2016.312007255342
 31
0.0
  0
LINE
  5
61E4
330
19
100
AcDbEntity
  8
0
100
AcDbLine
 10
1308.426985597565
 20
1997.079546772889
 30
0.0
 11
1311.977874829528
 21
2000.630425550523
 31
0.0
  0
LINE
  5
61E5
330
19
100
AcDbEntity
  8
0
100
AcDbLine
 10
1324.47822704554
 20
2012.761144159317
 30
0.0
 11
1327.659448693543
 21
2015.942397170539
 31
0.0
  0
LINE
  5
61E6
330
19
100
AcDbEntity
  8
0
100
AcDbLine
 10
1308.796627045529
 20
1997.079546772889
 30
0.0
 11
1311.977874829528
 21
2000.260802397693
 31
0.0
  0
LINE
  5
61E7
330
19
100
AcDbEntity
  8
0
100
AcDbLine
 10
1324.847816221569
 20
2012.761144159317
 30
0.0
 11
1327.659448693543
 21
2015.572787085736
 31
0.0
  0
LINE
  5
61E8
330
19
100
AcDbEntity
  8
0
100
AcDbLine
 10
1309.166242357554
 20
1997.079546772889
 30
0.0
 11
1311.977874829528
 21
1999.891205380917
 31
0.0
  0
LINE
  5
61E9
330
19
100
AcDbEntity
  8
0
100
AcDbLine
 10
1325.217483805529
 20
2012.761144159317
 30
0.0
 11
1327.659448693543
 21
2015.203145637714
 31
0.0
  0
LINE
  5
61EA
330
19
100
AcDbEntity
  8
0
100
AcDbLine
 10
1309.535831533525
 20
1997.079546772889
 30
0.0
 11
1311.977874829528
 21
1999.521561319313
 31
0.0
  0
LINE
  5
61EB
330
19
100
AcDbEntity
  8
0
100
AcDbLine
 10
1325.587072981558
 20
2012.761144159317
 30
0.0
 11
1327.659448693543
 21
2014.833501576111
 31
0.0
  0
LINE
  5
61EC
330
19
100
AcDbEntity
  8
0
100
AcDbLine
 10
1309.905499117543
 20
1997.079546772889
 30
0.0
 11
1311.977874829528
 21
1999.151919871291
 31
0.0
  0
LINE
  5
61ED
330
19
100
AcDbEntity
  8
0
100
AcDbLine
 10
1325.956740565576
 20
2012.761144159317
 30
0.0
 11
1327.659448693543
 21
2014.46388103692
 31
0.0
  0
LINE
  5
61EE
330
19
100
AcDbEntity
  8
0
100
AcDbLine
 10
1310.275140565565
 20
1997.079546772889
 30
0.0
 11
1311.977874829528
 21
1998.782288877714
 31
0.0
  0
LINE
  5
61EF
330
19
100
AcDbEntity
  8
0
100
AcDbLine
 10
1326.326329741547
 20
2012.761144159317
 30
0.0
 11
1327.659448693543
 21
2014.094242202539
 31
0.0
  0
LINE
  5
61F0
330
19
100
AcDbEntity
  8
0
100
AcDbLine
 10
1310.644729741536
 20
1997.079546772889
 30
0.0
 11
1311.977874829528
 21
1998.412647429693
 31
0.0
  0
LINE
  5
61F1
330
19
100
AcDbEntity
  8
0
100
AcDbLine
 10
1326.695997325565
 20
2012.761144159317
 30
0.0
 11
1327.659448693543
 21
2013.724632117737
 31
0.0
  0
LINE
  5
61F2
330
19
100
AcDbEntity
  8
0
100
AcDbLine
 10
1311.014345053562
 20
1997.079546772889
 30
0.0
 11
1311.977874829528
 21
1998.043047799335
 31
0.0
  0
LINE
  5
61F3
330
19
100
AcDbEntity
  8
0
100
AcDbLine
 10
1327.065586501536
 20
2012.761144159317
 30
0.0
 11
1327.659448693543
 21
2013.354988056132
 31
0.0
  0
LINE
  5
61F4
330
19
100
AcDbEntity
  8
0
100
AcDbLine
 10
1311.383986501525
 20
1997.079546772889
 30
0.0
 11
1311.977874829528
 21
1997.673406351313
 31
0.0
  0
LINE
  5
61F5
330
19
100
AcDbEntity
  8
0
100
AcDbLine
 10
1327.435227949558
 20
2012.761144159317
 30
0.0
 11
1327.659448693543
 21
2012.985346608111
 31
0.0
  0
LINE
  5
61F6
330
19
100
AcDbEntity
  8
0
100
AcDbLine
 10
1311.753654085543
 20
1997.079546772889
 30
0.0
 11
1311.977874829528
 21
1997.303762289709
 31
0.0
  0
LINE
  5
61F7
330
19
100
AcDbEntity
  8
0
100
AcDbLine
 10
1376.376820889163
 20
2027.166683194532
 30
0.0
 11
1376.755462889188
 21
2027.545295494564
 31
0.0
  0
LINE
  5
61F8
330
19
100
AcDbEntity
  8
0
100
AcDbLine
 10
1376.376820889163
 20
2026.69995759458
 30
0.0
 11
1377.222214889167
 21
2027.545295494564
 31
0.0
  0
LINE
  5
61F9
330
19
100
AcDbEntity
  8
0
100
AcDbLine
 10
1376.376820889163
 20
2026.23327159458
 30
0.0
 11
1377.688867889148
 21
2027.545295494564
 31
0.0
  0
LINE
  5
61FA
330
19
100
AcDbEntity
  8
0
100
AcDbLine
 10
1376.376820889163
 20
2025.766552594562
 30
0.0
 11
1378.155619889185
 21
2027.545295494564
 31
0.0
  0
LINE
  5
61FB
330
19
100
AcDbEntity
  8
0
100
AcDbLine
 10
1376.376820889163
 20
2025.299830294577
 30
0.0
 11
1378.622272889166
 21
2027.545295494564
 31
0.0
  0
LINE
  5
61FC
330
19
100
AcDbEntity
  8
0
100
AcDbLine
 10
1376.376820889163
 20
2024.833150894569
 30
0.0
 11
1379.088991889184
 21
2027.545295494564
 31
0.0
  0
LINE
  5
61FD
330
19
100
AcDbEntity
  8
0
100
AcDbLine
 10
1376.376820889163
 20
2024.366431894551
 30
0.0
 11
1379.555677889184
 21
2027.545295494564
 31
0.0
  0
LINE
  5
61FE
330
19
100
AcDbEntity
  8
0
100
AcDbLine
 10
1376.722396889156
 20
2024.245295494576
 30
0.0
 11
1379.67685388917
 21
2027.199759094582
 31
0.0
  0
LINE
  5
61FF
330
19
100
AcDbEntity
  8
0
100
AcDbLine
 10
1377.189148889134
 20
2024.245295494576
 30
0.0
 11
1379.67685388917
 21
2026.733036794539
 31
0.0
  0
LINE
  5
6200
330
19
100
AcDbEntity
  8
0
100
AcDbLine
 10
1377.655801889174
 20
2024.245295494576
 30
0.0
 11
1379.67685388917
 21
2026.266354094564
 31
0.0
  0
LINE
  5
6201
330
19
100
AcDbEntity
  8
0
100
AcDbLine
 10
1378.122553889152
 20
2024.245295494576
 30
0.0
 11
1379.67685388917
 21
2025.799631794579
 31
0.0
  0
LINE
  5
6202
330
19
100
AcDbEntity
  8
0
100
AcDbLine
 10
1378.589206889133
 20
2024.245295494576
 30
0.0
 11
1379.67685388917
 21
2025.332952394571
 31
0.0
  0
LINE
  5
6203
330
19
100
AcDbEntity
  8
0
100
AcDbLine
 10
1379.055925889152
 20
2024.245295494576
 30
0.0
 11
1379.67685388917
 21
2024.866233394553
 31
0.0
  0
LINE
  5
6204
330
19
100
AcDbEntity
  8
0
100
AcDbLine
 10
1379.522611889151
 20
2024.245295494576
 30
0.0
 11
1379.67685388917
 21
2024.399544094528
 31
0.0
  0
LINE
  5
6205
330
19
100
AcDbEntity
  8
0
100
AcDbLine
 10
1311.977874829528
 20
1997.079546772889
 30
0.0
 11
1311.977874829528
 21
2044.124352000144
 31
0.0
  0
LINE
  5
6206
330
19
100
AcDbEntity
  8
0
100
AcDbLine
 10
1332.886674829562
 20
2044.124352000144
 30
0.0
 11
1332.886674829562
 21
2059.805954613736
 31
0.0
  0
LINE
  5
6207
330
19
100
AcDbEntity
  8
0
100
AcDbLine
 10
1311.977874829528
 20
2044.124352000144
 30
0.0
 11
1332.886674829562
 21
2044.124352000144
 31
0.0
  0
LINE
  5
6208
330
19
100
AcDbEntity
  8
0
100
AcDbLine
 10
1327.659448693543
 20
2028.44274677291
 30
0.0
 11
1296.296274829576
 21
2028.44274677291
 31
0.0
  0
LINE
  5
6209
330
19
100
AcDbEntity
  8
0
100
AcDbLine
 10
1476.208420889139
 20
2011.951026694572
 30
0.0
 11
1493.307964889136
 21
2011.951026694572
 31
0.0
  0
LINE
  5
620A
330
19
100
AcDbEntity
  8
0
100
AcDbLine
 10
1476.208420889139
 20
2025.895295494541
 30
0.0
 11
1493.307964889136
 21
2025.895295494541
 31
0.0
  0
LINE
  5
620B
330
19
100
AcDbEntity
  8
0
100
AcDbLine
 10
1476.208420889139
 20
2039.920295494564
 30
0.0
 11
1476.208420889139
 21
2011.951026694572
 31
0.0
  0
LINE
  5
620C
330
19
100
AcDbEntity
  8
0
100
AcDbLine
 10
1476.208420889139
 20
2039.920295494564
 30
0.0
 11
1493.307964889136
 21
2039.920295494564
 31
0.0
  0
LINE
  5
620D
330
19
100
AcDbEntity
  8
0
100
AcDbLine
 10
1447.038400889178
 20
2039.920295494564
 30
0.0
 11
1447.038400889178
 21
2011.870295494576
 31
0.0
  0
LINE
  5
620E
330
19
100
AcDbEntity
  8
0
100
AcDbLine
 10
1430.905063889142
 20
2011.870295494576
 30
0.0
 11
1443.659101889156
 21
2039.920295494564
 31
0.0
  0
LINE
  5
620F
330
19
100
AcDbEntity
  8
0
100
AcDbLine
 10
1418.15095988915
 20
2039.920295494564
 30
0.0
 11
1430.905063889142
 21
2011.870295494576
 31
0.0
  0
LINE
  5
6210
330
19
100
AcDbEntity
  8
0
100
AcDbLine
 10
1404.933502889158
 20
2025.895295494541
 30
0.0
 11
1416.500959889185
 21
2011.870295494576
 31
0.0
  0
LINE
  5
6211
330
19
100
AcDbEntity
  8
0
100
AcDbLine
 10
1393.366177889147
 20
2039.920295494564
 30
0.0
 11
1393.366177889147
 21
2011.870295494576
 31
0.0
  0
LINE
  5
6212
330
19
100
AcDbEntity
  8
0
100
AcDbLine
 10
1393.366177889147
 20
2025.895295494541
 30
0.0
 11
1409.488492889133
 21
2025.895295494541
 31
0.0
  0
LINE
  5
6213
330
19
100
AcDbEntity
  8
0
100
AcDbLine
 10
1393.366177889147
 20
2039.920295494564
 30
0.0
 11
1409.488492889133
 21
2039.920295494564
 31
0.0
  0
LINE
  5
6214
330
19
100
AcDbEntity
  8
0
100
AcDbLine
 10
1379.67685388917
 20
2024.245295494576
 30
0.0
 11
1376.376820889163
 21
2024.245295494576
 31
0.0
  0
LINE
  5
6215
330
19
100
AcDbEntity
  8
0
100
AcDbLine
 10
1379.67685388917
 20
2027.545295494564
 30
0.0
 11
1379.67685388917
 21
2024.245295494576
 31
0.0
  0
LINE
  5
6216
330
19
100
AcDbEntity
  8
0
100
AcDbLine
 10
1376.376820889163
 20
2027.545295494564
 30
0.0
 11
1379.67685388917
 21
2027.545295494564
 31
0.0
  0
LINE
  5
6217
330
19
100
AcDbEntity
  8
0
100
AcDbLine
 10
1376.376820889163
 20
2024.245295494576
 30
0.0
 11
1376.376820889163
 21
2027.545295494564
 31
0.0
  0
LINE
  5
6218
330
19
100
AcDbEntity
  8
0
100
AcDbLine
 10
1343.578582889146
 20
2025.895295494541
 30
0.0
 11
1362.687430889149
 21
2025.895295494541
 31
0.0
  0
LINE
  5
6219
330
19
100
AcDbEntity
  8
0
100
AcDbLine
 10
1343.578582889146
 20
2025.895295494541
 30
0.0
 11
1362.687430889149
 21
2025.895295494541
 31
0.0
  0
LINE
  5
621A
330
19
100
AcDbEntity
  8
0
100
AcDbLine
 10
1343.578582889146
 20
2039.920295494564
 30
0.0
 11
1343.578582889146
 21
2011.870295494576
 31
0.0
  0
LINE
  5
621B
330
19
100
AcDbEntity
  8
0
100
AcDbLine
 10
1343.578582889146
 20
2039.920295494564
 30
0.0
 11
1362.687430889149
 21
2039.920295494564
 31
0.0
  0
LINE
  5
621C
330
19
100
AcDbEntity
  8
0
100
AcDbLine
 10
1296.296274829576
 20
2038.897149386539
 30
0.0
 11
1296.296274829576
 21
2028.44274677291
 31
0.0
  0
LINE
  5
621D
330
19
100
AcDbEntity
  8
0
100
AcDbLine
 10
1332.886674829562
 20
2059.805954613736
 30
0.0
 11
1317.205074829551
 21
2059.805954613736
 31
0.0
  0
LINE
  5
621E
330
19
100
AcDbEntity
  8
0
100
AcDbLine
 10
1327.659448693543
 20
2012.761144159317
 30
0.0
 11
1327.659448693543
 21
2028.44274677291
 31
0.0
  0
LINE
  5
621F
330
19
100
AcDbEntity
  8
0
100
AcDbLine
 10
1296.296274829576
 20
2012.761144159317
 30
0.0
 11
1327.659448693543
 21
2012.761144159317
 31
0.0
  0
LINE
  5
6220
330
19
100
AcDbEntity
  8
0
100
AcDbLine
 10
1296.296274829576
 20
1997.079546772889
 30
0.0
 11
1296.296274829576
 21
2012.761144159317
 31
0.0
  0
LINE
  5
6221
330
19
100
AcDbEntity
  8
0
100
AcDbLine
 10
1296.296274829576
 20
1997.079546772889
 30
0.0
 11
1311.977874829528
 21
1997.079546772889
 31
0.0
  0
LINE
  5
6222
330
19
100
AcDbEntity
  8
0
100
AcDbLine
 10
1674.233601042804
 20
2008.727758062377
 30
0.0
 11
1674.233601042804
 21
1992.727754762352
 31
0.0
  0
LINE
  5
6223
330
19
100
AcDbEntity
  8
0
100
AcDbLine
 10
1450.733667042783
 20
2064.727754762352
 30
0.0
 11
1450.733667042783
 21
2104.727754762352
 31
0.0
  0
LINE
  5
6224
330
19
100
AcDbEntity
  8
0
100
AcDbLine
 10
1434.233700042801
 20
2064.727754762352
 30
0.0
 11
1434.233700042801
 21
2104.727754762352
 31
0.0
  0
LINE
  5
6225
330
19
100
AcDbEntity
  8
0
100
AcDbLine
 10
1379.633667042806
 20
2064.727754762352
 30
0.0
 11
1379.633667042806
 21
2084.727754762352
 31
0.0
  0
LINE
  5
6226
330
19
100
AcDbEntity
  8
0
100
AcDbLine
 10
1506.233601042804
 20
2008.727758062377
 30
0.0
 11
1774.233601042804
 21
2008.727758062377
 31
0.0
  0
LINE
  5
6227
330
19
100
AcDbEntity
  8
0
100
AcDbLine
 10
1506.233601042804
 20
2104.727754762352
 30
0.0
 11
1506.233601042804
 21
1992.727764662369
 31
0.0
  0
LINE
  5
6228
330
19
100
AcDbEntity
  8
0
100
AcDbLine
 10
1282.233601042804
 20
2104.727754762352
 30
0.0
 11
1774.233601042804
 21
2104.727754762352
 31
0.0
  0
LINE
  5
6229
330
19
100
AcDbEntity
  8
0
100
AcDbLine
 10
1774.233601042804
 20
1992.727754762352
 30
0.0
 11
1774.233601042804
 21
3100.727678762355
 31
0.0
  0
LINE
  5
622A
330
19
100
AcDbEntity
  8
0
100
AcDbLine
 10
234.2335970428321
 20
3100.727678762355
 30
0.0
 11
234.2335970428321
 21
1992.727754762352
 31
0.0
  0
LINE
  5
6BD9
330
19
100
AcDbEntity
  8
0
 48
3.0
100
AcDbLine
 10
501.7481276214257
 20
2238.65420047398
 30
0.0
 11
517.7481276214257
 21
2238.65420047398
 31
0.0
  0
LINE
  5
6BDA
330
19
100
AcDbEntity
  8
0
 48
3.0
100
AcDbLine
 10
501.7481276214257
 20
2229.154200473979
 30
0.0
 11
503.7481276214257
 21
2229.154200473979
 31
0.0
  0
ARC
  5
6BDB
330
19
100
AcDbEntity
  8
0
 48
3.0
100
AcDbCircle
 10
502.7481276214257
 20
2227.15420047398
 30
0.0
 40
1.0
100
AcDbArc
 50
270.0
 51
0.0
  0
ARC
  5
6BDC
330
19
100
AcDbEntity
  8
0
 48
3.0
100
AcDbCircle
 10
502.7481276214257
 20
2228.15420047398
 30
0.0
 40
1.0
100
AcDbArc
 50
0.0
 51
90.0
  0
ARC
  5
6BDD
330
19
100
AcDbEntity
  8
0
 48
3.0
100
AcDbCircle
 10
500.7481276214257
 20
2224.15420047398
 30
0.0
 40
2.0
100
AcDbArc
 50
90.0
 51
180.0
  0
LINE
  5
6BDE
330
19
100
AcDbEntity
  8
0
 48
3.0
100
AcDbLine
 10
500.7481276214257
 20
2226.154200473979
 30
0.0
 11
502.7481276214257
 21
2226.154200473979
 31
0.0
  0
LINE
  5
6BDF
330
19
100
AcDbEntity
  8
0
 48
3.0
100
AcDbLine
 10
503.7481276214257
 20
2227.15420047398
 30
0.0
 11
503.7481276214257
 21
2228.15420047398
 31
0.0
  0
ARC
  5
6BE0
330
19
100
AcDbEntity
  8
0
 48
3.0
100
AcDbCircle
 10
502.7481276214257
 20
2208.954200473979
 30
0.0
 40
1.0
100
AcDbArc
 50
0.0
 51
90.0
  0
ARC
  5
6BE1
330
19
100
AcDbEntity
  8
0
 48
3.0
100
AcDbCircle
 10
500.7481276214257
 20
2211.954200473979
 30
0.0
 40
2.0
100
AcDbArc
 50
180.0
 51
270.0
  0
LINE
  5
6BE2
330
19
100
AcDbEntity
  8
0
 48
3.0
100
AcDbLine
 10
500.7481276214257
 20
2209.954200473979
 30
0.0
 11
502.7481276214257
 21
2209.954200473979
 31
0.0
  0
LINE
  5
6BE3
330
19
100
AcDbEntity
  8
0
 48
3.0
100
AcDbLine
 10
498.7481276214257
 20
2211.954200473979
 30
0.0
 11
498.7481276214257
 21
2224.15420047398
 31
0.0
  0
LINE
  5
6BE5
330
19
100
AcDbEntity
  8
0
 48
3.0
100
AcDbLine
 10
501.7481276214257
 20
2229.154200473979
 30
0.0
 11
501.7481276214257
 21
2238.65420047398
 31
0.0
  0
LINE
  5
6BE6
330
19
100
AcDbEntity
  8
0
 48
3.0
100
AcDbLine
 10
503.7481276214257
 20
2229.154200473979
 30
0.0
 11
503.7481276214257
 21
2238.65420047398
 31
0.0
  0
LINE
  5
6BE7
330
19
100
AcDbEntity
  8
0
 48
3.0
100
AcDbLine
 10
501.7481276214257
 20
2197.454200473979
 30
0.0
 11
517.7481276214257
 21
2197.454200473979
 31
0.0
  0
LINE
  5
6BE8
330
19
100
AcDbEntity
  8
0
 48
3.0
100
AcDbLine
 10
501.7481276214257
 20
2206.954200473979
 30
0.0
 11
503.7481276214257
 21
2206.954200473979
 31
0.0
  0
ARC
  5
6BE9
330
19
100
AcDbEntity
  8
0
 48
3.0
100
AcDbCircle
 10
502.7481276214257
 20
2207.954200473979
 30
0.0
 40
1.0
100
AcDbArc
 50
270.0
 51
0.0
  0
LINE
  5
6BEA
330
19
100
AcDbEntity
  8
0
 48
3.0
100
AcDbLine
 10
503.7481276214257
 20
2197.454200473979
 30
0.0
 11
503.7481276214257
 21
2206.954200473979
 31
0.0
  0
LINE
  5
6BEB
330
19
100
AcDbEntity
  8
0
 48
3.0
100
AcDbLine
 10
501.7481276214257
 20
2197.454200473979
 30
0.0
 11
501.7481276214257
 21
2206.954200473979
 31
0.0
  0
LINE
  5
6BEC
330
19
100
AcDbEntity
  8
0
 48
3.0
100
AcDbLine
 10
503.7481276214257
 20
2207.954200473979
 30
0.0
 11
503.7481276214257
 21
2208.954200473979
 31
0.0
  0
ARC
  5
6BEE
330
19
100
AcDbEntity
  8
0
 48
3.0
100
AcDbCircle
 10
519.7481276214257
 20
2237.054200473979
 30
0.0
 40
1.0
100
AcDbArc
 50
180.0
 51
270.0
  0
LINE
  5
6BEF
330
19
100
AcDbEntity
  8
0
 48
3.0
100
AcDbLine
 10
524.7481276214257
 20
2238.054200473979
 30
0.0
 11
531.7481276214257
 21
2238.054200473979
 31
0.0
  0
LINE
  5
6BF0
330
19
100
AcDbEntity
  8
0
 48
3.0
100
AcDbLine
 10
524.7481276214257
 20
2236.054200473979
 30
0.0
 11
531.7481276214257
 21
2236.054200473979
 31
0.0
  0
LINE
  5
6BF1
330
19
100
AcDbEntity
  8
0
 48
3.0
100
AcDbLine
 10
518.7481276214257
 20
2237.054200473979
 30
0.0
 11
518.7481276214257
 21
2237.65420047398
 31
0.0
  0
LINE
  5
6BF2
330
19
100
AcDbEntity
  8
0
 48
3.0
100
AcDbLine
 10
521.9197004966795
 20
2236.054200473979
 30
0.0
 11
519.7481276214257
 21
2236.054200473979
 31
0.0
  0
LINE
  5
6BF3
330
19
100
AcDbEntity
  8
0
 48
3.0
100
AcDbLine
 10
531.7481276214257
 20
2236.054200473979
 30
0.0
 11
531.7481276214257
 21
2238.054200473979
 31
0.0
  0
ARC
  5
6BF4
330
19
100
AcDbEntity
  8
0
 48
3.0
100
AcDbCircle
 10
524.7481276214257
 20
2235.054200473979
 30
0.0
 40
3.0
100
AcDbArc
 50
90.0
 51
180.0
  0
ARC
  5
6BF5
330
19
100
AcDbEntity
  8
0
 48
3.0
100
AcDbCircle
 10
524.7481276214257
 20
2235.054200473979
 30
0.0
 40
1.0
100
AcDbArc
 50
90.0
 51
180.0
  0
ARC
  5
6BF6
330
19
100
AcDbEntity
  8
0
 48
3.0
100
AcDbCircle
 10
519.7481276214257
 20
2199.054200473979
 30
0.0
 40
1.0
100
AcDbArc
 50
90.0
 51
180.0
  0
LINE
  5
6BF7
330
19
100
AcDbEntity
  8
0
 48
3.0
100
AcDbLine
 10
524.7481276214257
 20
2198.054200473979
 30
0.0
 11
531.7481276214257
 21
2198.054200473979
 31
0.0
  0
LINE
  5
6BF8
330
19
100
AcDbEntity
  8
0
 48
3.0
100
AcDbLine
 10
524.7481276214257
 20
2200.054200473979
 30
0.0
 11
531.7481276214257
 21
2200.054200473979
 31
0.0
  0
ARC
  5
6BF9
330
19
100
AcDbEntity
  8
0
 48
3.0
100
AcDbCircle
 10
524.7481276214257
 20
2201.054200473979
 30
0.0
 40
3.0
100
AcDbArc
 50
180.0
 51
270.0
  0
LINE
  5
6BFA
330
19
100
AcDbEntity
  8
0
 48
3.0
100
AcDbLine
 10
518.7481276214257
 20
2198.454200473979
 30
0.0
 11
518.7481276214257
 21
2199.05420047398
 31
0.0
  0
LINE
  5
6BFB
330
19
100
AcDbEntity
  8
0
 48
3.0
100
AcDbLine
 10
521.9197004966795
 20
2200.054200473979
 30
0.0
 11
519.7481276214257
 21
2200.054200473979
 31
0.0
  0
ARC
  5
6BFC
330
19
100
AcDbEntity
  8
0
 48
3.0
100
AcDbCircle
 10
524.7481276214257
 20
2201.054200473979
 30
0.0
 40
1.0
100
AcDbArc
 50
180.0
 51
270.0
  0
LINE
  5
6BFD
330
19
100
AcDbEntity
  8
0
 48
3.0
100
AcDbLine
 10
531.7481276214257
 20
2198.054200473979
 30
0.0
 11
531.7481276214257
 21
2200.054200473979
 31
0.0
  0
LINE
  5
6BFE
330
19
100
AcDbEntity
  8
0
 48
3.0
100
AcDbLine
 10
521.7481276214257
 20
2201.054200473979
 30
0.0
 11
521.7481276214257
 21
2235.054200473979
 31
0.0
  0
LINE
  5
6BFF
330
19
100
AcDbEntity
  8
0
 48
3.0
100
AcDbLine
 10
523.7481276214257
 20
2201.054200473979
 30
0.0
 11
523.7481276214257
 21
2235.054200473979
 31
0.0
  0
ARC
  5
6C00
330
19
100
AcDbEntity
  8
0
 48
3.0
100
AcDbCircle
 10
517.7481276214257
 20
2198.454200473979
 30
0.0
 40
1.0
100
AcDbArc
 50
270.0
 51
0.0
  0
ARC
  5
6C01
330
19
100
AcDbEntity
  8
0
 48
3.0
100
AcDbCircle
 10
517.7481276214257
 20
2237.65420047398
 30
0.0
 40
1.0
100
AcDbArc
 50
0.0
 51
90.0
  0
CIRCLE
  5
6C02
330
19
100
AcDbEntity
  8
0
 48
3.0
100
AcDbCircle
 10
506.2481276214257
 20
2218.054200473979
 30
0.0
 40
3.1
  0
LINE
  5
6C10
330
19
100
AcDbEntity
  8
0
 48
5.0
100
AcDbLine
 10
526.7481276214257
 20
2729.13206825599
 30
0.0
 11
523.7481276214257
 21
2732.13206825599
 31
0.0
  0
LINE
  5
6C11
330
19
100
AcDbEntity
  8
0
 48
5.0
100
AcDbLine
 10
523.7481276214257
 20
2729.132068255989
 30
0.0
 11
523.7481276214257
 21
2732.13206825599
 31
0.0
  0
LINE
  5
6C12
330
19
100
AcDbEntity
  8
0
 48
5.0
100
AcDbLine
 10
531.7900877298757
 20
2440.17402836444
 30
0.0
 11
538.7481276214257
 21
2447.13206825599
 31
0.0
  0
LINE
  5
6C13
330
19
100
AcDbEntity
  8
0
 48
5.0
100
AcDbLine
 10
523.7481276214257
 20
2557.13206825599
 30
0.0
 11
523.7481276214257
 21
2607.13206825599
 31
0.0
  0
LINE
  5
6C14
330
19
100
AcDbEntity
  8
0
 48
5.0
100
AcDbLine
 10
945.7061675129757
 20
2440.17402836444
 30
0.0
 11
938.7481276214257
 21
2447.13206825599
 31
0.0
  0
LINE
  5
6C15
330
19
100
AcDbEntity
  8
0
 48
5.0
100
AcDbLine
 10
953.7481276214258
 20
2435.132068255991
 30
0.0
 11
953.7481276214258
 21
2432.13206825599
 31
0.0
  0
LINE
  5
6C16
330
19
100
AcDbEntity
  8
0
 48
5.0
100
AcDbLine
 10
953.7481276214258
 20
2607.13206825599
 30
0.0
 11
953.7481276214258
 21
2557.13206825599
 31
0.0
  0
LINE
  5
6C17
330
19
100
AcDbEntity
  8
0
 48
5.0
100
AcDbLine
 10
950.7481276214257
 20
2729.13206825599
 30
0.0
 11
953.7481276214258
 21
2732.13206825599
 31
0.0
  0
LINE
  5
6C18
330
19
100
AcDbEntity
  8
0
 48
3.0
100
AcDbLine
 10
521.7060877298754
 20
2557.13206825599
 30
0.0
 11
529.7060877298754
 21
2557.13206825599
 31
0.0
  0
ARC
  5
6C19
330
19
100
AcDbEntity
  8
0
 48
3.0
100
AcDbCircle
 10
529.7060877298754
 20
2555.13206825599
 30
0.0
 40
2.0
100
AcDbArc
 50
0.0
 51
90.0
  0
LINE
  5
6C1A
330
19
100
AcDbEntity
  8
0
 48
3.0
100
AcDbLine
 10
501.7060877298754
 20
2442.63206825599
 30
0.0
 11
503.7060877298754
 21
2442.63206825599
 31
0.0
  0
ARC
  5
6C1B
330
19
100
AcDbEntity
  8
0
 48
3.0
100
AcDbCircle
 10
504.7060877298754
 20
2435.63206825599
 30
0.0
 40
1.0
100
AcDbArc
 50
180.0
 51
270.0
  0
LINE
  5
6C1C
330
19
100
AcDbEntity
  8
0
 48
3.0
100
AcDbLine
 10
501.7060877298754
 20
2435.63206825599
 30
0.0
 11
501.7060877298754
 21
2442.63206825599
 31
0.0
  0
LINE
  5
6C1D
330
19
100
AcDbEntity
  8
0
 48
3.0
100
AcDbLine
 10
503.7060877298754
 20
2435.63206825599
 30
0.0
 11
503.7060877298754
 21
2442.63206825599
 31
0.0
  0
LINE
  5
6C1E
330
19
100
AcDbEntity
  8
0
 48
3.0
100
AcDbLine
 10
498.7060877298754
 20
2434.63206825599
 30
0.0
 11
501.7060877298754
 21
2434.63206825599
 31
0.0
  0
LINE
  5
6C20
330
19
100
AcDbEntity
  8
0
 48
3.0
100
AcDbLine
 10
498.7060877298754
 20
2432.63206825599
 30
0.0
 11
498.7060877298754
 21
2434.63206825599
 31
0.0
  0
ARC
  5
6C21
330
19
100
AcDbEntity
  8
0
 48
3.0
100
AcDbCircle
 10
504.7060877298754
 20
2435.63206825599
 30
0.0
 40
3.0
100
AcDbArc
 50
180.0
 51
270.0
  0
LINE
  5
6C22
330
19
100
AcDbEntity
  8
0
 48
3.0
100
AcDbLine
 10
529.7060877298754
 20
2435.13206825599
 30
0.0
 11
521.7060877298754
 21
2435.13206825599
 31
0.0
  0
ARC
  5
6C23
330
19
100
AcDbEntity
  8
0
 48
3.0
100
AcDbCircle
 10
529.7060877298754
 20
2437.13206825599
 30
0.0
 40
2.0
100
AcDbArc
 50
270.0
 51
0.0
  0
ARC
  5
6C24
330
19
100
AcDbEntity
  8
0
 48
3.0
100
AcDbCircle
 10
520.7060877298754
 20
2435.63206825599
 30
0.0
 40
1.0
100
AcDbArc
 50
270.0
 51
0.0
  0
ARC
  5
6C25
330
19
100
AcDbEntity
  8
0
 48
3.0
100
AcDbCircle
 10
520.7060877298754
 20
2435.63206825599
 30
0.0
 40
3.0
100
AcDbArc
 50
270.0
 51
350.4059317731373
  0
LINE
  5
6C26
330
19
100
AcDbEntity
  8
0
 48
3.0
100
AcDbLine
 10
518.7060877298754
 20
2432.63206825599
 30
0.0
 11
518.7060877298754
 21
2434.63206825599
 31
0.0
  0
LINE
  5
6C27
330
19
100
AcDbEntity
  8
0
 48
3.0
100
AcDbLine
 10
498.7060877298754
 20
2432.63206825599
 30
0.0
 11
520.7060877298754
 21
2432.63206825599
 31
0.0
  0
LINE
  5
6C29
330
19
100
AcDbEntity
  8
0
 48
3.0
100
AcDbLine
 10
504.7060877298754
 20
2434.63206825599
 30
0.0
 11
520.7060877298754
 21
2434.63206825599
 31
0.0
  0
LINE
  5
6C2A
330
19
100
AcDbEntity
  8
0
 48
3.0
100
AcDbLine
 10
531.7060877298754
 20
2437.13206825599
 30
0.0
 11
531.7060877298754
 21
2555.13206825599
 31
0.0
  0
LINE
  5
6C2B
330
19
100
AcDbEntity
  8
0
 48
3.0
100
AcDbLine
 10
521.7060877298754
 20
2435.13206825599
 30
0.0
 11
521.7060877298754
 21
2557.13206825599
 31
0.0
  0
LINE
  5
6C2C
330
19
100
AcDbEntity
  8
0
 48
3.0
100
AcDbLine
 10
521.7480877298758
 20
2607.13206825599
 30
0.0
 11
529.7480877298758
 21
2607.13206825599
 31
0.0
  0
ARC
  5
6C2D
330
19
100
AcDbEntity
  8
0
 48
3.0
100
AcDbCircle
 10
529.7480877298758
 20
2609.13206825599
 30
0.0
 40
2.0
100
AcDbArc
 50
270.0
 51
0.0
  0
LINE
  5
6C2E
330
19
100
AcDbEntity
  8
0
 48
3.0
100
AcDbLine
 10
501.7480877298758
 20
2721.63206825599
 30
0.0
 11
503.7480877298758
 21
2721.63206825599
 31
0.0
  0
ARC
  5
6C2F
330
19
100
AcDbEntity
  8
0
 48
3.0
100
AcDbCircle
 10
504.7480877298758
 20
2728.63206825599
 30
0.0
 40
1.0
100
AcDbArc
 50
90.0
 51
180.0
  0
LINE
  5
6C30
330
19
100
AcDbEntity
  8
0
 48
3.0
100
AcDbLine
 10
501.7480877298758
 20
2728.63206825599
 30
0.0
 11
501.7480877298758
 21
2721.63206825599
 31
0.0
  0
LINE
  5
6C31
330
19
100
AcDbEntity
  8
0
 48
3.0
100
AcDbLine
 10
503.7480877298758
 20
2728.63206825599
 30
0.0
 11
503.7480877298758
 21
2721.63206825599
 31
0.0
  0
LINE
  5
6C32
330
19
100
AcDbEntity
  8
0
 48
3.0
100
AcDbLine
 10
498.7480877298757
 20
2729.63206825599
 30
0.0
 11
501.7480877298758
 21
2729.63206825599
 31
0.0
  0
LINE
  5
6C34
330
19
100
AcDbEntity
  8
0
 48
3.0
100
AcDbLine
 10
498.7480877298757
 20
2731.63206825599
 30
0.0
 11
498.7480877298757
 21
2729.63206825599
 31
0.0
  0
ARC
  5
6C35
330
19
100
AcDbEntity
  8
0
 48
3.0
100
AcDbCircle
 10
504.7480877298758
 20
2728.63206825599
 30
0.0
 40
3.0
100
AcDbArc
 50
90.0
 51
180.0
  0
LINE
  5
6C36
330
19
100
AcDbEntity
  8
0
 48
3.0
100
AcDbLine
 10
529.7480877298758
 20
2729.13206825599
 30
0.0
 11
521.7480877298758
 21
2729.13206825599
 31
0.0
  0
ARC
  5
6C37
330
19
100
AcDbEntity
  8
0
 48
3.0
100
AcDbCircle
 10
529.7480877298758
 20
2727.13206825599
 30
0.0
 40
2.0
100
AcDbArc
 50
0.0
 51
90.0
  0
ARC
  5
6C38
330
19
100
AcDbEntity
  8
0
 48
3.0
100
AcDbCircle
 10
520.7480877298758
 20
2728.63206825599
 30
0.0
 40
1.0
100
AcDbArc
 50
0.0
 51
90.0
  0
ARC
  5
6C39
330
19
100
AcDbEntity
  8
0
 48
3.0
100
AcDbCircle
 10
520.7480877298758
 20
2728.63206825599
 30
0.0
 40
3.0
100
AcDbArc
 50
9.594068226862637
 51
90.0
  0
LINE
  5
6C3A
330
19
100
AcDbEntity
  8
0
 48
3.0
100
AcDbLine
 10
518.7480877298757
 20
2731.63206825599
 30
0.0
 11
518.7480877298757
 21
2729.63206825599
 31
0.0
  0
LINE
  5
6C3B
330
19
100
AcDbEntity
  8
0
 48
3.0
100
AcDbLine
 10
498.7480877298757
 20
2731.63206825599
 30
0.0
 11
520.7480877298758
 21
2731.63206825599
 31
0.0
  0
LINE
  5
6C3D
330
19
100
AcDbEntity
  8
0
 48
3.0
100
AcDbLine
 10
504.7480877298758
 20
2729.63206825599
 30
0.0
 11
520.7480877298758
 21
2729.63206825599
 31
0.0
  0
LINE
  5
6C3E
330
19
100
AcDbEntity
  8
0
 48
3.0
100
AcDbLine
 10
531.7480877298757
 20
2727.13206825599
 30
0.0
 11
531.7480877298757
 21
2609.13206825599
 31
0.0
  0
LINE
  5
6C3F
330
19
100
AcDbEntity
  8
0
 48
3.0
100
AcDbLine
 10
521.7480877298758
 20
2729.13206825599
 30
0.0
 11
521.7480877298758
 21
2607.13206825599
 31
0.0
  0
LINE
  5
6C40
330
19
100
AcDbEntity
  8
0
 48
3.0
100
AcDbLine
 10
955.7481675129757
 20
2607.13206825599
 30
0.0
 11
947.7481675129757
 21
2607.13206825599
 31
0.0
  0
ARC
  5
6C41
330
19
100
AcDbEntity
  8
0
 48
3.0
100
AcDbCircle
 10
947.7481675129757
 20
2609.13206825599
 30
0.0
 40
2.0
100
AcDbArc
 50
180.0
 51
270.0
  0
LINE
  5
6C42
330
19
100
AcDbEntity
  8
0
 48
3.0
100
AcDbLine
 10
975.7481675129756
 20
2721.63206825599
 30
0.0
 11
973.7481675129757
 21
2721.63206825599
 31
0.0
  0
ARC
  5
6C43
330
19
100
AcDbEntity
  8
0
 48
3.0
100
AcDbCircle
 10
972.7481675129757
 20
2728.63206825599
 30
0.0
 40
1.0
100
AcDbArc
 50
0.0
 51
90.0
  0
LINE
  5
6C44
330
19
100
AcDbEntity
  8
0
 48
3.0
100
AcDbLine
 10
975.7481675129756
 20
2728.63206825599
 30
0.0
 11
975.7481675129756
 21
2721.63206825599
 31
0.0
  0
LINE
  5
6C45
330
19
100
AcDbEntity
  8
0
 48
3.0
100
AcDbLine
 10
973.7481675129757
 20
2728.63206825599
 30
0.0
 11
973.7481675129757
 21
2721.63206825599
 31
0.0
  0
LINE
  5
6C46
330
19
100
AcDbEntity
  8
0
 48
3.0
100
AcDbLine
 10
978.7481675129756
 20
2729.63206825599
 30
0.0
 11
975.7481675129756
 21
2729.63206825599
 31
0.0
  0
LINE
  5
6C48
330
19
100
AcDbEntity
  8
0
 48
3.0
100
AcDbLine
 10
978.7481675129756
 20
2731.63206825599
 30
0.0
 11
978.7481675129756
 21
2729.63206825599
 31
0.0
  0
ARC
  5
6C49
330
19
100
AcDbEntity
  8
0
 48
3.0
100
AcDbCircle
 10
972.7481675129757
 20
2728.63206825599
 30
0.0
 40
3.0
100
AcDbArc
 50
0.0
 51
90.0
  0
LINE
  5
6C4A
330
19
100
AcDbEntity
  8
0
 48
3.0
100
AcDbLine
 10
947.7481675129757
 20
2729.13206825599
 30
0.0
 11
955.7481675129757
 21
2729.13206825599
 31
0.0
  0
ARC
  5
6C4B
330
19
100
AcDbEntity
  8
0
 48
3.0
100
AcDbCircle
 10
947.7481675129757
 20
2727.13206825599
 30
0.0
 40
2.0
100
AcDbArc
 50
90.0
 51
180.0
  0
ARC
  5
6C4C
330
19
100
AcDbEntity
  8
0
 48
3.0
100
AcDbCircle
 10
956.7481675129757
 20
2728.63206825599
 30
0.0
 40
1.0
100
AcDbArc
 50
90.0
 51
180.0
  0
ARC
  5
6C4D
330
19
100
AcDbEntity
  8
0
 48
3.0
100
AcDbCircle
 10
956.7481675129757
 20
2728.63206825599
 30
0.0
 40
3.0
100
AcDbArc
 50
90.0
 51
170.4059317731373
  0
LINE
  5
6C4E
330
19
100
AcDbEntity
  8
0
 48
3.0
100
AcDbLine
 10
958.7481675129756
 20
2731.63206825599
 30
0.0
 11
958.7481675129756
 21
2729.63206825599
 31
0.0
  0
LINE
  5
6C4F
330
19
100
AcDbEntity
  8
0
 48
3.0
100
AcDbLine
 10
978.7481675129756
 20
2731.63206825599
 30
0.0
 11
956.7481675129757
 21
2731.63206825599
 31
0.0
  0
LINE
  5
6C51
330
19
100
AcDbEntity
  8
0
 48
3.0
100
AcDbLine
 10
945.7481675129756
 20
2727.13206825599
 30
0.0
 11
945.7481675129756
 21
2609.13206825599
 31
0.0
  0
LINE
  5
6C52
330
19
100
AcDbEntity
  8
0
 48
3.0
100
AcDbLine
 10
955.7481675129757
 20
2729.13206825599
 30
0.0
 11
955.7481675129757
 21
2607.13206825599
 31
0.0
  0
LINE
  5
6C53
330
19
100
AcDbEntity
  8
0
 48
3.0
100
AcDbLine
 10
972.7481675129757
 20
2729.63206825599
 30
0.0
 11
956.7481675129757
 21
2729.63206825599
 31
0.0
  0
LINE
  5
6C58
330
19
100
AcDbEntity
  8
0
 48
5.0
100
AcDbLine
 10
1234.118183260726
 20
2607.13206825599
 30
0.0
 11
1234.118183260726
 21
2557.13206825599
 31
0.0
  0
LINE
  5
6C59
330
19
100
AcDbEntity
  8
0
 48
5.0
100
AcDbLine
 10
1199.118183260726
 20
2607.13206825599
 30
0.0
 11
1199.118183260726
 21
2557.13206825599
 31
0.0
  0
LINE
  5
6C5A
330
19
100
AcDbEntity
  8
0
 48
5.0
100
AcDbLine
 10
1234.118183260726
 20
2432.63206825599
 30
0.0
 11
1234.118183260726
 21
2432.13206825599
 31
0.0
  0
LINE
  5
6C5B
330
19
100
AcDbEntity
  8
0
 48
5.0
100
AcDbLine
 10
1199.118183260726
 20
2432.63206825599
 30
0.0
 11
1199.118183260726
 21
2432.13206825599
 31
0.0
  0
ARC
  5
6C5C
330
19
100
AcDbEntity
  8
0
 48
3.0
100
AcDbCircle
 10
1216.618183260726
 20
2617.13206825599
 30
0.0
 40
2.5
100
AcDbArc
 50
180.0
 51
0.0
  0
LINE
  5
6C5D
330
19
100
AcDbEntity
  8
0
 48
3.0
100
AcDbLine
 10
1236.618183260726
 20
2607.13206825599
 30
0.0
 11
1196.618183260726
 21
2607.13206825599
 31
0.0
  0
ARC
  5
6C5F
330
19
100
AcDbEntity
  8
0
 48
3.0
100
AcDbCircle
 10
1216.618183260726
 20
2667.13206825599
 30
0.0
 40
2.5
100
AcDbArc
 50
180.0
 51
0.0
  0
ARC
  5
6C60
330
19
100
AcDbEntity
  8
0
 48
3.0
100
AcDbCircle
 10
1216.618183260726
 20
2647.13206825599
 30
0.0
 40
2.5
100
AcDbArc
 50
0.0
 51
180.0
  0
ARC
  5
6C61
330
19
100
AcDbEntity
  8
0
 48
3.0
100
AcDbCircle
 10
1216.618183260726
 20
2697.13206825599
 30
0.0
 40
2.5
100
AcDbArc
 50
0.0
 51
180.0
  0
ARC
  5
6C62
330
19
100
AcDbEntity
  8
0
 48
3.0
100
AcDbCircle
 10
1235.218183260726
 20
2723.63206825599
 30
0.0
 40
2.0
100
AcDbArc
 50
270.0
 51
0.0
  0
ARC
  5
6C64
330
19
100
AcDbEntity
  8
0
 48
3.0
100
AcDbCircle
 10
1229.718183260726
 20
2723.63206825599
 30
0.0
 40
2.0
100
AcDbArc
 50
180.0
 51
270.0
  0
LINE
  5
6C65
330
19
100
AcDbEntity
  8
0
 48
3.0
100
AcDbLine
 10
1235.218183260726
 20
2721.63206825599
 30
0.0
 11
1229.718183260726
 21
2721.632068255991
 31
0.0
  0
LINE
  5
6C67
330
19
100
AcDbEntity
  8
0
 48
3.0
100
AcDbLine
 10
1219.118183260726
 20
2697.13206825599
 30
0.0
 11
1219.118183260726
 21
2667.13206825599
 31
0.0
  0
LINE
  5
6C68
330
19
100
AcDbEntity
  8
0
 48
3.0
100
AcDbLine
 10
1214.118183260726
 20
2697.13206825599
 30
0.0
 11
1214.118183260726
 21
2667.13206825599
 31
0.0
  0
LINE
  5
6C69
330
19
100
AcDbEntity
  8
0
 48
3.0
100
AcDbLine
 10
1237.218183260726
 20
2731.63206825599
 30
0.0
 11
1237.218183260726
 21
2723.63206825599
 31
0.0
  0
LINE
  5
6C6A
330
19
100
AcDbEntity
  8
0
 48
3.0
100
AcDbLine
 10
1227.718183260726
 20
2731.63206825599
 30
0.0
 11
1227.718183260726
 21
2723.63206825599
 31
0.0
  0
LINE
  5
6C6B
330
19
100
AcDbEntity
  8
0
 48
3.0
100
AcDbLine
 10
1224.718183260726
 20
2731.63206825599
 30
0.0
 11
1224.718183260726
 21
2729.63206825599
 31
0.0
  0
ARC
  5
6C6C
330
19
100
AcDbEntity
  8
0
 48
3.0
100
AcDbCircle
 10
1198.018183260726
 20
2723.63206825599
 30
0.0
 40
2.0
100
AcDbArc
 50
180.0
 51
270.0
  0
LINE
  5
6C6D
330
19
100
AcDbEntity
  8
0
 48
3.0
100
AcDbLine
 10
1203.518183260726
 20
2721.63206825599
 30
0.0
 11
1198.018183260726
 21
2721.632068255991
 31
0.0
  0
ARC
  5
6C6E
330
19
100
AcDbEntity
  8
0
 48
3.0
100
AcDbCircle
 10
1203.518183260726
 20
2723.63206825599
 30
0.0
 40
2.0
100
AcDbArc
 50
270.0
 51
0.0
  0
LINE
  5
6C6F
330
19
100
AcDbEntity
  8
0
 48
3.0
100
AcDbLine
 10
1205.518183260726
 20
2731.63206825599
 30
0.0
 11
1205.518183260726
 21
2723.63206825599
 31
0.0
  0
LINE
  5
6C70
330
19
100
AcDbEntity
  8
0
 48
3.0
100
AcDbLine
 10
1208.518183260726
 20
2731.63206825599
 30
0.0
 11
1208.518183260726
 21
2729.63206825599
 31
0.0
  0
LINE
  5
6C71
330
19
100
AcDbEntity
  8
0
 48
3.0
100
AcDbLine
 10
1196.018183260726
 20
2731.63206825599
 30
0.0
 11
1196.018183260726
 21
2723.63206825599
 31
0.0
  0
LINE
  5
6C72
330
19
100
AcDbEntity
  8
0
 48
3.0
100
AcDbLine
 10
1237.218183260726
 20
2731.63206825599
 30
0.0
 11
1196.018183260726
 21
2731.63206825599
 31
0.0
  0
CIRCLE
  5
6C74
330
19
100
AcDbEntity
  8
0
 48
3.0
100
AcDbCircle
 10
1216.618183260726
 20
2718.73206825599
 30
0.0
 40
5.5
  0
LINE
  5
6C77
330
19
100
AcDbEntity
  8
0
 48
3.0
100
AcDbLine
 10
1214.118183260726
 20
2647.13206825599
 30
0.0
 11
1214.118183260726
 21
2617.13206825599
 31
0.0
  0
LINE
  5
6C78
330
19
100
AcDbEntity
  8
0
 48
3.0
100
AcDbLine
 10
1219.118183260726
 20
2647.13206825599
 30
0.0
 11
1219.118183260726
 21
2617.13206825599
 31
0.0
  0
LINE
  5
6C79
330
19
100
AcDbEntity
  8
0
 48
3.0
100
AcDbLine
 10
1196.618183260726
 20
2722.203782570282
 30
0.0
 11
1196.618183260726
 21
2607.13206825599
 31
0.0
  0
LINE
  5
6C7A
330
19
100
AcDbEntity
  8
0
 48
3.0
100
AcDbLine
 10
1236.618183260726
 20
2722.203782570282
 30
0.0
 11
1236.618183260726
 21
2607.13206825599
 31
0.0
  0
LINE
  5
6C7B
330
19
100
AcDbEntity
  8
0
 48
3.0
100
AcDbLine
 10
1227.718183260726
 20
2729.63206825599
 30
0.0
 11
1205.518183260726
 21
2729.63206825599
 31
0.0
  0
ARC
  5
6C7C
330
19
100
AcDbEntity
  8
0
 48
3.0
100
AcDbCircle
 10
957.7481276214257
 20
2237.054200473979
 30
0.0
 40
1.0
100
AcDbArc
 50
270.0
 51
0.0
  0
ARC
  5
6C7D
330
19
100
AcDbEntity
  8
0
 48
3.0
100
AcDbCircle
 10
959.7481276214256
 20
2237.65420047398
 30
0.0
 40
1.0
100
AcDbArc
 50
90.0
 51
180.0
  0
LINE
  5
6C7E
330
19
100
AcDbEntity
  8
0
 48
3.0
100
AcDbLine
 10
952.7481276214258
 20
2238.054200473979
 30
0.0
 11
945.7481276214258
 21
2238.054200473979
 31
0.0
  0
LINE
  5
6C7F
330
19
100
AcDbEntity
  8
0
 48
3.0
100
AcDbLine
 10
952.7481276214258
 20
2236.054200473979
 30
0.0
 11
945.7481276214258
 21
2236.054200473979
 31
0.0
  0
ARC
  5
6C80
330
19
100
AcDbEntity
  8
0
 48
3.0
100
AcDbCircle
 10
952.7481276214258
 20
2235.054200473979
 30
0.0
 40
3.0
100
AcDbArc
 50
0.0
 51
90.0
  0
LINE
  5
6C81
330
19
100
AcDbEntity
  8
0
 48
3.0
100
AcDbLine
 10
958.7481276214257
 20
2237.054200473979
 30
0.0
 11
958.7481276214257
 21
2237.65420047398
 31
0.0
  0
LINE
  5
6C82
330
19
100
AcDbEntity
  8
0
 48
3.0
100
AcDbLine
 10
955.5765547461719
 20
2236.054200473979
 30
0.0
 11
957.7481276214257
 21
2236.054200473979
 31
0.0
  0
ARC
  5
6C83
330
19
100
AcDbEntity
  8
0
 48
3.0
100
AcDbCircle
 10
952.7481276214258
 20
2235.054200473979
 30
0.0
 40
1.0
100
AcDbArc
 50
0.0
 51
90.0
  0
LINE
  5
6C84
330
19
100
AcDbEntity
  8
0
 48
3.0
100
AcDbLine
 10
945.7481276214258
 20
2236.054200473979
 30
0.0
 11
945.7481276214258
 21
2238.054200473979
 31
0.0
  0
LINE
  5
6C85
330
19
100
AcDbEntity
  8
0
 48
3.0
100
AcDbLine
 10
975.7481276214257
 20
2229.154200473979
 30
0.0
 11
975.7481276214257
 21
2238.65420047398
 31
0.0
  0
LINE
  5
6C86
330
19
100
AcDbEntity
  8
0
 48
3.0
100
AcDbLine
 10
973.7481276214257
 20
2229.154200473979
 30
0.0
 11
973.7481276214257
 21
2238.65420047398
 31
0.0
  0
LINE
  5
6C87
330
19
100
AcDbEntity
  8
0
 48
3.0
100
AcDbLine
 10
975.7481276214257
 20
2229.154200473979
 30
0.0
 11
973.7481276214257
 21
2229.154200473979
 31
0.0
  0
ARC
  5
6C88
330
19
100
AcDbEntity
  8
0
 48
3.0
100
AcDbCircle
 10
974.7481276214257
 20
2227.15420047398
 30
0.0
 40
1.0
100
AcDbArc
 50
180.0
 51
270.0
  0
ARC
  5
6C89
330
19
100
AcDbEntity
  8
0
 48
3.0
100
AcDbCircle
 10
974.7481276214257
 20
2228.15420047398
 30
0.0
 40
1.0
100
AcDbArc
 50
90.0
 51
180.0
  0
ARC
  5
6C8A
330
19
100
AcDbEntity
  8
0
 48
3.0
100
AcDbCircle
 10
976.7481276214256
 20
2224.15420047398
 30
0.0
 40
2.0
100
AcDbArc
 50
0.0
 51
90.0
  0
LINE
  5
6C8B
330
19
100
AcDbEntity
  8
0
 48
3.0
100
AcDbLine
 10
976.7481276214256
 20
2226.154200473979
 30
0.0
 11
974.7481276214257
 21
2226.154200473979
 31
0.0
  0
CIRCLE
  5
6C8C
330
19
100
AcDbEntity
  8
0
 48
3.0
100
AcDbCircle
 10
971.2481276214257
 20
2218.054200473979
 30
0.0
 40
3.1
  0
LINE
  5
6C8D
330
19
100
AcDbEntity
  8
0
 48
3.0
100
AcDbLine
 10
973.7481276214257
 20
2227.15420047398
 30
0.0
 11
973.7481276214257
 21
2228.15420047398
 31
0.0
  0
LINE
  5
6C8F
330
19
100
AcDbEntity
  8
0
 48
3.0
100
AcDbLine
 10
975.7481276214257
 20
2238.65420047398
 30
0.0
 11
959.7481276214256
 21
2238.65420047398
 31
0.0
  0
ARC
  5
6C90
330
19
100
AcDbEntity
  8
0
 48
3.0
100
AcDbCircle
 10
957.7481276214257
 20
2199.054200473979
 30
0.0
 40
1.0
100
AcDbArc
 50
0.0
 51
90.0
  0
ARC
  5
6C91
330
19
100
AcDbEntity
  8
0
 48
3.0
100
AcDbCircle
 10
959.7481276214256
 20
2198.454200473979
 30
0.0
 40
1.0
100
AcDbArc
 50
180.0
 51
270.0
  0
LINE
  5
6C92
330
19
100
AcDbEntity
  8
0
 48
3.0
100
AcDbLine
 10
952.7481276214258
 20
2198.054200473979
 30
0.0
 11
945.7481276214258
 21
2198.054200473979
 31
0.0
  0
LINE
  5
6C93
330
19
100
AcDbEntity
  8
0
 48
3.0
100
AcDbLine
 10
952.7481276214258
 20
2200.054200473979
 30
0.0
 11
945.7481276214258
 21
2200.054200473979
 31
0.0
  0
ARC
  5
6C94
330
19
100
AcDbEntity
  8
0
 48
3.0
100
AcDbCircle
 10
952.7481276214258
 20
2201.054200473979
 30
0.0
 40
3.0
100
AcDbArc
 50
270.0
 51
0.0
  0
LINE
  5
6C95
330
19
100
AcDbEntity
  8
0
 48
3.0
100
AcDbLine
 10
958.7481276214257
 20
2198.454200473979
 30
0.0
 11
958.7481276214257
 21
2199.05420047398
 31
0.0
  0
LINE
  5
6C96
330
19
100
AcDbEntity
  8
0
 48
3.0
100
AcDbLine
 10
955.5765547461719
 20
2200.054200473979
 30
0.0
 11
957.7481276214257
 21
2200.054200473979
 31
0.0
  0
ARC
  5
6C97
330
19
100
AcDbEntity
  8
0
 48
3.0
100
AcDbCircle
 10
952.7481276214258
 20
2201.054200473979
 30
0.0
 40
1.0
100
AcDbArc
 50
270.0
 51
0.0
  0
LINE
  5
6C98
330
19
100
AcDbEntity
  8
0
 48
3.0
100
AcDbLine
 10
945.7481276214258
 20
2198.054200473979
 30
0.0
 11
945.7481276214258
 21
2200.054200473979
 31
0.0
  0
ARC
  5
6C99
330
19
100
AcDbEntity
  8
0
 48
3.0
100
AcDbCircle
 10
974.7481276214257
 20
2208.954200473979
 30
0.0
 40
1.0
100
AcDbArc
 50
90.0
 51
180.0
  0
LINE
  5
6C9A
330
19
100
AcDbEntity
  8
0
 48
3.0
100
AcDbLine
 10
975.7481276214257
 20
2206.954200473979
 30
0.0
 11
973.7481276214257
 21
2206.954200473979
 31
0.0
  0
ARC
  5
6C9B
330
19
100
AcDbEntity
  8
0
 48
3.0
100
AcDbCircle
 10
974.7481276214257
 20
2207.954200473979
 30
0.0
 40
1.0
100
AcDbArc
 50
180.0
 51
270.0
  0
ARC
  5
6C9C
330
19
100
AcDbEntity
  8
0
 48
3.0
100
AcDbCircle
 10
976.7481276214256
 20
2211.954200473979
 30
0.0
 40
2.0
100
AcDbArc
 50
270.0
 51
0.0
  0
LINE
  5
6C9D
330
19
100
AcDbEntity
  8
0
 48
3.0
100
AcDbLine
 10
976.7481276214256
 20
2209.954200473979
 30
0.0
 11
974.7481276214257
 21
2209.954200473979
 31
0.0
  0
LINE
  5
6C9E
330
19
100
AcDbEntity
  8
0
 48
3.0
100
AcDbLine
 10
973.7481276214257
 20
2197.454200473979
 30
0.0
 11
973.7481276214257
 21
2206.954200473979
 31
0.0
  0
LINE
  5
6C9F
330
19
100
AcDbEntity
  8
0
 48
3.0
100
AcDbLine
 10
973.7481276214257
 20
2207.954200473979
 30
0.0
 11
973.7481276214257
 21
2208.954200473979
 31
0.0
  0
LINE
  5
6CA0
330
19
100
AcDbEntity
  8
0
 48
3.0
100
AcDbLine
 10
975.7481276214257
 20
2197.454200473979
 30
0.0
 11
959.7481276214256
 21
2197.454200473979
 31
0.0
  0
LINE
  5
6CA1
330
19
100
AcDbEntity
  8
0
 48
3.0
100
AcDbLine
 10
978.7481276214258
 20
2211.954200473979
 30
0.0
 11
978.7481276214258
 21
2224.15420047398
 31
0.0
  0
LINE
  5
6CA3
330
19
100
AcDbEntity
  8
0
 48
3.0
100
AcDbLine
 10
955.7481276214257
 20
2201.054200473979
 30
0.0
 11
955.7481276214257
 21
2235.054200473979
 31
0.0
  0
LINE
  5
6CA4
330
19
100
AcDbEntity
  8
0
 48
3.0
100
AcDbLine
 10
953.7481276214258
 20
2201.054200473979
 30
0.0
 11
953.7481276214258
 21
2235.054200473979
 31
0.0
  0
LINE
  5
6CA5
330
19
100
AcDbEntity
  8
0
 48
3.0
100
AcDbLine
 10
975.7481276214257
 20
2197.454200473979
 30
0.0
 11
975.7481276214257
 21
2206.954200473979
 31
0.0
  0
LINE
  5
6CA8
330
19
100
AcDbEntity
  8
0
 48
3.0
100
AcDbLine
 10
955.7901675129761
 20
2557.13206825599
 30
0.0
 11
947.7901675129761
 21
2557.13206825599
 31
0.0
  0
ARC
  5
6CA9
330
19
100
AcDbEntity
  8
0
 48
3.0
100
AcDbCircle
 10
947.7901675129761
 20
2555.13206825599
 30
0.0
 40
2.0
100
AcDbArc
 50
90.0
 51
180.0
  0
LINE
  5
6CAA
330
19
100
AcDbEntity
  8
0
 48
3.0
100
AcDbLine
 10
978.7901675129759
 20
2432.63206825599
 30
0.0
 11
978.7901675129759
 21
2434.63206825599
 31
0.0
  0
LINE
  5
6CAB
330
19
100
AcDbEntity
  8
0
 48
3.0
100
AcDbLine
 10
975.790167512976
 20
2442.63206825599
 30
0.0
 11
973.790167512976
 21
2442.63206825599
 31
0.0
  0
LINE
  5
6CAC
330
19
100
AcDbEntity
  8
0
 48
3.0
100
AcDbLine
 10
972.7901675129761
 20
2434.63206825599
 30
0.0
 11
956.790167512976
 21
2434.63206825599
 31
0.0
  0
LINE
  5
6CAD
330
19
100
AcDbEntity
  8
0
 48
3.0
100
AcDbLine
 10
947.7901675129761
 20
2435.13206825599
 30
0.0
 11
955.7901675129761
 21
2435.13206825599
 31
0.0
  0
ARC
  5
6CAE
330
19
100
AcDbEntity
  8
0
 48
3.0
100
AcDbCircle
 10
956.790167512976
 20
2435.63206825599
 30
0.0
 40
3.0
100
AcDbArc
 50
189.5940682268627
 51
270.0
  0
ARC
  5
6CAF
330
19
100
AcDbEntity
  8
0
 48
3.0
100
AcDbCircle
 10
947.7901675129761
 20
2437.13206825599
 30
0.0
 40
2.0
100
AcDbArc
 50
180.0
 51
270.0
  0
LINE
  5
6CB0
330
19
100
AcDbEntity
  8
0
 48
3.0
100
AcDbLine
 10
958.790167512976
 20
2432.63206825599
 30
0.0
 11
958.790167512976
 21
2434.63206825599
 31
0.0
  0
ARC
  5
6CB1
330
19
100
AcDbEntity
  8
0
 48
3.0
100
AcDbCircle
 10
956.790167512976
 20
2435.63206825599
 30
0.0
 40
1.0
100
AcDbArc
 50
180.0
 51
270.0
  0
ARC
  5
6CB2
330
19
100
AcDbEntity
  8
0
 48
3.0
100
AcDbCircle
 10
972.7901675129761
 20
2435.63206825599
 30
0.0
 40
1.0
100
AcDbArc
 50
270.0
 51
0.0
  0
ARC
  5
6CB3
330
19
100
AcDbEntity
  8
0
 48
3.0
100
AcDbCircle
 10
972.7901675129761
 20
2435.63206825599
 30
0.0
 40
3.0
100
AcDbArc
 50
270.0
 51
0.0
  0
LINE
  5
6CB4
330
19
100
AcDbEntity
  8
0
 48
3.0
100
AcDbLine
 10
975.790167512976
 20
2435.63206825599
 30
0.0
 11
975.790167512976
 21
2442.63206825599
 31
0.0
  0
LINE
  5
6CB5
330
19
100
AcDbEntity
  8
0
 48
3.0
100
AcDbLine
 10
973.790167512976
 20
2435.63206825599
 30
0.0
 11
973.790167512976
 21
2442.63206825599
 31
0.0
  0
LINE
  5
6CB6
330
19
100
AcDbEntity
  8
0
 48
3.0
100
AcDbLine
 10
978.7901675129759
 20
2432.63206825599
 30
0.0
 11
956.790167512976
 21
2432.63206825599
 31
0.0
  0
LINE
  5
6CB7
330
19
100
AcDbEntity
  8
0
 48
3.0
100
AcDbLine
 10
978.7901675129759
 20
2434.63206825599
 30
0.0
 11
975.790167512976
 21
2434.63206825599
 31
0.0
  0
LINE
  5
6CB8
330
19
100
AcDbEntity
  8
0
 48
3.0
100
AcDbLine
 10
945.7901675129759
 20
2437.13206825599
 30
0.0
 11
945.7901675129759
 21
2555.13206825599
 31
0.0
  0
LINE
  5
6CB9
330
19
100
AcDbEntity
  8
0
 48
3.0
100
AcDbLine
 10
955.7901675129761
 20
2435.13206825599
 30
0.0
 11
955.7901675129761
 21
2557.13206825599
 31
0.0
  0
ARC
  5
6CBA
330
19
100
AcDbEntity
  8
0
 48
3.0
100
AcDbCircle
 10
1216.618183260726
 20
2547.13206825599
 30
0.0
 40
2.5
100
AcDbArc
 50
0.0
 51
180.0
  0
ARC
  5
6CBB
330
19
100
AcDbEntity
  8
0
 48
3.0
100
AcDbCircle
 10
1216.618183260726
 20
2497.13206825599
 30
0.0
 40
2.5
100
AcDbArc
 50
0.0
 51
180.0
  0
ARC
  5
6CBC
330
19
100
AcDbEntity
  8
0
 48
3.0
100
AcDbCircle
 10
1216.618183260726
 20
2517.13206825599
 30
0.0
 40
2.5
100
AcDbArc
 50
180.0
 51
0.0
  0
LINE
  5
6CBE
330
19
100
AcDbEntity
  8
0
 48
3.0
100
AcDbLine
 10
1203.518183260726
 20
2442.63206825599
 30
0.0
 11
1198.018183260726
 21
2442.63206825599
 31
0.0
  0
ARC
  5
6CBF
330
19
100
AcDbEntity
  8
0
 48
3.0
100
AcDbCircle
 10
1216.618183260726
 20
2467.13206825599
 30
0.0
 40
2.5
100
AcDbArc
 50
180.0
 51
0.0
  0
LINE
  5
6CC0
330
19
100
AcDbEntity
  8
0
 48
3.0
100
AcDbLine
 10
1205.518183260726
 20
2432.63206825599
 30
0.0
 11
1205.518183260726
 21
2440.63206825599
 31
0.0
  0
LINE
  5
6CC1
330
19
100
AcDbEntity
  8
0
 48
3.0
100
AcDbLine
 10
1208.518183260726
 20
2432.63206825599
 30
0.0
 11
1208.518183260726
 21
2434.63206825599
 31
0.0
  0
LINE
  5
6CC2
330
19
100
AcDbEntity
  8
0
 48
3.0
100
AcDbLine
 10
1196.018183260726
 20
2432.63206825599
 30
0.0
 11
1196.018183260726
 21
2440.63206825599
 31
0.0
  0
ARC
  5
6CC4
330
19
100
AcDbEntity
  8
0
 48
3.0
100
AcDbCircle
 10
1203.518183260726
 20
2440.63206825599
 30
0.0
 40
2.0
100
AcDbArc
 50
0.0
 51
90.0
  0
ARC
  5
6CC5
330
19
100
AcDbEntity
  8
0
 48
3.0
100
AcDbCircle
 10
1198.018183260726
 20
2440.63206825599
 30
0.0
 40
2.0
100
AcDbArc
 50
90.0
 51
180.0
  0
LINE
  5
6CC6
330
19
100
AcDbEntity
  8
0
 48
3.0
100
AcDbLine
 10
1219.118183260726
 20
2467.13206825599
 30
0.0
 11
1219.118183260726
 21
2497.13206825599
 31
0.0
  0
LINE
  5
6CC7
330
19
100
AcDbEntity
  8
0
 48
3.0
100
AcDbLine
 10
1214.118183260726
 20
2467.13206825599
 30
0.0
 11
1214.118183260726
 21
2497.13206825599
 31
0.0
  0
LINE
  5
6CC8
330
19
100
AcDbEntity
  8
0
 48
3.0
100
AcDbLine
 10
1214.118183260726
 20
2517.13206825599
 30
0.0
 11
1214.118183260726
 21
2547.13206825599
 31
0.0
  0
LINE
  5
6CC9
330
19
100
AcDbEntity
  8
0
 48
3.0
100
AcDbLine
 10
1219.118183260726
 20
2517.13206825599
 30
0.0
 11
1219.118183260726
 21
2547.13206825599
 31
0.0
  0
LINE
  5
6CCA
330
19
100
AcDbEntity
  8
0
 48
3.0
100
AcDbLine
 10
1196.618183260726
 20
2442.060353941699
 30
0.0
 11
1196.618183260726
 21
2557.13206825599
 31
0.0
  0
LINE
  5
6CCC
330
19
100
AcDbEntity
  8
0
 48
3.0
100
AcDbLine
 10
1235.218183260726
 20
2442.63206825599
 30
0.0
 11
1229.718183260726
 21
2442.63206825599
 31
0.0
  0
LINE
  5
6CCD
330
19
100
AcDbEntity
  8
0
 48
3.0
100
AcDbLine
 10
1237.218183260726
 20
2432.63206825599
 30
0.0
 11
1237.218183260726
 21
2440.63206825599
 31
0.0
  0
LINE
  5
6CCE
330
19
100
AcDbEntity
  8
0
 48
3.0
100
AcDbLine
 10
1227.718183260726
 20
2432.63206825599
 30
0.0
 11
1227.718183260726
 21
2440.63206825599
 31
0.0
  0
LINE
  5
6CCF
330
19
100
AcDbEntity
  8
0
 48
3.0
100
AcDbLine
 10
1224.718183260726
 20
2432.63206825599
 30
0.0
 11
1224.718183260726
 21
2434.63206825599
 31
0.0
  0
ARC
  5
6CD0
330
19
100
AcDbEntity
  8
0
 48
3.0
100
AcDbCircle
 10
1235.218183260726
 20
2440.63206825599
 30
0.0
 40
2.0
100
AcDbArc
 50
0.0
 51
90.0
  0
ARC
  5
6CD1
330
19
100
AcDbEntity
  8
0
 48
3.0
100
AcDbCircle
 10
1229.718183260726
 20
2440.63206825599
 30
0.0
 40
2.0
100
AcDbArc
 50
90.0
 51
180.0
  0
LINE
  5
6CD2
330
19
100
AcDbEntity
  8
0
 48
3.0
100
AcDbLine
 10
1236.618183260726
 20
2442.060353941699
 30
0.0
 11
1236.618183260726
 21
2557.13206825599
 31
0.0
  0
LINE
  5
6CD4
330
19
100
AcDbEntity
  8
0
 48
3.0
100
AcDbLine
 10
1227.718183260726
 20
2434.63206825599
 30
0.0
 11
1205.518183260726
 21
2434.63206825599
 31
0.0
  0
CIRCLE
  5
6CD5
330
19
100
AcDbEntity
  8
0
 48
3.0
100
AcDbCircle
 10
1216.618183260726
 20
2445.53206825599
 30
0.0
 40
5.5
  0
LINE
  5
6CD8
330
19
100
AcDbEntity
  8
0
 48
3.0
100
AcDbLine
 10
1236.618183260726
 20
2557.13206825599
 30
0.0
 11
1196.618183260726
 21
2557.13206825599
 31
0.0
  0
LINE
  5
6CD9
330
19
100
AcDbEntity
  8
0
 48
3.0
100
AcDbLine
 10
1237.218183260726
 20
2432.63206825599
 30
0.0
 11
1196.018183260726
 21
2432.63206825599
 31
0.0
  0
LINE
  5
6CDA
330
19
100
AcDbEntity
  8
0
 48
5.0
100
AcDbLine
 10
1199.118183260726
 20
2732.13206825599
 30
0.0
 11
1234.118183260726
 21
2732.13206825599
 31
0.0
  0
CIRCLE
  5
6CDC
330
19
100
AcDbEntity
  8
0
 48
0.25
100
AcDbCircle
 10
1216.618183260726
 20
2707.13206825599
 30
0.0
 40
3.0
  0
ARC
  5
6CE0
330
19
100
AcDbEntity
  8
0
 48
0.25
100
AcDbCircle
 10
1216.618183260726
 20
2682.13206825599
 30
0.0
 40
3.0
100
AcDbArc
 50
146.4426902380785
 51
213.5573097619214
  0
CIRCLE
  5
6CE1
330
19
100
AcDbEntity
  8
0
 48
0.25
100
AcDbCircle
 10
1216.618183260726
 20
2657.13206825599
 30
0.0
 40
3.0
  0
ARC
  5
6CE5
330
19
100
AcDbEntity
  8
0
 48
0.25
100
AcDbCircle
 10
1216.618183260726
 20
2632.13206825599
 30
0.0
 40
3.0
100
AcDbArc
 50
146.4426902380785
 51
213.5573097619214
  0
ARC
  5
6CE9
330
19
100
AcDbEntity
  8
0
 48
0.25
100
AcDbCircle
 10
1216.618183260726
 20
2557.13206825599
 30
0.0
 40
3.0
100
AcDbArc
 50
180.0
 51
0.0
  0
ARC
  5
6CEA
330
19
100
AcDbEntity
  8
0
 48
0.25
100
AcDbCircle
 10
1216.618183260726
 20
2532.13206825599
 30
0.0
 40
3.0
100
AcDbArc
 50
326.4426902380786
 51
33.55730976192144
  0
ARC
  5
6CEF
330
19
100
AcDbEntity
  8
0
 48
0.25
100
AcDbCircle
 10
1216.618183260726
 20
2607.13206825599
 30
0.0
 40
3.0
100
AcDbArc
 50
0.0
 51
180.0
  0
CIRCLE
  5
6CF1
330
19
100
AcDbEntity
  8
0
 48
0.25
100
AcDbCircle
 10
1216.618183260726
 20
2507.13206825599
 30
0.0
 40
3.0
  0
ARC
  5
6CF3
330
19
100
AcDbEntity
  8
0
 48
0.25
100
AcDbCircle
 10
1216.618183260726
 20
2482.13206825599
 30
0.0
 40
3.0
100
AcDbArc
 50
146.4426902380785
 51
213.5573097619214
  0
CIRCLE
  5
6CF4
330
19
100
AcDbEntity
  8
0
 48
0.25
100
AcDbCircle
 10
1216.618183260726
 20
2457.13206825599
 30
0.0
 40
3.0
  0
LINE
  5
6CF9
330
19
100
AcDbEntity
  8
0
 48
5.0
100
AcDbLine
 10
1199.118183260726
 20
2432.13206825599
 30
0.0
 11
1234.118183260726
 21
2432.13206825599
 31
0.0
  0
LINE
  5
6D01
330
19
100
AcDbEntity
  8
0
 48
5.0
100
AcDbLine
 10
1199.118183260726
 20
2732.13206825599
 30
0.0
 11
1199.118183260726
 21
2731.63206825599
 31
0.0
  0
LINE
  5
6D02
330
19
100
AcDbEntity
  8
0
 48
5.0
100
AcDbLine
 10
1234.118183260726
 20
2732.13206825599
 30
0.0
 11
1234.118183260726
 21
2731.63206825599
 31
0.0
  0
LINE
  5
6D07
330
19
100
AcDbEntity
  8
0
 48
5.0
100
AcDbLine
 10
523.7481276214257
 20
2200.554200473979
 30
0.0
 11
523.7481276214257
 21
2235.554200473979
 31
0.0
  0
CIRCLE
  5
6D08
330
19
100
AcDbEntity
  8
0
 48
5.0
100
AcDbCircle
 10
538.7481276214257
 20
2218.054200473979
 30
0.0
 40
2.1
  0
CIRCLE
  5
6D0B
330
19
100
AcDbEntity
  8
0
 48
5.0
100
AcDbCircle
 10
588.7481276214257
 20
2218.054200473979
 30
0.0
 40
2.1
  0
CIRCLE
  5
6D0C
330
19
100
AcDbEntity
  8
0
 48
5.0
100
AcDbCircle
 10
638.7481276214257
 20
2218.054200473979
 30
0.0
 40
2.1
  0
CIRCLE
  5
6D13
330
19
100
AcDbEntity
  8
0
 48
5.0
100
AcDbCircle
 10
838.7481276214257
 20
2218.054200473979
 30
0.0
 40
2.1
  0
CIRCLE
  5
6D16
330
19
100
AcDbEntity
  8
0
 48
5.0
100
AcDbCircle
 10
888.7481276214257
 20
2218.054200473979
 30
0.0
 40
2.1
  0
LINE
  5
6D1B
330
19
100
AcDbEntity
  8
0
 48
5.0
100
AcDbLine
 10
538.7481276214257
 20
2717.13206825599
 30
0.0
 11
531.7900877298757
 21
2724.090108147541
 31
0.0
  0
CIRCLE
  5
6D20
330
19
100
AcDbEntity
  8
0
 48
5.0
100
AcDbCircle
 10
938.7481276214257
 20
2218.054200473979
 30
0.0
 40
2.1
  0
LINE
  5
6D23
330
19
100
AcDbEntity
  8
0
 48
5.0
100
AcDbLine
 10
953.7481276214258
 20
2200.554200473979
 30
0.0
 11
953.7481276214258
 21
2235.554200473979
 31
0.0
  0
LINE
  5
6D24
330
19
100
AcDbEntity
  8
0
 48
5.0
100
AcDbLine
 10
938.7481276214257
 20
2717.13206825599
 30
0.0
 11
945.7061675129757
 21
2724.090108147541
 31
0.0
  0
LINE
  5
6D25
330
19
100
AcDbEntity
  8
0
 48
5.0
100
AcDbLine
 10
523.7481276214257
 20
2732.13206825599
 30
0.0
 11
953.7481276214258
 21
2732.13206825599
 31
0.0
  0
LINE
  5
6D26
330
19
100
AcDbEntity
  8
0
 48
5.0
100
AcDbLine
 10
523.7481276214257
 20
2235.554200473979
 30
0.0
 11
953.7481276214258
 21
2235.554200473979
 31
0.0
  0
LINE
  5
6D27
330
19
100
AcDbEntity
  8
0
 48
5.0
100
AcDbLine
 10
538.7481276214257
 20
2717.13206825599
 30
0.0
 11
938.7481276214257
 21
2717.13206825599
 31
0.0
  0
LINE
  5
6D2A
330
19
100
AcDbEntity
  8
0
 48
5.0
100
AcDbLine
 10
523.7481276214257
 20
2200.554200473979
 30
0.0
 11
953.7481276214258
 21
2200.554200473979
 31
0.0
  0
LINE
  5
6D2B
330
19
100
AcDbEntity
  8
0
 48
5.0
100
AcDbLine
 10
523.7481276214257
 20
2432.13206825599
 30
0.0
 11
526.7481276214257
 21
2435.13206825599
 31
0.0
  0
LINE
  5
6D2C
330
19
100
AcDbEntity
  8
0
 48
5.0
100
AcDbLine
 10
953.7481276214258
 20
2432.13206825599
 30
0.0
 11
950.7481276214257
 21
2435.13206825599
 31
0.0
  0
LINE
  5
6D2D
330
19
100
AcDbEntity
  8
0
 48
5.0
100
AcDbLine
 10
953.7481276214258
 20
2432.13206825599
 30
0.0
 11
523.7481276214257
 21
2432.13206825599
 31
0.0
  0
LINE
  5
6D2E
330
19
100
AcDbEntity
  8
0
 48
5.0
100
AcDbLine
 10
938.7481276214257
 20
2447.13206825599
 30
0.0
 11
538.7481276214257
 21
2447.13206825599
 31
0.0
  0
LINE
  5
6D2F
330
19
100
AcDbEntity
  8
0
 48
5.0
100
AcDbLine
 10
523.7481276214257
 20
2432.13206825599
 30
0.0
 11
523.7481276214257
 21
2435.132068255992
 31
0.0
  0
LINE
  5
6D30
330
19
100
AcDbEntity
  8
0
 48
5.0
100
AcDbLine
 10
953.7481276214258
 20
2732.13206825599
 30
0.0
 11
953.7481276214258
 21
2729.132068255989
 31
0.0
  0
LINE
  5
6D31
330
19
100
AcDbEntity
  8
0
 48
5.0
100
AcDbLine
 10
938.7481276214257
 20
2717.13206825599
 30
0.0
 11
938.7481276214257
 21
2447.13206825599
 31
0.0
  0
LINE
  5
6D32
330
19
100
AcDbEntity
  8
0
 48
5.0
100
AcDbLine
 10
538.7481276214257
 20
2447.13206825599
 30
0.0
 11
538.7481276214257
 21
2717.13206825599
 31
0.0
  0
ARC
  5
7240
330
19
100
AcDbEntity
  8
0
 48
0.25
100
AcDbCircle
 10
1216.618183260726
 20
2682.13206825599
 30
0.0
 40
3.0
100
AcDbArc
 50
326.4426902380786
 51
33.55730976192144
  0
ARC
  5
7241
330
19
100
AcDbEntity
  8
0
 48
0.25
100
AcDbCircle
 10
1216.618183260726
 20
2632.13206825599
 30
0.0
 40
3.0
100
AcDbArc
 50
326.4426902380786
 51
33.55730976192144
  0
ARC
  5
7242
330
19
100
AcDbEntity
  8
0
100
AcDbCircle
 10
1216.618183260726
 20
2682.13206825599
 30
0.0
 40
3.0
100
AcDbArc
 50
213.5573097619214
 51
326.4426902380786
  0
ARC
  5
7243
330
19
100
AcDbEntity
  8
0
100
AcDbCircle
 10
1216.618183260726
 20
2682.13206825599
 30
0.0
 40
3.0
100
AcDbArc
 50
33.55730976192144
 51
146.4426902380785
  0
ARC
  5
7244
330
19
100
AcDbEntity
  8
0
100
AcDbCircle
 10
1216.618183260726
 20
2632.13206825599
 30
0.0
 40
3.0
100
AcDbArc
 50
213.5573097619214
 51
326.4426902380786
  0
ARC
  5
7245
330
19
100
AcDbEntity
  8
0
100
AcDbCircle
 10
1216.618183260726
 20
2607.13206825599
 30
0.0
 40
3.0
100
AcDbArc
 50
180.0
 51
0.0
  0
ARC
  5
7246
330
19
100
AcDbEntity
  8
0
100
AcDbCircle
 10
1216.618183260726
 20
2632.13206825599
 30
0.0
 40
3.0
100
AcDbArc
 50
33.55730976192144
 51
146.4426902380785
  0
ARC
  5
7247
330
19
100
AcDbEntity
  8
0
 48
0.25
100
AcDbCircle
 10
1216.618183260726
 20
2532.13206825599
 30
0.0
 40
3.0
100
AcDbArc
 50
146.4426902380785
 51
213.5573097619214
  0
ARC
  5
7248
330
19
100
AcDbEntity
  8
0
 48
0.25
100
AcDbCircle
 10
1216.618183260726
 20
2482.13206825599
 30
0.0
 40
3.0
100
AcDbArc
 50
326.4426902380786
 51
33.55730976192144
  0
ARC
  5
7249
330
19
100
AcDbEntity
  8
0
100
AcDbCircle
 10
1216.618183260726
 20
2557.13206825599
 30
0.0
 40
3.0
100
AcDbArc
 50
0.0
 51
180.0
  0
ARC
  5
724A
330
19
100
AcDbEntity
  8
0
100
AcDbCircle
 10
1216.618183260726
 20
2532.13206825599
 30
0.0
 40
3.0
100
AcDbArc
 50
33.55730976192144
 51
146.4426902380785
  0
ARC
  5
724B
330
19
100
AcDbEntity
  8
0
100
AcDbCircle
 10
1216.618183260726
 20
2482.13206825599
 30
0.0
 40
3.0
100
AcDbArc
 50
33.55730976192144
 51
146.4426902380785
  0
ARC
  5
724C
330
19
100
AcDbEntity
  8
0
100
AcDbCircle
 10
1216.618183260726
 20
2532.13206825599
 30
0.0
 40
3.0
100
AcDbArc
 50
213.5573097619214
 51
326.4426902380786
  0
ARC
  5
724D
330
19
100
AcDbEntity
  8
0
100
AcDbCircle
 10
1216.618183260726
 20
2482.13206825599
 30
0.0
 40
3.0
100
AcDbArc
 50
213.5573097619214
 51
326.4426902380786
  0
MTEXT
  5
73DD
330
19
100
AcDbEntity
  8
0
  6
Continuous
 62
     3
100
AcDbMText
 10
1324.976801587498
 20
2818.111079082639
 30
0.0
 40
10.8
 41
0.0
 71
     1
 72
     1
  1
\A1;
  7
y-4
 73
     1
 44
1.0
1001
ACAD
1000
MTEXTBEGIN
1070
    73
1070
     1
1070
    44
1040
1.0
1070
    74
1070
     0
1000
MTEXTEND
  0
LINE
  5
85FA
330
19
100
AcDbEntity
  8
0
100
AcDbLine
 10
586.7481276214257
 20
2569.13206825599
 30
0.0
 11
586.7481276214257
 21
2595.13206825599
 31
0.0
  0
LINE
  5
85FB
330
19
100
AcDbEntity
  8
0
100
AcDbLine
 10
590.7481276214257
 20
2595.13206825599
 30
0.0
 11
590.7481276214257
 21
2569.13206825599
 31
0.0
  0
LINE
  5
85FC
330
19
100
AcDbEntity
  8
0
100
AcDbLine
 10
576.7481276214257
 20
2569.13206825599
 30
0.0
 11
576.7481276214257
 21
2595.13206825599
 31
0.0
  0
LINE
  5
85FD
330
19
100
AcDbEntity
  8
0
100
AcDbLine
 10
580.7481276214257
 20
2595.13206825599
 30
0.0
 11
580.7481276214257
 21
2569.13206825599
 31
0.0
  0
LINE
  5
85FE
330
19
100
AcDbEntity
  8
0
100
AcDbLine
 10
566.7481276214257
 20
2569.13206825599
 30
0.0
 11
566.7481276214257
 21
2595.13206825599
 31
0.0
  0
LINE
  5
85FF
330
19
100
AcDbEntity
  8
0
100
AcDbLine
 10
570.7481276214257
 20
2595.13206825599
 30
0.0
 11
570.7481276214257
 21
2569.13206825599
 31
0.0
  0
LINE
  5
8600
330
19
100
AcDbEntity
  8
0
100
AcDbLine
 10
556.7481276214257
 20
2569.13206825599
 30
0.0
 11
556.7481276214257
 21
2595.13206825599
 31
0.0
  0
LINE
  5
8601
330
19
100
AcDbEntity
  8
0
100
AcDbLine
 10
560.7481276214257
 20
2595.13206825599
 30
0.0
 11
560.7481276214257
 21
2569.13206825599
 31
0.0
  0
ARC
  5
8606
330
19
100
AcDbEntity
  8
0
100
AcDbCircle
 10
558.7481276214257
 20
2569.13206825599
 30
0.0
 40
2.0
100
AcDbArc
 50
180.0
 51
0.0
  0
ARC
  5
8607
330
19
100
AcDbEntity
  8
0
100
AcDbCircle
 10
568.7481276214257
 20
2569.13206825599
 30
0.0
 40
2.0
100
AcDbArc
 50
180.0
 51
0.0
  0
ARC
  5
8608
330
19
100
AcDbEntity
  8
0
100
AcDbCircle
 10
578.7481276214257
 20
2569.13206825599
 30
0.0
 40
2.0
100
AcDbArc
 50
180.0
 51
0.0
  0
ARC
  5
8609
330
19
100
AcDbEntity
  8
0
100
AcDbCircle
 10
588.7481276214257
 20
2569.13206825599
 30
0.0
 40
2.0
100
AcDbArc
 50
180.0
 51
0.0
  0
ARC
  5
860A
330
19
100
AcDbEntity
  8
0
100
AcDbCircle
 10
558.7481276214257
 20
2595.13206825599
 30
0.0
 40
2.0
100
AcDbArc
 50
0.0
 51
180.0
  0
ARC
  5
860B
330
19
100
AcDbEntity
  8
0
100
AcDbCircle
 10
568.7481276214257
 20
2595.13206825599
 30
0.0
 40
2.0
100
AcDbArc
 50
0.0
 51
180.0
  0
ARC
  5
860C
330
19
100
AcDbEntity
  8
0
100
AcDbCircle
 10
578.7481276214257
 20
2595.13206825599
 30
0.0
 40
2.0
100
AcDbArc
 50
0.0
 51
180.0
  0
ARC
  5
860D
330
19
100
AcDbEntity
  8
0
100
AcDbCircle
 10
588.7481276214257
 20
2595.13206825599
 30
0.0
 40
2.0
100
AcDbArc
 50
0.0
 51
180.0
  0
ARC
  5
8A0D
330
19
100
AcDbEntity
  8
0
100
AcDbCircle
 10
908.7481276214257
 20
2569.132068255989
 30
0.0
 40
2.0
100
AcDbArc
 50
180.0
 51
0.0
  0
ARC
  5
8A0E
330
19
100
AcDbEntity
  8
0
100
AcDbCircle
 10
908.7481276214262
 20
2595.13206825599
 30
0.0
 40
2.0
100
AcDbArc
 50
0.0
 51
180.0
  0
LINE
  5
8A0F
330
19
100
AcDbEntity
  8
0
100
AcDbLine
 10
616.7481276214257
 20
2569.13206825599
 30
0.0
 11
616.7481276214257
 21
2595.13206825599
 31
0.0
  0
LINE
  5
8A10
330
19
100
AcDbEntity
  8
0
100
AcDbLine
 10
606.7481276214257
 20
2569.13206825599
 30
0.0
 11
606.7481276214257
 21
2595.13206825599
 31
0.0
  0
LINE
  5
8A11
330
19
100
AcDbEntity
  8
0
100
AcDbLine
 10
610.7481276214257
 20
2595.13206825599
 30
0.0
 11
610.7481276214257
 21
2569.13206825599
 31
0.0
  0
LINE
  5
8A12
330
19
100
AcDbEntity
  8
0
100
AcDbLine
 10
596.7481276214257
 20
2569.13206825599
 30
0.0
 11
596.7481276214257
 21
2595.13206825599
 31
0.0
  0
LINE
  5
8A13
330
19
100
AcDbEntity
  8
0
100
AcDbLine
 10
600.7481276214257
 20
2595.13206825599
 30
0.0
 11
600.7481276214257
 21
2569.13206825599
 31
0.0
  0
LINE
  5
8A14
330
19
100
AcDbEntity
  8
0
100
AcDbLine
 10
666.7481276214257
 20
2569.13206825599
 30
0.0
 11
666.7481276214257
 21
2595.13206825599
 31
0.0
  0
LINE
  5
8A15
330
19
100
AcDbEntity
  8
0
100
AcDbLine
 10
670.7481276214257
 20
2595.13206825599
 30
0.0
 11
670.7481276214257
 21
2569.13206825599
 31
0.0
  0
LINE
  5
8A16
330
19
100
AcDbEntity
  8
0
100
AcDbLine
 10
660.7481276214257
 20
2595.13206825599
 30
0.0
 11
660.7481276214257
 21
2569.13206825599
 31
0.0
  0
LINE
  5
8A17
330
19
100
AcDbEntity
  8
0
100
AcDbLine
 10
646.7481276214257
 20
2569.13206825599
 30
0.0
 11
646.7481276214257
 21
2595.13206825599
 31
0.0
  0
LINE
  5
8A18
330
19
100
AcDbEntity
  8
0
100
AcDbLine
 10
650.7481276214257
 20
2595.13206825599
 30
0.0
 11
650.7481276214257
 21
2569.13206825599
 31
0.0
  0
LINE
  5
8A19
330
19
100
AcDbEntity
  8
0
100
AcDbLine
 10
636.7481276214257
 20
2569.13206825599
 30
0.0
 11
636.7481276214257
 21
2595.13206825599
 31
0.0
  0
LINE
  5
8A1A
330
19
100
AcDbEntity
  8
0
100
AcDbLine
 10
640.7481276214257
 20
2595.13206825599
 30
0.0
 11
640.7481276214257
 21
2569.13206825599
 31
0.0
  0
LINE
  5
8A1B
330
19
100
AcDbEntity
  8
0
100
AcDbLine
 10
626.7481276214257
 20
2569.13206825599
 30
0.0
 11
626.7481276214257
 21
2595.13206825599
 31
0.0
  0
LINE
  5
8A1C
330
19
100
AcDbEntity
  8
0
100
AcDbLine
 10
630.7481276214257
 20
2595.13206825599
 30
0.0
 11
630.7481276214257
 21
2569.13206825599
 31
0.0
  0
LINE
  5
8A1D
330
19
100
AcDbEntity
  8
0
100
AcDbLine
 10
620.7481276214257
 20
2595.13206825599
 30
0.0
 11
620.7481276214257
 21
2569.13206825599
 31
0.0
  0
LINE
  5
8A1E
330
19
100
AcDbEntity
  8
0
100
AcDbLine
 10
656.7481276214257
 20
2569.13206825599
 30
0.0
 11
656.7481276214257
 21
2595.13206825599
 31
0.0
  0
ARC
  5
8A23
330
19
100
AcDbEntity
  8
0
100
AcDbCircle
 10
598.7481276214257
 20
2569.13206825599
 30
0.0
 40
2.0
100
AcDbArc
 50
180.0
 51
0.0
  0
ARC
  5
8A24
330
19
100
AcDbEntity
  8
0
100
AcDbCircle
 10
608.7481276214257
 20
2569.13206825599
 30
0.0
 40
2.0
100
AcDbArc
 50
180.0
 51
0.0
  0
ARC
  5
8A25
330
19
100
AcDbEntity
  8
0
100
AcDbCircle
 10
618.7481276214257
 20
2569.13206825599
 30
0.0
 40
2.0
100
AcDbArc
 50
180.0
 51
0.0
  0
ARC
  5
8A26
330
19
100
AcDbEntity
  8
0
100
AcDbCircle
 10
628.7481276214257
 20
2569.13206825599
 30
0.0
 40
2.0
100
AcDbArc
 50
180.0
 51
0.0
  0
ARC
  5
8A2B
330
19
100
AcDbEntity
  8
0
100
AcDbCircle
 10
638.7481276214257
 20
2569.13206825599
 30
0.0
 40
2.0
100
AcDbArc
 50
180.0
 51
0.0
  0
ARC
  5
8A2C
330
19
100
AcDbEntity
  8
0
100
AcDbCircle
 10
648.7481276214257
 20
2569.13206825599
 30
0.0
 40
2.0
100
AcDbArc
 50
180.0
 51
0.0
  0
ARC
  5
8A2D
330
19
100
AcDbEntity
  8
0
100
AcDbCircle
 10
658.7481276214257
 20
2569.13206825599
 30
0.0
 40
2.0
100
AcDbArc
 50
180.0
 51
0.0
  0
ARC
  5
8A2E
330
19
100
AcDbEntity
  8
0
100
AcDbCircle
 10
668.7481276214257
 20
2569.132068255989
 30
0.0
 40
2.0
100
AcDbArc
 50
180.0
 51
0.0
  0
ARC
  5
8A2F
330
19
100
AcDbEntity
  8
0
100
AcDbCircle
 10
598.7481276214257
 20
2595.13206825599
 30
0.0
 40
2.0
100
AcDbArc
 50
0.0
 51
180.0
  0
ARC
  5
8A30
330
19
100
AcDbEntity
  8
0
100
AcDbCircle
 10
608.7481276214257
 20
2595.13206825599
 30
0.0
 40
2.0
100
AcDbArc
 50
0.0
 51
180.0
  0
ARC
  5
8A31
330
19
100
AcDbEntity
  8
0
100
AcDbCircle
 10
618.7481276214257
 20
2595.13206825599
 30
0.0
 40
2.0
100
AcDbArc
 50
0.0
 51
180.0
  0
ARC
  5
8A32
330
19
100
AcDbEntity
  8
0
100
AcDbCircle
 10
628.7481276214257
 20
2595.13206825599
 30
0.0
 40
2.0
100
AcDbArc
 50
0.0
 51
180.0
  0
ARC
  5
8A33
330
19
100
AcDbEntity
  8
0
100
AcDbCircle
 10
638.7481276214257
 20
2595.13206825599
 30
0.0
 40
2.0
100
AcDbArc
 50
0.0
 51
180.0
  0
ARC
  5
8A34
330
19
100
AcDbEntity
  8
0
100
AcDbCircle
 10
648.7481276214257
 20
2595.13206825599
 30
0.0
 40
2.0
100
AcDbArc
 50
0.0
 51
180.0
  0
ARC
  5
8A35
330
19
100
AcDbEntity
  8
0
100
AcDbCircle
 10
658.7481276214257
 20
2595.13206825599
 30
0.0
 40
2.0
100
AcDbArc
 50
0.0
 51
180.0
  0
ARC
  5
8A36
330
19
100
AcDbEntity
  8
0
100
AcDbCircle
 10
668.7481276214257
 20
2595.13206825599
 30
0.0
 40
2.0
100
AcDbArc
 50
0.0
 51
180.0
  0
LINE
  5
8A37
330
19
100
AcDbEntity
  8
0
100
AcDbLine
 10
726.7481276214257
 20
2569.13206825599
 30
0.0
 11
726.7481276214257
 21
2595.13206825599
 31
0.0
  0
LINE
  5
8A38
330
19
100
AcDbEntity
  8
0
100
AcDbLine
 10
716.7481276214257
 20
2569.13206825599
 30
0.0
 11
716.7481276214257
 21
2595.13206825599
 31
0.0
  0
LINE
  5
8A39
330
19
100
AcDbEntity
  8
0
100
AcDbLine
 10
720.7481276214257
 20
2595.13206825599
 30
0.0
 11
720.7481276214257
 21
2569.13206825599
 31
0.0
  0
LINE
  5
8A3A
330
19
100
AcDbEntity
  8
0
100
AcDbLine
 10
706.7481276214257
 20
2569.13206825599
 30
0.0
 11
706.7481276214257
 21
2595.13206825599
 31
0.0
  0
LINE
  5
8A3B
330
19
100
AcDbEntity
  8
0
100
AcDbLine
 10
710.7481276214257
 20
2595.13206825599
 30
0.0
 11
710.7481276214257
 21
2569.13206825599
 31
0.0
  0
LINE
  5
8A3C
330
19
100
AcDbEntity
  8
0
100
AcDbLine
 10
696.7481276214257
 20
2569.13206825599
 30
0.0
 11
696.7481276214257
 21
2595.13206825599
 31
0.0
  0
LINE
  5
8A3D
330
19
100
AcDbEntity
  8
0
100
AcDbLine
 10
700.7481276214257
 20
2595.13206825599
 30
0.0
 11
700.7481276214257
 21
2569.13206825599
 31
0.0
  0
LINE
  5
8A3E
330
19
100
AcDbEntity
  8
0
100
AcDbLine
 10
686.7481276214257
 20
2569.13206825599
 30
0.0
 11
686.7481276214257
 21
2595.13206825599
 31
0.0
  0
LINE
  5
8A3F
330
19
100
AcDbEntity
  8
0
100
AcDbLine
 10
690.7481276214257
 20
2595.13206825599
 30
0.0
 11
690.7481276214257
 21
2569.13206825599
 31
0.0
  0
LINE
  5
8A40
330
19
100
AcDbEntity
  8
0
100
AcDbLine
 10
676.7481276214257
 20
2569.13206825599
 30
0.0
 11
676.7481276214257
 21
2595.13206825599
 31
0.0
  0
LINE
  5
8A41
330
19
100
AcDbEntity
  8
0
100
AcDbLine
 10
680.7481276214257
 20
2595.13206825599
 30
0.0
 11
680.7481276214257
 21
2569.13206825599
 31
0.0
  0
LINE
  5
8A42
330
19
100
AcDbEntity
  8
0
100
AcDbLine
 10
746.7481276214257
 20
2569.13206825599
 30
0.0
 11
746.7481276214257
 21
2595.13206825599
 31
0.0
  0
LINE
  5
8A43
330
19
100
AcDbEntity
  8
0
100
AcDbLine
 10
750.7481276214257
 20
2595.13206825599
 30
0.0
 11
750.7481276214257
 21
2569.13206825599
 31
0.0
  0
LINE
  5
8A44
330
19
100
AcDbEntity
  8
0
100
AcDbLine
 10
736.7481276214257
 20
2569.13206825599
 30
0.0
 11
736.7481276214257
 21
2595.13206825599
 31
0.0
  0
LINE
  5
8A45
330
19
100
AcDbEntity
  8
0
100
AcDbLine
 10
740.7481276214257
 20
2595.13206825599
 30
0.0
 11
740.7481276214257
 21
2569.13206825599
 31
0.0
  0
LINE
  5
8A46
330
19
100
AcDbEntity
  8
0
100
AcDbLine
 10
730.7481276214257
 20
2595.13206825599
 30
0.0
 11
730.7481276214257
 21
2569.13206825599
 31
0.0
  0
ARC
  5
8A4B
330
19
100
AcDbEntity
  8
0
100
AcDbCircle
 10
678.7481276214257
 20
2569.132068255989
 30
0.0
 40
2.0
100
AcDbArc
 50
180.0
 51
0.0
  0
ARC
  5
8A4C
330
19
100
AcDbEntity
  8
0
100
AcDbCircle
 10
688.7481276214257
 20
2569.132068255989
 30
0.0
 40
2.0
100
AcDbArc
 50
180.0
 51
0.0
  0
ARC
  5
8A4D
330
19
100
AcDbEntity
  8
0
100
AcDbCircle
 10
698.7481276214257
 20
2569.132068255989
 30
0.0
 40
2.0
100
AcDbArc
 50
180.0
 51
0.0
  0
ARC
  5
8A4E
330
19
100
AcDbEntity
  8
0
100
AcDbCircle
 10
708.7481276214257
 20
2569.132068255989
 30
0.0
 40
2.0
100
AcDbArc
 50
180.0
 51
0.0
  0
ARC
  5
8A53
330
19
100
AcDbEntity
  8
0
100
AcDbCircle
 10
718.7481276214257
 20
2569.132068255989
 30
0.0
 40
2.0
100
AcDbArc
 50
180.0
 51
0.0
  0
ARC
  5
8A54
330
19
100
AcDbEntity
  8
0
100
AcDbCircle
 10
728.7481276214257
 20
2569.132068255989
 30
0.0
 40
2.0
100
AcDbArc
 50
180.0
 51
0.0
  0
ARC
  5
8A55
330
19
100
AcDbEntity
  8
0
100
AcDbCircle
 10
738.7481276214257
 20
2569.132068255989
 30
0.0
 40
2.0
100
AcDbArc
 50
180.0
 51
0.0
  0
ARC
  5
8A56
330
19
100
AcDbEntity
  8
0
100
AcDbCircle
 10
748.7481276214257
 20
2569.132068255989
 30
0.0
 40
2.0
100
AcDbArc
 50
180.0
 51
0.0
  0
ARC
  5
8A57
330
19
100
AcDbEntity
  8
0
100
AcDbCircle
 10
678.7481276214257
 20
2595.13206825599
 30
0.0
 40
2.0
100
AcDbArc
 50
0.0
 51
180.0
  0
ARC
  5
8A58
330
19
100
AcDbEntity
  8
0
100
AcDbCircle
 10
688.7481276214257
 20
2595.13206825599
 30
0.0
 40
2.0
100
AcDbArc
 50
0.0
 51
180.0
  0
ARC
  5
8A59
330
19
100
AcDbEntity
  8
0
100
AcDbCircle
 10
698.7481276214257
 20
2595.13206825599
 30
0.0
 40
2.0
100
AcDbArc
 50
0.0
 51
180.0
  0
ARC
  5
8A5A
330
19
100
AcDbEntity
  8
0
100
AcDbCircle
 10
708.7481276214257
 20
2595.13206825599
 30
0.0
 40
2.0
100
AcDbArc
 50
0.0
 51
180.0
  0
ARC
  5
8A5B
330
19
100
AcDbEntity
  8
0
100
AcDbCircle
 10
718.7481276214257
 20
2595.13206825599
 30
0.0
 40
2.0
100
AcDbArc
 50
0.0
 51
180.0
  0
ARC
  5
8A5C
330
19
100
AcDbEntity
  8
0
100
AcDbCircle
 10
728.7481276214257
 20
2595.13206825599
 30
0.0
 40
2.0
100
AcDbArc
 50
0.0
 51
180.0
  0
ARC
  5
8A5D
330
19
100
AcDbEntity
  8
0
100
AcDbCircle
 10
738.7481276214257
 20
2595.13206825599
 30
0.0
 40
2.0
100
AcDbArc
 50
0.0
 51
180.0
  0
ARC
  5
8A5E
330
19
100
AcDbEntity
  8
0
100
AcDbCircle
 10
748.7481276214257
 20
2595.13206825599
 30
0.0
 40
2.0
100
AcDbArc
 50
0.0
 51
180.0
  0
ARC
  5
8A60
330
19
100
AcDbEntity
  8
0
100
AcDbCircle
 10
828.7481276214258
 20
2569.132068255989
 30
0.0
 40
2.0
100
AcDbArc
 50
180.0
 51
0.0
  0
ARC
  5
8A61
330
19
100
AcDbEntity
  8
0
100
AcDbCircle
 10
828.7481276214258
 20
2595.13206825599
 30
0.0
 40
2.0
100
AcDbArc
 50
0.0
 51
180.0
  0
LINE
  5
8A62
330
19
100
AcDbEntity
  8
0
100
AcDbLine
 10
776.7481276214257
 20
2569.13206825599
 30
0.0
 11
776.7481276214257
 21
2595.13206825599
 31
0.0
  0
LINE
  5
8A63
330
19
100
AcDbEntity
  8
0
100
AcDbLine
 10
766.7481276214257
 20
2569.13206825599
 30
0.0
 11
766.7481276214257
 21
2595.13206825599
 31
0.0
  0
LINE
  5
8A64
330
19
100
AcDbEntity
  8
0
100
AcDbLine
 10
770.7481276214257
 20
2595.13206825599
 30
0.0
 11
770.7481276214257
 21
2569.13206825599
 31
0.0
  0
LINE
  5
8A65
330
19
100
AcDbEntity
  8
0
100
AcDbLine
 10
756.7481276214257
 20
2569.13206825599
 30
0.0
 11
756.7481276214257
 21
2595.13206825599
 31
0.0
  0
LINE
  5
8A66
330
19
100
AcDbEntity
  8
0
100
AcDbLine
 10
760.7481276214257
 20
2595.13206825599
 30
0.0
 11
760.7481276214257
 21
2569.13206825599
 31
0.0
  0
LINE
  5
8A67
330
19
100
AcDbEntity
  8
0
100
AcDbLine
 10
826.7481276214256
 20
2569.13206825599
 30
0.0
 11
826.7481276214256
 21
2595.13206825599
 31
0.0
  0
LINE
  5
8A68
330
19
100
AcDbEntity
  8
0
100
AcDbLine
 10
816.7481276214257
 20
2569.13206825599
 30
0.0
 11
816.7481276214257
 21
2595.13206825599
 31
0.0
  0
LINE
  5
8A69
330
19
100
AcDbEntity
  8
0
100
AcDbLine
 10
820.7481276214258
 20
2595.13206825599
 30
0.0
 11
820.7481276214258
 21
2569.13206825599
 31
0.0
  0
LINE
  5
8A6A
330
19
100
AcDbEntity
  8
0
100
AcDbLine
 10
806.7481276214257
 20
2569.13206825599
 30
0.0
 11
806.7481276214257
 21
2595.13206825599
 31
0.0
  0
LINE
  5
8A6B
330
19
100
AcDbEntity
  8
0
100
AcDbLine
 10
810.7481276214256
 20
2595.13206825599
 30
0.0
 11
810.7481276214256
 21
2569.13206825599
 31
0.0
  0
LINE
  5
8A6C
330
19
100
AcDbEntity
  8
0
100
AcDbLine
 10
796.7481276214257
 20
2569.13206825599
 30
0.0
 11
796.7481276214257
 21
2595.13206825599
 31
0.0
  0
LINE
  5
8A6D
330
19
100
AcDbEntity
  8
0
100
AcDbLine
 10
800.7481276214257
 20
2595.13206825599
 30
0.0
 11
800.7481276214257
 21
2569.13206825599
 31
0.0
  0
LINE
  5
8A6E
330
19
100
AcDbEntity
  8
0
100
AcDbLine
 10
786.7481276214257
 20
2569.13206825599
 30
0.0
 11
786.7481276214257
 21
2595.13206825599
 31
0.0
  0
LINE
  5
8A6F
330
19
100
AcDbEntity
  8
0
100
AcDbLine
 10
790.7481276214257
 20
2595.13206825599
 30
0.0
 11
790.7481276214257
 21
2569.13206825599
 31
0.0
  0
LINE
  5
8A70
330
19
100
AcDbEntity
  8
0
100
AcDbLine
 10
780.7481276214257
 20
2595.13206825599
 30
0.0
 11
780.7481276214257
 21
2569.13206825599
 31
0.0
  0
ARC
  5
8A75
330
19
100
AcDbEntity
  8
0
100
AcDbCircle
 10
758.7481276214257
 20
2569.132068255989
 30
0.0
 40
2.0
100
AcDbArc
 50
180.0
 51
0.0
  0
ARC
  5
8A76
330
19
100
AcDbEntity
  8
0
100
AcDbCircle
 10
768.7481276214257
 20
2569.132068255989
 30
0.0
 40
2.0
100
AcDbArc
 50
180.0
 51
0.0
  0
ARC
  5
8A77
330
19
100
AcDbEntity
  8
0
100
AcDbCircle
 10
778.7481276214257
 20
2569.132068255989
 30
0.0
 40
2.0
100
AcDbArc
 50
180.0
 51
0.0
  0
ARC
  5
8A78
330
19
100
AcDbEntity
  8
0
100
AcDbCircle
 10
788.7481276214257
 20
2569.132068255989
 30
0.0
 40
2.0
100
AcDbArc
 50
180.0
 51
0.0
  0
ARC
  5
8A7C
330
19
100
AcDbEntity
  8
0
100
AcDbCircle
 10
798.7481276214257
 20
2569.132068255989
 30
0.0
 40
2.0
100
AcDbArc
 50
180.0
 51
0.0
  0
ARC
  5
8A7D
330
19
100
AcDbEntity
  8
0
100
AcDbCircle
 10
808.7481276214257
 20
2569.132068255989
 30
0.0
 40
2.0
100
AcDbArc
 50
180.0
 51
0.0
  0
ARC
  5
8A7E
330
19
100
AcDbEntity
  8
0
100
AcDbCircle
 10
818.7481276214256
 20
2569.132068255989
 30
0.0
 40
2.0
100
AcDbArc
 50
180.0
 51
0.0
  0
ARC
  5
8A7F
330
19
100
AcDbEntity
  8
0
100
AcDbCircle
 10
758.7481276214257
 20
2595.13206825599
 30
0.0
 40
2.0
100
AcDbArc
 50
0.0
 51
180.0
  0
ARC
  5
8A80
330
19
100
AcDbEntity
  8
0
100
AcDbCircle
 10
768.7481276214257
 20
2595.13206825599
 30
0.0
 40
2.0
100
AcDbArc
 50
0.0
 51
180.0
  0
ARC
  5
8A81
330
19
100
AcDbEntity
  8
0
100
AcDbCircle
 10
778.7481276214257
 20
2595.13206825599
 30
0.0
 40
2.0
100
AcDbArc
 50
0.0
 51
180.0
  0
ARC
  5
8A82
330
19
100
AcDbEntity
  8
0
100
AcDbCircle
 10
788.7481276214257
 20
2595.13206825599
 30
0.0
 40
2.0
100
AcDbArc
 50
0.0
 51
180.0
  0
ARC
  5
8A83
330
19
100
AcDbEntity
  8
0
100
AcDbCircle
 10
798.7481276214257
 20
2595.13206825599
 30
0.0
 40
2.0
100
AcDbArc
 50
0.0
 51
180.0
  0
ARC
  5
8A84
330
19
100
AcDbEntity
  8
0
100
AcDbCircle
 10
808.7481276214257
 20
2595.13206825599
 30
0.0
 40
2.0
100
AcDbArc
 50
0.0
 51
180.0
  0
ARC
  5
8A85
330
19
100
AcDbEntity
  8
0
100
AcDbCircle
 10
818.7481276214256
 20
2595.13206825599
 30
0.0
 40
2.0
100
AcDbArc
 50
0.0
 51
180.0
  0
LINE
  5
8A86
330
19
100
AcDbEntity
  8
0
100
AcDbLine
 10
850.7481276214257
 20
2595.13206825599
 30
0.0
 11
850.7481276214257
 21
2569.13206825599
 31
0.0
  0
LINE
  5
8A87
330
19
100
AcDbEntity
  8
0
100
AcDbLine
 10
836.7481276214258
 20
2569.13206825599
 30
0.0
 11
836.7481276214258
 21
2595.13206825599
 31
0.0
  0
LINE
  5
8A88
330
19
100
AcDbEntity
  8
0
100
AcDbLine
 10
830.7481276214257
 20
2595.13206825599
 30
0.0
 11
830.7481276214257
 21
2569.13206825599
 31
0.0
  0
LINE
  5
8A89
330
19
100
AcDbEntity
  8
0
100
AcDbLine
 10
906.7481276214257
 20
2569.13206825599
 30
0.0
 11
906.7481276214257
 21
2595.13206825599
 31
0.0
  0
LINE
  5
8A8A
330
19
100
AcDbEntity
  8
0
100
AcDbLine
 10
896.7481276214257
 20
2569.13206825599
 30
0.0
 11
896.7481276214257
 21
2595.13206825599
 31
0.0
  0
LINE
  5
8A8B
330
19
100
AcDbEntity
  8
0
100
AcDbLine
 10
900.7481276214257
 20
2595.13206825599
 30
0.0
 11
900.7481276214257
 21
2569.13206825599
 31
0.0
  0
LINE
  5
8A8C
330
19
100
AcDbEntity
  8
0
100
AcDbLine
 10
886.7481276214258
 20
2569.13206825599
 30
0.0
 11
886.7481276214258
 21
2595.13206825599
 31
0.0
  0
LINE
  5
8A8D
330
19
100
AcDbEntity
  8
0
100
AcDbLine
 10
890.7481276214257
 20
2595.13206825599
 30
0.0
 11
890.7481276214257
 21
2569.13206825599
 31
0.0
  0
LINE
  5
8A8E
330
19
100
AcDbEntity
  8
0
100
AcDbLine
 10
876.7481276214256
 20
2569.13206825599
 30
0.0
 11
876.7481276214256
 21
2595.13206825599
 31
0.0
  0
LINE
  5
8A8F
330
19
100
AcDbEntity
  8
0
100
AcDbLine
 10
880.7481276214257
 20
2595.13206825599
 30
0.0
 11
880.7481276214257
 21
2569.13206825599
 31
0.0
  0
LINE
  5
8A90
330
19
100
AcDbEntity
  8
0
100
AcDbLine
 10
866.7481276214257
 20
2569.13206825599
 30
0.0
 11
866.7481276214257
 21
2595.13206825599
 31
0.0
  0
LINE
  5
8A91
330
19
100
AcDbEntity
  8
0
100
AcDbLine
 10
870.7481276214258
 20
2595.13206825599
 30
0.0
 11
870.7481276214258
 21
2569.13206825599
 31
0.0
  0
LINE
  5
8A92
330
19
100
AcDbEntity
  8
0
100
AcDbLine
 10
856.7481276214257
 20
2569.13206825599
 30
0.0
 11
856.7481276214257
 21
2595.13206825599
 31
0.0
  0
LINE
  5
8A93
330
19
100
AcDbEntity
  8
0
100
AcDbLine
 10
860.7481276214256
 20
2595.13206825599
 30
0.0
 11
860.7481276214256
 21
2569.13206825599
 31
0.0
  0
LINE
  5
8A94
330
19
100
AcDbEntity
  8
0
100
AcDbLine
 10
846.7481276214257
 20
2569.13206825599
 30
0.0
 11
846.7481276214257
 21
2595.13206825599
 31
0.0
  0
LINE
  5
8A95
330
19
100
AcDbEntity
  8
0
100
AcDbLine
 10
840.7481276214257
 20
2595.13206825599
 30
0.0
 11
840.7481276214257
 21
2569.13206825599
 31
0.0
  0
ARC
  5
8A97
330
19
100
AcDbEntity
  8
0
100
AcDbCircle
 10
868.7481276214256
 20
2569.132068255989
 30
0.0
 40
2.0
100
AcDbArc
 50
180.0
 51
0.0
  0
ARC
  5
8A9B
330
19
100
AcDbEntity
  8
0
100
AcDbCircle
 10
848.7481276214257
 20
2569.132068255989
 30
0.0
 40
2.0
100
AcDbArc
 50
180.0
 51
0.0
  0
ARC
  5
8A9C
330
19
100
AcDbEntity
  8
0
100
AcDbCircle
 10
838.7481276214257
 20
2569.132068255989
 30
0.0
 40
2.0
100
AcDbArc
 50
180.0
 51
0.0
  0
ARC
  5
8A9D
330
19
100
AcDbEntity
  8
0
100
AcDbCircle
 10
858.7481276214257
 20
2569.132068255989
 30
0.0
 40
2.0
100
AcDbArc
 50
180.0
 51
0.0
  0
ARC
  5
8AA1
330
19
100
AcDbEntity
  8
0
100
AcDbCircle
 10
888.7481276214257
 20
2569.132068255989
 30
0.0
 40
2.0
100
AcDbArc
 50
180.0
 51
0.0
  0
ARC
  5
8AA2
330
19
100
AcDbEntity
  8
0
100
AcDbCircle
 10
878.7481276214258
 20
2569.132068255989
 30
0.0
 40
2.0
100
AcDbArc
 50
180.0
 51
0.0
  0
ARC
  5
8AA3
330
19
100
AcDbEntity
  8
0
100
AcDbCircle
 10
898.7481276214257
 20
2569.132068255989
 30
0.0
 40
2.0
100
AcDbArc
 50
180.0
 51
0.0
  0
ARC
  5
8AA4
330
19
100
AcDbEntity
  8
0
100
AcDbCircle
 10
868.7481276214262
 20
2595.13206825599
 30
0.0
 40
2.0
100
AcDbArc
 50
0.0
 51
180.0
  0
ARC
  5
8AA5
330
19
100
AcDbEntity
  8
0
100
AcDbCircle
 10
848.7481276214257
 20
2595.13206825599
 30
0.0
 40
2.0
100
AcDbArc
 50
0.0
 51
180.0
  0
ARC
  5
8AA6
330
19
100
AcDbEntity
  8
0
100
AcDbCircle
 10
838.7481276214257
 20
2595.13206825599
 30
0.0
 40
2.0
100
AcDbArc
 50
0.0
 51
180.0
  0
ARC
  5
8AA7
330
19
100
AcDbEntity
  8
0
100
AcDbCircle
 10
858.7481276214262
 20
2595.13206825599
 30
0.0
 40
2.0
100
AcDbArc
 50
0.0
 51
180.0
  0
ARC
  5
8AA8
330
19
100
AcDbEntity
  8
0
100
AcDbCircle
 10
888.7481276214261
 20
2595.13206825599
 30
0.0
 40
2.0
100
AcDbArc
 50
0.0
 51
180.0
  0
ARC
  5
8AA9
330
19
100
AcDbEntity
  8
0
100
AcDbCircle
 10
878.7481276214261
 20
2595.13206825599
 30
0.0
 40
2.0
100
AcDbArc
 50
0.0
 51
180.0
  0
ARC
  5
8AAA
330
19
100
AcDbEntity
  8
0
100
AcDbCircle
 10
898.7481276214262
 20
2595.13206825599
 30
0.0
 40
2.0
100
AcDbArc
 50
0.0
 51
180.0
  0
LINE
  5
8AAB
330
19
100
AcDbEntity
  8
0
100
AcDbLine
 10
920.7481276214258
 20
2595.13206825599
 30
0.0
 11
920.7481276214258
 21
2569.13206825599
 31
0.0
  0
LINE
  5
8AAC
330
19
100
AcDbEntity
  8
0
100
AcDbLine
 10
916.7481276214257
 20
2569.13206825599
 30
0.0
 11
916.7481276214257
 21
2595.13206825599
 31
0.0
  0
LINE
  5
8AAD
330
19
100
AcDbEntity
  8
0
100
AcDbLine
 10
910.7481276214256
 20
2595.13206825599
 30
0.0
 11
910.7481276214256
 21
2569.13206825599
 31
0.0
  0
ARC
  5
8AAF
330
19
100
AcDbEntity
  8
0
100
AcDbCircle
 10
918.7481276214256
 20
2569.132068255989
 30
0.0
 40
2.0
100
AcDbArc
 50
180.0
 51
0.0
  0
ARC
  5
8AB0
330
19
100
AcDbEntity
  8
0
100
AcDbCircle
 10
918.7481276214262
 20
2595.13206825599
 30
0.0
 40
2.0
100
AcDbArc
 50
0.0
 51
180.0
  0
LINE
  5
8AB1
330
19
100
AcDbEntity
  8
0
100
AcDbLine
 10
916.7481276214257
 20
2519.13206825599
 30
0.0
 11
916.7481276214257
 21
2545.13206825599
 31
0.0
  0
LINE
  5
8AB2
330
19
100
AcDbEntity
  8
0
100
AcDbLine
 10
920.7481276214258
 20
2545.13206825599
 30
0.0
 11
920.7481276214258
 21
2519.13206825599
 31
0.0
  0
LINE
  5
8AB3
330
19
100
AcDbEntity
  8
0
100
AcDbLine
 10
910.7481276214256
 20
2545.13206825599
 30
0.0
 11
910.7481276214256
 21
2519.13206825599
 31
0.0
  0
LINE
  5
8AB4
330
19
100
AcDbEntity
  8
0
100
AcDbLine
 10
890.7481276214257
 20
2545.13206825599
 30
0.0
 11
890.7481276214257
 21
2519.13206825599
 31
0.0
  0
LINE
  5
8AB5
330
19
100
AcDbEntity
  8
0
100
AcDbLine
 10
900.7481276214257
 20
2545.13206825599
 30
0.0
 11
900.7481276214257
 21
2519.13206825599
 31
0.0
  0
LINE
  5
8AB6
330
19
100
AcDbEntity
  8
0
100
AcDbLine
 10
896.7481276214257
 20
2519.13206825599
 30
0.0
 11
896.7481276214257
 21
2545.13206825599
 31
0.0
  0
LINE
  5
8AB7
330
19
100
AcDbEntity
  8
0
100
AcDbLine
 10
906.7481276214257
 20
2519.13206825599
 30
0.0
 11
906.7481276214257
 21
2545.13206825599
 31
0.0
  0
LINE
  5
8AB8
330
19
100
AcDbEntity
  8
0
100
AcDbLine
 10
870.7481276214258
 20
2545.13206825599
 30
0.0
 11
870.7481276214258
 21
2519.13206825599
 31
0.0
  0
LINE
  5
8AB9
330
19
100
AcDbEntity
  8
0
100
AcDbLine
 10
880.7481276214257
 20
2545.13206825599
 30
0.0
 11
880.7481276214257
 21
2519.13206825599
 31
0.0
  0
LINE
  5
8ABA
330
19
100
AcDbEntity
  8
0
100
AcDbLine
 10
876.7481276214256
 20
2519.13206825599
 30
0.0
 11
876.7481276214256
 21
2545.13206825599
 31
0.0
  0
LINE
  5
8ABB
330
19
100
AcDbEntity
  8
0
100
AcDbLine
 10
886.7481276214258
 20
2519.13206825599
 30
0.0
 11
886.7481276214258
 21
2545.13206825599
 31
0.0
  0
LINE
  5
8ABC
330
19
100
AcDbEntity
  8
0
100
AcDbLine
 10
836.7481276214258
 20
2519.13206825599
 30
0.0
 11
836.7481276214258
 21
2545.13206825599
 31
0.0
  0
LINE
  5
8ABD
330
19
100
AcDbEntity
  8
0
100
AcDbLine
 10
830.7481276214257
 20
2545.13206825599
 30
0.0
 11
830.7481276214257
 21
2519.13206825599
 31
0.0
  0
LINE
  5
8ABE
330
19
100
AcDbEntity
  8
0
100
AcDbLine
 10
840.7481276214257
 20
2545.13206825599
 30
0.0
 11
840.7481276214257
 21
2519.13206825599
 31
0.0
  0
LINE
  5
8ABF
330
19
100
AcDbEntity
  8
0
100
AcDbLine
 10
850.7481276214257
 20
2545.13206825599
 30
0.0
 11
850.7481276214257
 21
2519.13206825599
 31
0.0
  0
LINE
  5
8AC0
330
19
100
AcDbEntity
  8
0
100
AcDbLine
 10
846.7481276214257
 20
2519.13206825599
 30
0.0
 11
846.7481276214257
 21
2545.13206825599
 31
0.0
  0
LINE
  5
8AC1
330
19
100
AcDbEntity
  8
0
100
AcDbLine
 10
866.7481276214257
 20
2519.13206825599
 30
0.0
 11
866.7481276214257
 21
2545.13206825599
 31
0.0
  0
LINE
  5
8AC2
330
19
100
AcDbEntity
  8
0
100
AcDbLine
 10
860.7481276214256
 20
2545.13206825599
 30
0.0
 11
860.7481276214256
 21
2519.13206825599
 31
0.0
  0
LINE
  5
8AC3
330
19
100
AcDbEntity
  8
0
100
AcDbLine
 10
856.7481276214257
 20
2519.13206825599
 30
0.0
 11
856.7481276214257
 21
2545.13206825599
 31
0.0
  0
LINE
  5
8AC4
330
19
100
AcDbEntity
  8
0
100
AcDbLine
 10
810.7481276214256
 20
2545.13206825599
 30
0.0
 11
810.7481276214256
 21
2519.13206825599
 31
0.0
  0
LINE
  5
8AC5
330
19
100
AcDbEntity
  8
0
100
AcDbLine
 10
806.7481276214257
 20
2519.13206825599
 30
0.0
 11
806.7481276214257
 21
2545.13206825599
 31
0.0
  0
LINE
  5
8AC6
330
19
100
AcDbEntity
  8
0
100
AcDbLine
 10
820.7481276214258
 20
2545.13206825599
 30
0.0
 11
820.7481276214258
 21
2519.13206825599
 31
0.0
  0
LINE
  5
8AC7
330
19
100
AcDbEntity
  8
0
100
AcDbLine
 10
816.7481276214257
 20
2519.13206825599
 30
0.0
 11
816.7481276214257
 21
2545.13206825599
 31
0.0
  0
LINE
  5
8AC8
330
19
100
AcDbEntity
  8
0
100
AcDbLine
 10
826.7481276214256
 20
2519.13206825599
 30
0.0
 11
826.7481276214256
 21
2545.13206825599
 31
0.0
  0
LINE
  5
8AC9
330
19
100
AcDbEntity
  8
0
100
AcDbLine
 10
800.7481276214257
 20
2545.13206825599
 30
0.0
 11
800.7481276214257
 21
2519.13206825599
 31
0.0
  0
LINE
  5
8ACA
330
19
100
AcDbEntity
  8
0
100
AcDbLine
 10
796.7481276214257
 20
2519.13206825599
 30
0.0
 11
796.7481276214257
 21
2545.13206825599
 31
0.0
  0
LINE
  5
8ACB
330
19
100
AcDbEntity
  8
0
100
AcDbLine
 10
760.7481276214257
 20
2545.13206825599
 30
0.0
 11
760.7481276214257
 21
2519.13206825599
 31
0.0
  0
LINE
  5
8ACC
330
19
100
AcDbEntity
  8
0
100
AcDbLine
 10
756.7481276214257
 20
2519.13206825599
 30
0.0
 11
756.7481276214257
 21
2545.13206825599
 31
0.0
  0
LINE
  5
8ACD
330
19
100
AcDbEntity
  8
0
100
AcDbLine
 10
770.7481276214257
 20
2545.13206825599
 30
0.0
 11
770.7481276214257
 21
2519.13206825599
 31
0.0
  0
LINE
  5
8ACE
330
19
100
AcDbEntity
  8
0
100
AcDbLine
 10
766.7481276214257
 20
2519.13206825599
 30
0.0
 11
766.7481276214257
 21
2545.13206825599
 31
0.0
  0
LINE
  5
8ACF
330
19
100
AcDbEntity
  8
0
100
AcDbLine
 10
776.7481276214257
 20
2519.13206825599
 30
0.0
 11
776.7481276214257
 21
2545.13206825599
 31
0.0
  0
LINE
  5
8AD0
330
19
100
AcDbEntity
  8
0
100
AcDbLine
 10
780.7481276214257
 20
2545.13206825599
 30
0.0
 11
780.7481276214257
 21
2519.13206825599
 31
0.0
  0
LINE
  5
8AD1
330
19
100
AcDbEntity
  8
0
100
AcDbLine
 10
790.7481276214257
 20
2545.13206825599
 30
0.0
 11
790.7481276214257
 21
2519.13206825599
 31
0.0
  0
LINE
  5
8AD2
330
19
100
AcDbEntity
  8
0
100
AcDbLine
 10
786.7481276214257
 20
2519.13206825599
 30
0.0
 11
786.7481276214257
 21
2545.13206825599
 31
0.0
  0
LINE
  5
8AD3
330
19
100
AcDbEntity
  8
0
100
AcDbLine
 10
726.7481276214257
 20
2519.13206825599
 30
0.0
 11
726.7481276214257
 21
2545.13206825599
 31
0.0
  0
LINE
  5
8AD4
330
19
100
AcDbEntity
  8
0
100
AcDbLine
 10
720.7481276214257
 20
2545.13206825599
 30
0.0
 11
720.7481276214257
 21
2519.13206825599
 31
0.0
  0
LINE
  5
8AD5
330
19
100
AcDbEntity
  8
0
100
AcDbLine
 10
716.7481276214257
 20
2519.13206825599
 30
0.0
 11
716.7481276214257
 21
2545.13206825599
 31
0.0
  0
LINE
  5
8AD6
330
19
100
AcDbEntity
  8
0
100
AcDbLine
 10
730.7481276214257
 20
2545.13206825599
 30
0.0
 11
730.7481276214257
 21
2519.13206825599
 31
0.0
  0
LINE
  5
8AD7
330
19
100
AcDbEntity
  8
0
100
AcDbLine
 10
740.7481276214257
 20
2545.13206825599
 30
0.0
 11
740.7481276214257
 21
2519.13206825599
 31
0.0
  0
LINE
  5
8AD8
330
19
100
AcDbEntity
  8
0
100
AcDbLine
 10
736.7481276214257
 20
2519.13206825599
 30
0.0
 11
736.7481276214257
 21
2545.13206825599
 31
0.0
  0
LINE
  5
8AD9
330
19
100
AcDbEntity
  8
0
100
AcDbLine
 10
750.7481276214257
 20
2545.13206825599
 30
0.0
 11
750.7481276214257
 21
2519.13206825599
 31
0.0
  0
LINE
  5
8ADA
330
19
100
AcDbEntity
  8
0
100
AcDbLine
 10
746.7481276214257
 20
2519.13206825599
 30
0.0
 11
746.7481276214257
 21
2545.13206825599
 31
0.0
  0
LINE
  5
8ADB
330
19
100
AcDbEntity
  8
0
100
AcDbLine
 10
696.7481276214257
 20
2519.13206825599
 30
0.0
 11
696.7481276214257
 21
2545.13206825599
 31
0.0
  0
LINE
  5
8ADC
330
19
100
AcDbEntity
  8
0
100
AcDbLine
 10
680.7481276214257
 20
2545.13206825599
 30
0.0
 11
680.7481276214257
 21
2519.13206825599
 31
0.0
  0
LINE
  5
8ADD
330
19
100
AcDbEntity
  8
0
100
AcDbLine
 10
676.7481276214257
 20
2519.13206825599
 30
0.0
 11
676.7481276214257
 21
2545.13206825599
 31
0.0
  0
LINE
  5
8ADE
330
19
100
AcDbEntity
  8
0
100
AcDbLine
 10
690.7481276214257
 20
2545.13206825599
 30
0.0
 11
690.7481276214257
 21
2519.13206825599
 31
0.0
  0
LINE
  5
8ADF
330
19
100
AcDbEntity
  8
0
100
AcDbLine
 10
686.7481276214257
 20
2519.13206825599
 30
0.0
 11
686.7481276214257
 21
2545.13206825599
 31
0.0
  0
LINE
  5
8AE0
330
19
100
AcDbEntity
  8
0
100
AcDbLine
 10
700.7481276214257
 20
2545.13206825599
 30
0.0
 11
700.7481276214257
 21
2519.13206825599
 31
0.0
  0
LINE
  5
8AE1
330
19
100
AcDbEntity
  8
0
100
AcDbLine
 10
710.7481276214257
 20
2545.13206825599
 30
0.0
 11
710.7481276214257
 21
2519.13206825599
 31
0.0
  0
LINE
  5
8AE2
330
19
100
AcDbEntity
  8
0
100
AcDbLine
 10
706.7481276214257
 20
2519.13206825599
 30
0.0
 11
706.7481276214257
 21
2545.13206825599
 31
0.0
  0
LINE
  5
8AE3
330
19
100
AcDbEntity
  8
0
100
AcDbLine
 10
670.7481276214257
 20
2545.13206825599
 30
0.0
 11
670.7481276214257
 21
2519.13206825599
 31
0.0
  0
LINE
  5
8AE4
330
19
100
AcDbEntity
  8
0
100
AcDbLine
 10
650.7481276214257
 20
2545.13206825599
 30
0.0
 11
650.7481276214257
 21
2519.13206825599
 31
0.0
  0
LINE
  5
8AE5
330
19
100
AcDbEntity
  8
0
100
AcDbLine
 10
646.7481276214257
 20
2519.13206825599
 30
0.0
 11
646.7481276214257
 21
2545.13206825599
 31
0.0
  0
LINE
  5
8AE6
330
19
100
AcDbEntity
  8
0
100
AcDbLine
 10
660.7481276214257
 20
2545.13206825599
 30
0.0
 11
660.7481276214257
 21
2519.13206825599
 31
0.0
  0
LINE
  5
8AE7
330
19
100
AcDbEntity
  8
0
100
AcDbLine
 10
656.7481276214257
 20
2519.13206825599
 30
0.0
 11
656.7481276214257
 21
2545.13206825599
 31
0.0
  0
LINE
  5
8AE8
330
19
100
AcDbEntity
  8
0
100
AcDbLine
 10
666.7481276214257
 20
2519.13206825599
 30
0.0
 11
666.7481276214257
 21
2545.13206825599
 31
0.0
  0
LINE
  5
8AE9
330
19
100
AcDbEntity
  8
0
100
AcDbLine
 10
640.7481276214257
 20
2545.13206825599
 30
0.0
 11
640.7481276214257
 21
2519.13206825599
 31
0.0
  0
LINE
  5
8AEA
330
19
100
AcDbEntity
  8
0
100
AcDbLine
 10
636.7481276214257
 20
2519.13206825599
 30
0.0
 11
636.7481276214257
 21
2545.13206825599
 31
0.0
  0
LINE
  5
8AEB
330
19
100
AcDbEntity
  8
0
100
AcDbLine
 10
616.7481276214257
 20
2519.13206825599
 30
0.0
 11
616.7481276214257
 21
2545.13206825599
 31
0.0
  0
LINE
  5
8AEC
330
19
100
AcDbEntity
  8
0
100
AcDbLine
 10
600.7481276214257
 20
2545.13206825599
 30
0.0
 11
600.7481276214257
 21
2519.13206825599
 31
0.0
  0
LINE
  5
8AED
330
19
100
AcDbEntity
  8
0
100
AcDbLine
 10
596.7481276214257
 20
2519.13206825599
 30
0.0
 11
596.7481276214257
 21
2545.13206825599
 31
0.0
  0
LINE
  5
8AEE
330
19
100
AcDbEntity
  8
0
100
AcDbLine
 10
610.7481276214257
 20
2545.13206825599
 30
0.0
 11
610.7481276214257
 21
2519.13206825599
 31
0.0
  0
LINE
  5
8AEF
330
19
100
AcDbEntity
  8
0
100
AcDbLine
 10
606.7481276214257
 20
2519.13206825599
 30
0.0
 11
606.7481276214257
 21
2545.13206825599
 31
0.0
  0
LINE
  5
8AF0
330
19
100
AcDbEntity
  8
0
100
AcDbLine
 10
620.7481276214257
 20
2545.13206825599
 30
0.0
 11
620.7481276214257
 21
2519.13206825599
 31
0.0
  0
LINE
  5
8AF1
330
19
100
AcDbEntity
  8
0
100
AcDbLine
 10
630.7481276214257
 20
2545.13206825599
 30
0.0
 11
630.7481276214257
 21
2519.13206825599
 31
0.0
  0
LINE
  5
8AF2
330
19
100
AcDbEntity
  8
0
100
AcDbLine
 10
626.7481276214257
 20
2519.13206825599
 30
0.0
 11
626.7481276214257
 21
2545.13206825599
 31
0.0
  0
LINE
  5
8AF3
330
19
100
AcDbEntity
  8
0
100
AcDbLine
 10
590.7481276214257
 20
2545.13206825599
 30
0.0
 11
590.7481276214257
 21
2519.13206825599
 31
0.0
  0
LINE
  5
8AF4
330
19
100
AcDbEntity
  8
0
100
AcDbLine
 10
586.7481276214257
 20
2519.13206825599
 30
0.0
 11
586.7481276214257
 21
2545.13206825599
 31
0.0
  0
LINE
  5
8AF5
330
19
100
AcDbEntity
  8
0
100
AcDbLine
 10
560.7481276214257
 20
2545.13206825599
 30
0.0
 11
560.7481276214257
 21
2519.13206825599
 31
0.0
  0
LINE
  5
8AF6
330
19
100
AcDbEntity
  8
0
100
AcDbLine
 10
570.7481276214257
 20
2545.13206825599
 30
0.0
 11
570.7481276214257
 21
2519.13206825599
 31
0.0
  0
LINE
  5
8AF7
330
19
100
AcDbEntity
  8
0
100
AcDbLine
 10
566.7481276214257
 20
2519.13206825599
 30
0.0
 11
566.7481276214257
 21
2545.13206825599
 31
0.0
  0
LINE
  5
8AF8
330
19
100
AcDbEntity
  8
0
100
AcDbLine
 10
580.7481276214257
 20
2545.13206825599
 30
0.0
 11
580.7481276214257
 21
2519.13206825599
 31
0.0
  0
LINE
  5
8AF9
330
19
100
AcDbEntity
  8
0
100
AcDbLine
 10
576.7481276214257
 20
2519.13206825599
 30
0.0
 11
576.7481276214257
 21
2545.13206825599
 31
0.0
  0
LINE
  5
8AFA
330
19
100
AcDbEntity
  8
0
100
AcDbLine
 10
556.7481276214257
 20
2519.13206825599
 30
0.0
 11
556.7481276214257
 21
2545.13206825599
 31
0.0
  0
LINE
  5
8AFB
330
19
100
AcDbEntity
  8
0
100
AcDbLine
 10
556.7481276214257
 20
2469.13206825599
 30
0.0
 11
556.7481276214257
 21
2495.13206825599
 31
0.0
  0
LINE
  5
8AFC
330
19
100
AcDbEntity
  8
0
100
AcDbLine
 10
560.7481276214257
 20
2495.13206825599
 30
0.0
 11
560.7481276214257
 21
2469.13206825599
 31
0.0
  0
LINE
  5
8AFD
330
19
100
AcDbEntity
  8
0
100
AcDbLine
 10
570.7481276214257
 20
2495.13206825599
 30
0.0
 11
570.7481276214257
 21
2469.13206825599
 31
0.0
  0
LINE
  5
8AFE
330
19
100
AcDbEntity
  8
0
100
AcDbLine
 10
566.7481276214257
 20
2469.13206825599
 30
0.0
 11
566.7481276214257
 21
2495.13206825599
 31
0.0
  0
ARC
  5
8AFF
330
19
100
AcDbEntity
  8
0
100
AcDbCircle
 10
558.7481276214257
 20
2469.13206825599
 30
0.0
 40
2.0
100
AcDbArc
 50
180.0
 51
0.0
  0
ARC
  5
8B00
330
19
100
AcDbEntity
  8
0
100
AcDbCircle
 10
568.7481276214257
 20
2469.13206825599
 30
0.0
 40
2.0
100
AcDbArc
 50
180.0
 51
0.0
  0
ARC
  5
8B01
330
19
100
AcDbEntity
  8
0
100
AcDbCircle
 10
558.7481276214257
 20
2495.13206825599
 30
0.0
 40
2.0
100
AcDbArc
 50
0.0
 51
180.0
  0
ARC
  5
8B02
330
19
100
AcDbEntity
  8
0
100
AcDbCircle
 10
568.7481276214257
 20
2495.13206825599
 30
0.0
 40
2.0
100
AcDbArc
 50
0.0
 51
180.0
  0
ARC
  5
8B03
330
19
100
AcDbEntity
  8
0
100
AcDbCircle
 10
558.7481276214257
 20
2519.13206825599
 30
0.0
 40
2.0
100
AcDbArc
 50
180.0
 51
0.0
  0
ARC
  5
8B04
330
19
100
AcDbEntity
  8
0
100
AcDbCircle
 10
568.7481276214257
 20
2519.13206825599
 30
0.0
 40
2.0
100
AcDbArc
 50
180.0
 51
0.0
  0
LINE
  5
8B05
330
19
100
AcDbEntity
  8
0
100
AcDbLine
 10
636.7481276214257
 20
2469.13206825599
 30
0.0
 11
636.7481276214257
 21
2495.13206825599
 31
0.0
  0
LINE
  5
8B06
330
19
100
AcDbEntity
  8
0
100
AcDbLine
 10
650.7481276214257
 20
2495.13206825599
 30
0.0
 11
650.7481276214257
 21
2469.13206825599
 31
0.0
  0
LINE
  5
8B07
330
19
100
AcDbEntity
  8
0
100
AcDbLine
 10
646.7481276214257
 20
2469.13206825599
 30
0.0
 11
646.7481276214257
 21
2495.13206825599
 31
0.0
  0
LINE
  5
8B08
330
19
100
AcDbEntity
  8
0
100
AcDbLine
 10
640.7481276214257
 20
2495.13206825599
 30
0.0
 11
640.7481276214257
 21
2469.13206825599
 31
0.0
  0
LINE
  5
8B09
330
19
100
AcDbEntity
  8
0
100
AcDbLine
 10
596.7481276214257
 20
2469.13206825599
 30
0.0
 11
596.7481276214257
 21
2495.13206825599
 31
0.0
  0
LINE
  5
8B0A
330
19
100
AcDbEntity
  8
0
100
AcDbLine
 10
616.7481276214257
 20
2469.13206825599
 30
0.0
 11
616.7481276214257
 21
2495.13206825599
 31
0.0
  0
LINE
  5
8B0B
330
19
100
AcDbEntity
  8
0
100
AcDbLine
 10
600.7481276214257
 20
2495.13206825599
 30
0.0
 11
600.7481276214257
 21
2469.13206825599
 31
0.0
  0
LINE
  5
8B0C
330
19
100
AcDbEntity
  8
0
100
AcDbLine
 10
610.7481276214257
 20
2495.13206825599
 30
0.0
 11
610.7481276214257
 21
2469.13206825599
 31
0.0
  0
LINE
  5
8B0D
330
19
100
AcDbEntity
  8
0
100
AcDbLine
 10
606.7481276214257
 20
2469.13206825599
 30
0.0
 11
606.7481276214257
 21
2495.13206825599
 31
0.0
  0
LINE
  5
8B0E
330
19
100
AcDbEntity
  8
0
100
AcDbLine
 10
620.7481276214257
 20
2495.13206825599
 30
0.0
 11
620.7481276214257
 21
2469.13206825599
 31
0.0
  0
LINE
  5
8B0F
330
19
100
AcDbEntity
  8
0
100
AcDbLine
 10
630.7481276214257
 20
2495.13206825599
 30
0.0
 11
630.7481276214257
 21
2469.13206825599
 31
0.0
  0
LINE
  5
8B10
330
19
100
AcDbEntity
  8
0
100
AcDbLine
 10
626.7481276214257
 20
2469.13206825599
 30
0.0
 11
626.7481276214257
 21
2495.13206825599
 31
0.0
  0
LINE
  5
8B11
330
19
100
AcDbEntity
  8
0
100
AcDbLine
 10
576.7481276214257
 20
2469.13206825599
 30
0.0
 11
576.7481276214257
 21
2495.13206825599
 31
0.0
  0
LINE
  5
8B12
330
19
100
AcDbEntity
  8
0
100
AcDbLine
 10
590.7481276214257
 20
2495.13206825599
 30
0.0
 11
590.7481276214257
 21
2469.13206825599
 31
0.0
  0
LINE
  5
8B13
330
19
100
AcDbEntity
  8
0
100
AcDbLine
 10
586.7481276214257
 20
2469.13206825599
 30
0.0
 11
586.7481276214257
 21
2495.13206825599
 31
0.0
  0
LINE
  5
8B14
330
19
100
AcDbEntity
  8
0
100
AcDbLine
 10
580.7481276214257
 20
2495.13206825599
 30
0.0
 11
580.7481276214257
 21
2469.13206825599
 31
0.0
  0
ARC
  5
8B15
330
19
100
AcDbEntity
  8
0
100
AcDbCircle
 10
588.7481276214257
 20
2469.13206825599
 30
0.0
 40
2.0
100
AcDbArc
 50
180.0
 51
0.0
  0
ARC
  5
8B16
330
19
100
AcDbEntity
  8
0
100
AcDbCircle
 10
578.7481276214257
 20
2469.13206825599
 30
0.0
 40
2.0
100
AcDbArc
 50
180.0
 51
0.0
  0
ARC
  5
8B17
330
19
100
AcDbEntity
  8
0
100
AcDbCircle
 10
598.7481276214257
 20
2469.13206825599
 30
0.0
 40
2.0
100
AcDbArc
 50
180.0
 51
0.0
  0
ARC
  5
8B18
330
19
100
AcDbEntity
  8
0
100
AcDbCircle
 10
608.7481276214257
 20
2469.13206825599
 30
0.0
 40
2.0
100
AcDbArc
 50
180.0
 51
0.0
  0
ARC
  5
8B19
330
19
100
AcDbEntity
  8
0
100
AcDbCircle
 10
618.7481276214257
 20
2469.13206825599
 30
0.0
 40
2.0
100
AcDbArc
 50
180.0
 51
0.0
  0
ARC
  5
8B1A
330
19
100
AcDbEntity
  8
0
100
AcDbCircle
 10
628.7481276214257
 20
2469.13206825599
 30
0.0
 40
2.0
100
AcDbArc
 50
180.0
 51
0.0
  0
ARC
  5
8B1B
330
19
100
AcDbEntity
  8
0
100
AcDbCircle
 10
648.7481276214257
 20
2469.13206825599
 30
0.0
 40
2.0
100
AcDbArc
 50
180.0
 51
0.0
  0
ARC
  5
8B1C
330
19
100
AcDbEntity
  8
0
100
AcDbCircle
 10
638.7481276214257
 20
2469.13206825599
 30
0.0
 40
2.0
100
AcDbArc
 50
180.0
 51
0.0
  0
ARC
  5
8B1D
330
19
100
AcDbEntity
  8
0
100
AcDbCircle
 10
578.7481276214257
 20
2495.13206825599
 30
0.0
 40
2.0
100
AcDbArc
 50
0.0
 51
180.0
  0
ARC
  5
8B1E
330
19
100
AcDbEntity
  8
0
100
AcDbCircle
 10
588.7481276214257
 20
2495.13206825599
 30
0.0
 40
2.0
100
AcDbArc
 50
0.0
 51
180.0
  0
ARC
  5
8B1F
330
19
100
AcDbEntity
  8
0
100
AcDbCircle
 10
598.7481276214257
 20
2495.13206825599
 30
0.0
 40
2.0
100
AcDbArc
 50
0.0
 51
180.0
  0
ARC
  5
8B20
330
19
100
AcDbEntity
  8
0
100
AcDbCircle
 10
608.7481276214257
 20
2495.13206825599
 30
0.0
 40
2.0
100
AcDbArc
 50
0.0
 51
180.0
  0
ARC
  5
8B21
330
19
100
AcDbEntity
  8
0
100
AcDbCircle
 10
578.7481276214257
 20
2519.13206825599
 30
0.0
 40
2.0
100
AcDbArc
 50
180.0
 51
0.0
  0
ARC
  5
8B22
330
19
100
AcDbEntity
  8
0
100
AcDbCircle
 10
588.7481276214257
 20
2519.13206825599
 30
0.0
 40
2.0
100
AcDbArc
 50
180.0
 51
0.0
  0
ARC
  5
8B23
330
19
100
AcDbEntity
  8
0
100
AcDbCircle
 10
598.7481276214257
 20
2519.13206825599
 30
0.0
 40
2.0
100
AcDbArc
 50
180.0
 51
0.0
  0
ARC
  5
8B24
330
19
100
AcDbEntity
  8
0
100
AcDbCircle
 10
608.7481276214257
 20
2519.13206825599
 30
0.0
 40
2.0
100
AcDbArc
 50
180.0
 51
0.0
  0
ARC
  5
8B25
330
19
100
AcDbEntity
  8
0
100
AcDbCircle
 10
618.7481276214257
 20
2495.13206825599
 30
0.0
 40
2.0
100
AcDbArc
 50
0.0
 51
180.0
  0
ARC
  5
8B26
330
19
100
AcDbEntity
  8
0
100
AcDbCircle
 10
628.7481276214257
 20
2495.13206825599
 30
0.0
 40
2.0
100
AcDbArc
 50
0.0
 51
180.0
  0
ARC
  5
8B27
330
19
100
AcDbEntity
  8
0
100
AcDbCircle
 10
648.7481276214257
 20
2495.13206825599
 30
0.0
 40
2.0
100
AcDbArc
 50
0.0
 51
180.0
  0
ARC
  5
8B28
330
19
100
AcDbEntity
  8
0
100
AcDbCircle
 10
638.7481276214257
 20
2495.13206825599
 30
0.0
 40
2.0
100
AcDbArc
 50
0.0
 51
180.0
  0
ARC
  5
8B29
330
19
100
AcDbEntity
  8
0
100
AcDbCircle
 10
618.7481276214257
 20
2519.13206825599
 30
0.0
 40
2.0
100
AcDbArc
 50
180.0
 51
0.0
  0
ARC
  5
8B2A
330
19
100
AcDbEntity
  8
0
100
AcDbCircle
 10
628.7481276214257
 20
2519.13206825599
 30
0.0
 40
2.0
100
AcDbArc
 50
180.0
 51
0.0
  0
ARC
  5
8B2B
330
19
100
AcDbEntity
  8
0
100
AcDbCircle
 10
638.7481276214257
 20
2519.13206825599
 30
0.0
 40
2.0
100
AcDbArc
 50
180.0
 51
0.0
  0
ARC
  5
8B2C
330
19
100
AcDbEntity
  8
0
100
AcDbCircle
 10
648.7481276214257
 20
2519.13206825599
 30
0.0
 40
2.0
100
AcDbArc
 50
180.0
 51
0.0
  0
LINE
  5
8B2D
330
19
100
AcDbEntity
  8
0
100
AcDbLine
 10
716.7481276214257
 20
2469.13206825599
 30
0.0
 11
716.7481276214257
 21
2495.13206825599
 31
0.0
  0
LINE
  5
8B2E
330
19
100
AcDbEntity
  8
0
100
AcDbLine
 10
726.7481276214257
 20
2469.13206825599
 30
0.0
 11
726.7481276214257
 21
2495.13206825599
 31
0.0
  0
LINE
  5
8B2F
330
19
100
AcDbEntity
  8
0
100
AcDbLine
 10
730.7481276214257
 20
2495.13206825599
 30
0.0
 11
730.7481276214257
 21
2469.13206825599
 31
0.0
  0
LINE
  5
8B30
330
19
100
AcDbEntity
  8
0
100
AcDbLine
 10
720.7481276214257
 20
2495.13206825599
 30
0.0
 11
720.7481276214257
 21
2469.13206825599
 31
0.0
  0
LINE
  5
8B31
330
19
100
AcDbEntity
  8
0
100
AcDbLine
 10
676.7481276214257
 20
2469.13206825599
 30
0.0
 11
676.7481276214257
 21
2495.13206825599
 31
0.0
  0
LINE
  5
8B32
330
19
100
AcDbEntity
  8
0
100
AcDbLine
 10
696.7481276214257
 20
2469.13206825599
 30
0.0
 11
696.7481276214257
 21
2495.13206825599
 31
0.0
  0
LINE
  5
8B33
330
19
100
AcDbEntity
  8
0
100
AcDbLine
 10
680.7481276214257
 20
2495.13206825599
 30
0.0
 11
680.7481276214257
 21
2469.13206825599
 31
0.0
  0
LINE
  5
8B34
330
19
100
AcDbEntity
  8
0
100
AcDbLine
 10
690.7481276214257
 20
2495.13206825599
 30
0.0
 11
690.7481276214257
 21
2469.13206825599
 31
0.0
  0
LINE
  5
8B35
330
19
100
AcDbEntity
  8
0
100
AcDbLine
 10
686.7481276214257
 20
2469.13206825599
 30
0.0
 11
686.7481276214257
 21
2495.13206825599
 31
0.0
  0
LINE
  5
8B36
330
19
100
AcDbEntity
  8
0
100
AcDbLine
 10
700.7481276214257
 20
2495.13206825599
 30
0.0
 11
700.7481276214257
 21
2469.13206825599
 31
0.0
  0
LINE
  5
8B37
330
19
100
AcDbEntity
  8
0
100
AcDbLine
 10
710.7481276214257
 20
2495.13206825599
 30
0.0
 11
710.7481276214257
 21
2469.13206825599
 31
0.0
  0
LINE
  5
8B38
330
19
100
AcDbEntity
  8
0
100
AcDbLine
 10
706.7481276214257
 20
2469.13206825599
 30
0.0
 11
706.7481276214257
 21
2495.13206825599
 31
0.0
  0
LINE
  5
8B39
330
19
100
AcDbEntity
  8
0
100
AcDbLine
 10
656.7481276214257
 20
2469.13206825599
 30
0.0
 11
656.7481276214257
 21
2495.13206825599
 31
0.0
  0
LINE
  5
8B3A
330
19
100
AcDbEntity
  8
0
100
AcDbLine
 10
670.7481276214257
 20
2495.13206825599
 30
0.0
 11
670.7481276214257
 21
2469.13206825599
 31
0.0
  0
LINE
  5
8B3B
330
19
100
AcDbEntity
  8
0
100
AcDbLine
 10
666.7481276214257
 20
2469.13206825599
 30
0.0
 11
666.7481276214257
 21
2495.13206825599
 31
0.0
  0
LINE
  5
8B3C
330
19
100
AcDbEntity
  8
0
100
AcDbLine
 10
660.7481276214257
 20
2495.13206825599
 30
0.0
 11
660.7481276214257
 21
2469.13206825599
 31
0.0
  0
ARC
  5
8B3D
330
19
100
AcDbEntity
  8
0
100
AcDbCircle
 10
668.7481276214257
 20
2469.13206825599
 30
0.0
 40
2.0
100
AcDbArc
 50
180.0
 51
0.0
  0
ARC
  5
8B3E
330
19
100
AcDbEntity
  8
0
100
AcDbCircle
 10
658.7481276214257
 20
2469.13206825599
 30
0.0
 40
2.0
100
AcDbArc
 50
180.0
 51
0.0
  0
ARC
  5
8B3F
330
19
100
AcDbEntity
  8
0
100
AcDbCircle
 10
678.7481276214257
 20
2469.13206825599
 30
0.0
 40
2.0
100
AcDbArc
 50
180.0
 51
0.0
  0
ARC
  5
8B40
330
19
100
AcDbEntity
  8
0
100
AcDbCircle
 10
688.7481276214257
 20
2469.13206825599
 30
0.0
 40
2.0
100
AcDbArc
 50
180.0
 51
0.0
  0
ARC
  5
8B41
330
19
100
AcDbEntity
  8
0
100
AcDbCircle
 10
698.7481276214257
 20
2469.13206825599
 30
0.0
 40
2.0
100
AcDbArc
 50
180.0
 51
0.0
  0
ARC
  5
8B42
330
19
100
AcDbEntity
  8
0
100
AcDbCircle
 10
708.7481276214257
 20
2469.13206825599
 30
0.0
 40
2.0
100
AcDbArc
 50
180.0
 51
0.0
  0
ARC
  5
8B43
330
19
100
AcDbEntity
  8
0
100
AcDbCircle
 10
728.7481276214257
 20
2469.13206825599
 30
0.0
 40
2.0
100
AcDbArc
 50
180.0
 51
0.0
  0
ARC
  5
8B44
330
19
100
AcDbEntity
  8
0
100
AcDbCircle
 10
718.7481276214257
 20
2469.13206825599
 30
0.0
 40
2.0
100
AcDbArc
 50
180.0
 51
0.0
  0
ARC
  5
8B45
330
19
100
AcDbEntity
  8
0
100
AcDbCircle
 10
658.7481276214257
 20
2495.13206825599
 30
0.0
 40
2.0
100
AcDbArc
 50
0.0
 51
180.0
  0
ARC
  5
8B46
330
19
100
AcDbEntity
  8
0
100
AcDbCircle
 10
668.7481276214257
 20
2495.13206825599
 30
0.0
 40
2.0
100
AcDbArc
 50
0.0
 51
180.0
  0
ARC
  5
8B47
330
19
100
AcDbEntity
  8
0
100
AcDbCircle
 10
678.7481276214257
 20
2495.13206825599
 30
0.0
 40
2.0
100
AcDbArc
 50
0.0
 51
180.0
  0
ARC
  5
8B48
330
19
100
AcDbEntity
  8
0
100
AcDbCircle
 10
688.7481276214257
 20
2495.13206825599
 30
0.0
 40
2.0
100
AcDbArc
 50
0.0
 51
180.0
  0
ARC
  5
8B49
330
19
100
AcDbEntity
  8
0
100
AcDbCircle
 10
658.7481276214257
 20
2519.13206825599
 30
0.0
 40
2.0
100
AcDbArc
 50
180.0
 51
0.0
  0
ARC
  5
8B4A
330
19
100
AcDbEntity
  8
0
100
AcDbCircle
 10
668.7481276214257
 20
2519.13206825599
 30
0.0
 40
2.0
100
AcDbArc
 50
180.0
 51
0.0
  0
ARC
  5
8B4B
330
19
100
AcDbEntity
  8
0
100
AcDbCircle
 10
678.7481276214257
 20
2519.13206825599
 30
0.0
 40
2.0
100
AcDbArc
 50
180.0
 51
0.0
  0
ARC
  5
8B4C
330
19
100
AcDbEntity
  8
0
100
AcDbCircle
 10
688.7481276214257
 20
2519.13206825599
 30
0.0
 40
2.0
100
AcDbArc
 50
180.0
 51
0.0
  0
ARC
  5
8B4D
330
19
100
AcDbEntity
  8
0
100
AcDbCircle
 10
698.7481276214257
 20
2495.13206825599
 30
0.0
 40
2.0
100
AcDbArc
 50
0.0
 51
180.0
  0
ARC
  5
8B4E
330
19
100
AcDbEntity
  8
0
100
AcDbCircle
 10
708.7481276214257
 20
2495.13206825599
 30
0.0
 40
2.0
100
AcDbArc
 50
0.0
 51
180.0
  0
ARC
  5
8B4F
330
19
100
AcDbEntity
  8
0
100
AcDbCircle
 10
728.7481276214257
 20
2495.13206825599
 30
0.0
 40
2.0
100
AcDbArc
 50
0.0
 51
180.0
  0
ARC
  5
8B50
330
19
100
AcDbEntity
  8
0
100
AcDbCircle
 10
718.7481276214257
 20
2495.13206825599
 30
0.0
 40
2.0
100
AcDbArc
 50
0.0
 51
180.0
  0
ARC
  5
8B51
330
19
100
AcDbEntity
  8
0
100
AcDbCircle
 10
698.7481276214257
 20
2519.13206825599
 30
0.0
 40
2.0
100
AcDbArc
 50
180.0
 51
0.0
  0
ARC
  5
8B52
330
19
100
AcDbEntity
  8
0
100
AcDbCircle
 10
708.7481276214257
 20
2519.13206825599
 30
0.0
 40
2.0
100
AcDbArc
 50
180.0
 51
0.0
  0
ARC
  5
8B53
330
19
100
AcDbEntity
  8
0
100
AcDbCircle
 10
718.7481276214257
 20
2519.13206825599
 30
0.0
 40
2.0
100
AcDbArc
 50
180.0
 51
0.0
  0
ARC
  5
8B54
330
19
100
AcDbEntity
  8
0
100
AcDbCircle
 10
728.7481276214257
 20
2519.13206825599
 30
0.0
 40
2.0
100
AcDbArc
 50
180.0
 51
0.0
  0
LINE
  5
8B55
330
19
100
AcDbEntity
  8
0
100
AcDbLine
 10
796.7481276214257
 20
2469.13206825599
 30
0.0
 11
796.7481276214257
 21
2495.13206825599
 31
0.0
  0
LINE
  5
8B56
330
19
100
AcDbEntity
  8
0
100
AcDbLine
 10
810.7481276214256
 20
2495.13206825599
 30
0.0
 11
810.7481276214256
 21
2469.13206825599
 31
0.0
  0
LINE
  5
8B57
330
19
100
AcDbEntity
  8
0
100
AcDbLine
 10
806.7481276214257
 20
2469.13206825599
 30
0.0
 11
806.7481276214257
 21
2495.13206825599
 31
0.0
  0
LINE
  5
8B58
330
19
100
AcDbEntity
  8
0
100
AcDbLine
 10
800.7481276214257
 20
2495.13206825599
 30
0.0
 11
800.7481276214257
 21
2469.13206825599
 31
0.0
  0
LINE
  5
8B59
330
19
100
AcDbEntity
  8
0
100
AcDbLine
 10
756.7481276214257
 20
2469.13206825599
 30
0.0
 11
756.7481276214257
 21
2495.13206825599
 31
0.0
  0
LINE
  5
8B5A
330
19
100
AcDbEntity
  8
0
100
AcDbLine
 10
776.7481276214257
 20
2469.13206825599
 30
0.0
 11
776.7481276214257
 21
2495.13206825599
 31
0.0
  0
LINE
  5
8B5B
330
19
100
AcDbEntity
  8
0
100
AcDbLine
 10
760.7481276214257
 20
2495.13206825599
 30
0.0
 11
760.7481276214257
 21
2469.13206825599
 31
0.0
  0
LINE
  5
8B5C
330
19
100
AcDbEntity
  8
0
100
AcDbLine
 10
770.7481276214257
 20
2495.13206825599
 30
0.0
 11
770.7481276214257
 21
2469.13206825599
 31
0.0
  0
LINE
  5
8B5D
330
19
100
AcDbEntity
  8
0
100
AcDbLine
 10
766.7481276214257
 20
2469.13206825599
 30
0.0
 11
766.7481276214257
 21
2495.13206825599
 31
0.0
  0
LINE
  5
8B5E
330
19
100
AcDbEntity
  8
0
100
AcDbLine
 10
780.7481276214257
 20
2495.13206825599
 30
0.0
 11
780.7481276214257
 21
2469.13206825599
 31
0.0
  0
LINE
  5
8B5F
330
19
100
AcDbEntity
  8
0
100
AcDbLine
 10
790.7481276214257
 20
2495.13206825599
 30
0.0
 11
790.7481276214257
 21
2469.13206825599
 31
0.0
  0
LINE
  5
8B60
330
19
100
AcDbEntity
  8
0
100
AcDbLine
 10
786.7481276214257
 20
2469.13206825599
 30
0.0
 11
786.7481276214257
 21
2495.13206825599
 31
0.0
  0
LINE
  5
8B61
330
19
100
AcDbEntity
  8
0
100
AcDbLine
 10
736.7481276214257
 20
2469.13206825599
 30
0.0
 11
736.7481276214257
 21
2495.13206825599
 31
0.0
  0
LINE
  5
8B62
330
19
100
AcDbEntity
  8
0
100
AcDbLine
 10
750.7481276214257
 20
2495.13206825599
 30
0.0
 11
750.7481276214257
 21
2469.13206825599
 31
0.0
  0
LINE
  5
8B63
330
19
100
AcDbEntity
  8
0
100
AcDbLine
 10
740.7481276214257
 20
2495.13206825599
 30
0.0
 11
740.7481276214257
 21
2469.13206825599
 31
0.0
  0
LINE
  5
8B64
330
19
100
AcDbEntity
  8
0
100
AcDbLine
 10
746.7481276214257
 20
2469.13206825599
 30
0.0
 11
746.7481276214257
 21
2495.13206825599
 31
0.0
  0
ARC
  5
8B65
330
19
100
AcDbEntity
  8
0
100
AcDbCircle
 10
738.7481276214257
 20
2469.13206825599
 30
0.0
 40
2.0
100
AcDbArc
 50
180.0
 51
0.0
  0
ARC
  5
8B66
330
19
100
AcDbEntity
  8
0
100
AcDbCircle
 10
748.7481276214257
 20
2469.13206825599
 30
0.0
 40
2.0
100
AcDbArc
 50
180.0
 51
0.0
  0
ARC
  5
8B67
330
19
100
AcDbEntity
  8
0
100
AcDbCircle
 10
758.7481276214257
 20
2469.13206825599
 30
0.0
 40
2.0
100
AcDbArc
 50
180.0
 51
0.0
  0
ARC
  5
8B68
330
19
100
AcDbEntity
  8
0
100
AcDbCircle
 10
768.7481276214257
 20
2469.13206825599
 30
0.0
 40
2.0
100
AcDbArc
 50
180.0
 51
0.0
  0
ARC
  5
8B69
330
19
100
AcDbEntity
  8
0
100
AcDbCircle
 10
778.7481276214257
 20
2469.13206825599
 30
0.0
 40
2.0
100
AcDbArc
 50
180.0
 51
0.0
  0
ARC
  5
8B6A
330
19
100
AcDbEntity
  8
0
100
AcDbCircle
 10
788.7481276214257
 20
2469.13206825599
 30
0.0
 40
2.0
100
AcDbArc
 50
180.0
 51
0.0
  0
ARC
  5
8B6B
330
19
100
AcDbEntity
  8
0
100
AcDbCircle
 10
808.7481276214257
 20
2469.13206825599
 30
0.0
 40
2.0
100
AcDbArc
 50
180.0
 51
0.0
  0
ARC
  5
8B6C
330
19
100
AcDbEntity
  8
0
100
AcDbCircle
 10
798.7481276214257
 20
2469.13206825599
 30
0.0
 40
2.0
100
AcDbArc
 50
180.0
 51
0.0
  0
ARC
  5
8B6D
330
19
100
AcDbEntity
  8
0
100
AcDbCircle
 10
738.7481276214257
 20
2495.13206825599
 30
0.0
 40
2.0
100
AcDbArc
 50
0.0
 51
180.0
  0
ARC
  5
8B6E
330
19
100
AcDbEntity
  8
0
100
AcDbCircle
 10
748.7481276214257
 20
2495.13206825599
 30
0.0
 40
2.0
100
AcDbArc
 50
0.0
 51
180.0
  0
ARC
  5
8B6F
330
19
100
AcDbEntity
  8
0
100
AcDbCircle
 10
758.7481276214257
 20
2495.13206825599
 30
0.0
 40
2.0
100
AcDbArc
 50
0.0
 51
180.0
  0
ARC
  5
8B70
330
19
100
AcDbEntity
  8
0
100
AcDbCircle
 10
768.7481276214257
 20
2495.13206825599
 30
0.0
 40
2.0
100
AcDbArc
 50
0.0
 51
180.0
  0
ARC
  5
8B71
330
19
100
AcDbEntity
  8
0
100
AcDbCircle
 10
738.7481276214257
 20
2519.13206825599
 30
0.0
 40
2.0
100
AcDbArc
 50
180.0
 51
0.0
  0
ARC
  5
8B72
330
19
100
AcDbEntity
  8
0
100
AcDbCircle
 10
748.7481276214257
 20
2519.13206825599
 30
0.0
 40
2.0
100
AcDbArc
 50
180.0
 51
0.0
  0
ARC
  5
8B73
330
19
100
AcDbEntity
  8
0
100
AcDbCircle
 10
758.7481276214257
 20
2519.13206825599
 30
0.0
 40
2.0
100
AcDbArc
 50
180.0
 51
0.0
  0
ARC
  5
8B74
330
19
100
AcDbEntity
  8
0
100
AcDbCircle
 10
768.7481276214257
 20
2519.13206825599
 30
0.0
 40
2.0
100
AcDbArc
 50
180.0
 51
0.0
  0
ARC
  5
8B75
330
19
100
AcDbEntity
  8
0
100
AcDbCircle
 10
778.7481276214257
 20
2495.13206825599
 30
0.0
 40
2.0
100
AcDbArc
 50
0.0
 51
180.0
  0
ARC
  5
8B76
330
19
100
AcDbEntity
  8
0
100
AcDbCircle
 10
788.7481276214257
 20
2495.13206825599
 30
0.0
 40
2.0
100
AcDbArc
 50
0.0
 51
180.0
  0
ARC
  5
8B77
330
19
100
AcDbEntity
  8
0
100
AcDbCircle
 10
808.7481276214257
 20
2495.13206825599
 30
0.0
 40
2.0
100
AcDbArc
 50
0.0
 51
180.0
  0
ARC
  5
8B78
330
19
100
AcDbEntity
  8
0
100
AcDbCircle
 10
798.7481276214257
 20
2495.13206825599
 30
0.0
 40
2.0
100
AcDbArc
 50
0.0
 51
180.0
  0
ARC
  5
8B79
330
19
100
AcDbEntity
  8
0
100
AcDbCircle
 10
778.7481276214257
 20
2519.13206825599
 30
0.0
 40
2.0
100
AcDbArc
 50
180.0
 51
0.0
  0
ARC
  5
8B7A
330
19
100
AcDbEntity
  8
0
100
AcDbCircle
 10
788.7481276214257
 20
2519.13206825599
 30
0.0
 40
2.0
100
AcDbArc
 50
180.0
 51
0.0
  0
ARC
  5
8B7B
330
19
100
AcDbEntity
  8
0
100
AcDbCircle
 10
798.7481276214257
 20
2519.13206825599
 30
0.0
 40
2.0
100
AcDbArc
 50
180.0
 51
0.0
  0
ARC
  5
8B7C
330
19
100
AcDbEntity
  8
0
100
AcDbCircle
 10
808.7481276214257
 20
2519.13206825599
 30
0.0
 40
2.0
100
AcDbArc
 50
180.0
 51
0.0
  0
LINE
  5
8B7D
330
19
100
AcDbEntity
  8
0
100
AcDbLine
 10
870.7481276214258
 20
2495.13206825599
 30
0.0
 11
870.7481276214258
 21
2469.13206825599
 31
0.0
  0
LINE
  5
8B7E
330
19
100
AcDbEntity
  8
0
100
AcDbLine
 10
890.7481276214257
 20
2495.13206825599
 30
0.0
 11
890.7481276214257
 21
2469.13206825599
 31
0.0
  0
LINE
  5
8B7F
330
19
100
AcDbEntity
  8
0
100
AcDbLine
 10
886.7481276214258
 20
2469.13206825599
 30
0.0
 11
886.7481276214258
 21
2495.13206825599
 31
0.0
  0
LINE
  5
8B80
330
19
100
AcDbEntity
  8
0
100
AcDbLine
 10
880.7481276214257
 20
2495.13206825599
 30
0.0
 11
880.7481276214257
 21
2469.13206825599
 31
0.0
  0
LINE
  5
8B81
330
19
100
AcDbEntity
  8
0
100
AcDbLine
 10
876.7481276214256
 20
2469.13206825599
 30
0.0
 11
876.7481276214256
 21
2495.13206825599
 31
0.0
  0
LINE
  5
8B82
330
19
100
AcDbEntity
  8
0
100
AcDbLine
 10
836.7481276214258
 20
2469.13206825599
 30
0.0
 11
836.7481276214258
 21
2495.13206825599
 31
0.0
  0
LINE
  5
8B83
330
19
100
AcDbEntity
  8
0
100
AcDbLine
 10
830.7481276214257
 20
2495.13206825599
 30
0.0
 11
830.7481276214257
 21
2469.13206825599
 31
0.0
  0
LINE
  5
8B84
330
19
100
AcDbEntity
  8
0
100
AcDbLine
 10
840.7481276214257
 20
2495.13206825599
 30
0.0
 11
840.7481276214257
 21
2469.13206825599
 31
0.0
  0
LINE
  5
8B85
330
19
100
AcDbEntity
  8
0
100
AcDbLine
 10
850.7481276214257
 20
2495.13206825599
 30
0.0
 11
850.7481276214257
 21
2469.13206825599
 31
0.0
  0
LINE
  5
8B86
330
19
100
AcDbEntity
  8
0
100
AcDbLine
 10
846.7481276214257
 20
2469.13206825599
 30
0.0
 11
846.7481276214257
 21
2495.13206825599
 31
0.0
  0
LINE
  5
8B87
330
19
100
AcDbEntity
  8
0
100
AcDbLine
 10
866.7481276214257
 20
2469.13206825599
 30
0.0
 11
866.7481276214257
 21
2495.13206825599
 31
0.0
  0
LINE
  5
8B88
330
19
100
AcDbEntity
  8
0
100
AcDbLine
 10
860.7481276214256
 20
2495.13206825599
 30
0.0
 11
860.7481276214256
 21
2469.13206825599
 31
0.0
  0
LINE
  5
8B89
330
19
100
AcDbEntity
  8
0
100
AcDbLine
 10
856.7481276214257
 20
2469.13206825599
 30
0.0
 11
856.7481276214257
 21
2495.13206825599
 31
0.0
  0
LINE
  5
8B8A
330
19
100
AcDbEntity
  8
0
100
AcDbLine
 10
816.7481276214257
 20
2469.13206825599
 30
0.0
 11
816.7481276214257
 21
2495.13206825599
 31
0.0
  0
LINE
  5
8B8B
330
19
100
AcDbEntity
  8
0
100
AcDbLine
 10
820.7481276214258
 20
2495.13206825599
 30
0.0
 11
820.7481276214258
 21
2469.13206825599
 31
0.0
  0
LINE
  5
8B8C
330
19
100
AcDbEntity
  8
0
100
AcDbLine
 10
826.7481276214256
 20
2469.13206825599
 30
0.0
 11
826.7481276214256
 21
2495.13206825599
 31
0.0
  0
ARC
  5
8B8D
330
19
100
AcDbEntity
  8
0
100
AcDbCircle
 10
818.7481276214256
 20
2469.13206825599
 30
0.0
 40
2.0
100
AcDbArc
 50
180.0
 51
0.0
  0
ARC
  5
8B8E
330
19
100
AcDbEntity
  8
0
100
AcDbCircle
 10
828.7481276214258
 20
2469.13206825599
 30
0.0
 40
2.0
100
AcDbArc
 50
180.0
 51
0.0
  0
ARC
  5
8B8F
330
19
100
AcDbEntity
  8
0
100
AcDbCircle
 10
838.7481276214257
 20
2469.13206825599
 30
0.0
 40
2.0
100
AcDbArc
 50
180.0
 51
0.0
  0
ARC
  5
8B90
330
19
100
AcDbEntity
  8
0
100
AcDbCircle
 10
848.7481276214257
 20
2469.13206825599
 30
0.0
 40
2.0
100
AcDbArc
 50
180.0
 51
0.0
  0
ARC
  5
8B91
330
19
100
AcDbEntity
  8
0
100
AcDbCircle
 10
858.7481276214257
 20
2469.13206825599
 30
0.0
 40
2.0
100
AcDbArc
 50
180.0
 51
0.0
  0
ARC
  5
8B92
330
19
100
AcDbEntity
  8
0
100
AcDbCircle
 10
868.7481276214256
 20
2469.13206825599
 30
0.0
 40
2.0
100
AcDbArc
 50
180.0
 51
0.0
  0
ARC
  5
8B93
330
19
100
AcDbEntity
  8
0
100
AcDbCircle
 10
878.7481276214258
 20
2469.13206825599
 30
0.0
 40
2.0
100
AcDbArc
 50
180.0
 51
0.0
  0
ARC
  5
8B94
330
19
100
AcDbEntity
  8
0
100
AcDbCircle
 10
888.7481276214257
 20
2469.13206825599
 30
0.0
 40
2.0
100
AcDbArc
 50
180.0
 51
0.0
  0
ARC
  5
8B95
330
19
100
AcDbEntity
  8
0
100
AcDbCircle
 10
818.7481276214256
 20
2495.13206825599
 30
0.0
 40
2.0
100
AcDbArc
 50
0.0
 51
180.0
  0
ARC
  5
8B96
330
19
100
AcDbEntity
  8
0
100
AcDbCircle
 10
828.7481276214258
 20
2495.13206825599
 30
0.0
 40
2.0
100
AcDbArc
 50
0.0
 51
180.0
  0
ARC
  5
8B97
330
19
100
AcDbEntity
  8
0
100
AcDbCircle
 10
838.7481276214257
 20
2495.13206825599
 30
0.0
 40
2.0
100
AcDbArc
 50
0.0
 51
180.0
  0
ARC
  5
8B98
330
19
100
AcDbEntity
  8
0
100
AcDbCircle
 10
848.7481276214257
 20
2495.13206825599
 30
0.0
 40
2.0
100
AcDbArc
 50
0.0
 51
180.0
  0
ARC
  5
8B99
330
19
100
AcDbEntity
  8
0
100
AcDbCircle
 10
818.7481276214256
 20
2519.13206825599
 30
0.0
 40
2.0
100
AcDbArc
 50
180.0
 51
0.0
  0
ARC
  5
8B9A
330
19
100
AcDbEntity
  8
0
100
AcDbCircle
 10
828.7481276214258
 20
2519.13206825599
 30
0.0
 40
2.0
100
AcDbArc
 50
180.0
 51
0.0
  0
ARC
  5
8B9B
330
19
100
AcDbEntity
  8
0
100
AcDbCircle
 10
838.7481276214257
 20
2519.13206825599
 30
0.0
 40
2.0
100
AcDbArc
 50
180.0
 51
0.0
  0
ARC
  5
8B9C
330
19
100
AcDbEntity
  8
0
100
AcDbCircle
 10
848.7481276214257
 20
2519.13206825599
 30
0.0
 40
2.0
100
AcDbArc
 50
180.0
 51
0.0
  0
ARC
  5
8B9D
330
19
100
AcDbEntity
  8
0
100
AcDbCircle
 10
858.7481276214257
 20
2495.13206825599
 30
0.0
 40
2.0
100
AcDbArc
 50
0.0
 51
180.0
  0
ARC
  5
8B9E
330
19
100
AcDbEntity
  8
0
100
AcDbCircle
 10
868.7481276214256
 20
2495.13206825599
 30
0.0
 40
2.0
100
AcDbArc
 50
0.0
 51
180.0
  0
ARC
  5
8B9F
330
19
100
AcDbEntity
  8
0
100
AcDbCircle
 10
878.7481276214258
 20
2495.13206825599
 30
0.0
 40
2.0
100
AcDbArc
 50
0.0
 51
180.0
  0
ARC
  5
8BA0
330
19
100
AcDbEntity
  8
0
100
AcDbCircle
 10
888.7481276214257
 20
2495.13206825599
 30
0.0
 40
2.0
100
AcDbArc
 50
0.0
 51
180.0
  0
ARC
  5
8BA1
330
19
100
AcDbEntity
  8
0
100
AcDbCircle
 10
858.7481276214257
 20
2519.13206825599
 30
0.0
 40
2.0
100
AcDbArc
 50
180.0
 51
0.0
  0
ARC
  5
8BA2
330
19
100
AcDbEntity
  8
0
100
AcDbCircle
 10
868.7481276214256
 20
2519.13206825599
 30
0.0
 40
2.0
100
AcDbArc
 50
180.0
 51
0.0
  0
ARC
  5
8BA3
330
19
100
AcDbEntity
  8
0
100
AcDbCircle
 10
878.7481276214258
 20
2519.13206825599
 30
0.0
 40
2.0
100
AcDbArc
 50
180.0
 51
0.0
  0
ARC
  5
8BA4
330
19
100
AcDbEntity
  8
0
100
AcDbCircle
 10
888.7481276214257
 20
2519.13206825599
 30
0.0
 40
2.0
100
AcDbArc
 50
180.0
 51
0.0
  0
LINE
  5
8BA5
330
19
100
AcDbEntity
  8
0
100
AcDbLine
 10
910.7481276214256
 20
2495.13206825599
 30
0.0
 11
910.7481276214256
 21
2469.13206825599
 31
0.0
  0
LINE
  5
8BA6
330
19
100
AcDbEntity
  8
0
100
AcDbLine
 10
916.7481276214257
 20
2469.13206825599
 30
0.0
 11
916.7481276214257
 21
2495.13206825599
 31
0.0
  0
LINE
  5
8BA7
330
19
100
AcDbEntity
  8
0
100
AcDbLine
 10
920.7481276214258
 20
2495.13206825599
 30
0.0
 11
920.7481276214258
 21
2469.13206825599
 31
0.0
  0
LINE
  5
8BA8
330
19
100
AcDbEntity
  8
0
100
AcDbLine
 10
900.7481276214257
 20
2495.13206825599
 30
0.0
 11
900.7481276214257
 21
2469.13206825599
 31
0.0
  0
LINE
  5
8BA9
330
19
100
AcDbEntity
  8
0
100
AcDbLine
 10
896.7481276214257
 20
2469.13206825599
 30
0.0
 11
896.7481276214257
 21
2495.13206825599
 31
0.0
  0
LINE
  5
8BAA
330
19
100
AcDbEntity
  8
0
100
AcDbLine
 10
906.7481276214257
 20
2469.13206825599
 30
0.0
 11
906.7481276214257
 21
2495.13206825599
 31
0.0
  0
ARC
  5
8BAB
330
19
100
AcDbEntity
  8
0
100
AcDbCircle
 10
908.7481276214257
 20
2469.13206825599
 30
0.0
 40
2.0
100
AcDbArc
 50
180.0
 51
0.0
  0
ARC
  5
8BAC
330
19
100
AcDbEntity
  8
0
100
AcDbCircle
 10
898.7481276214257
 20
2469.13206825599
 30
0.0
 40
2.0
100
AcDbArc
 50
180.0
 51
0.0
  0
ARC
  5
8BAD
330
19
100
AcDbEntity
  8
0
100
AcDbCircle
 10
918.7481276214256
 20
2469.13206825599
 30
0.0
 40
2.0
100
AcDbArc
 50
180.0
 51
0.0
  0
ARC
  5
8BAE
330
19
100
AcDbEntity
  8
0
100
AcDbCircle
 10
908.7481276214257
 20
2495.13206825599
 30
0.0
 40
2.0
100
AcDbArc
 50
0.0
 51
180.0
  0
ARC
  5
8BAF
330
19
100
AcDbEntity
  8
0
100
AcDbCircle
 10
898.7481276214257
 20
2495.13206825599
 30
0.0
 40
2.0
100
AcDbArc
 50
0.0
 51
180.0
  0
ARC
  5
8BB0
330
19
100
AcDbEntity
  8
0
100
AcDbCircle
 10
918.7481276214256
 20
2495.13206825599
 30
0.0
 40
2.0
100
AcDbArc
 50
0.0
 51
180.0
  0
ARC
  5
8BB1
330
19
100
AcDbEntity
  8
0
100
AcDbCircle
 10
908.7481276214257
 20
2519.13206825599
 30
0.0
 40
2.0
100
AcDbArc
 50
180.0
 51
0.0
  0
ARC
  5
8BB2
330
19
100
AcDbEntity
  8
0
100
AcDbCircle
 10
898.7481276214257
 20
2519.13206825599
 30
0.0
 40
2.0
100
AcDbArc
 50
180.0
 51
0.0
  0
ARC
  5
8BB3
330
19
100
AcDbEntity
  8
0
100
AcDbCircle
 10
918.7481276214256
 20
2519.13206825599
 30
0.0
 40
2.0
100
AcDbArc
 50
180.0
 51
0.0
  0
ARC
  5
8BB4
330
19
100
AcDbEntity
  8
0
100
AcDbCircle
 10
558.7481276214257
 20
2545.13206825599
 30
0.0
 40
2.0
100
AcDbArc
 50
0.0
 51
180.0
  0
ARC
  5
8BB5
330
19
100
AcDbEntity
  8
0
100
AcDbCircle
 10
568.7481276214257
 20
2545.13206825599
 30
0.0
 40
2.0
100
AcDbArc
 50
0.0
 51
180.0
  0
ARC
  5
8BB6
330
19
100
AcDbEntity
  8
0
100
AcDbCircle
 10
578.7481276214257
 20
2545.13206825599
 30
0.0
 40
2.0
100
AcDbArc
 50
0.0
 51
180.0
  0
ARC
  5
8BB7
330
19
100
AcDbEntity
  8
0
100
AcDbCircle
 10
588.7481276214257
 20
2545.13206825599
 30
0.0
 40
2.0
100
AcDbArc
 50
0.0
 51
180.0
  0
ARC
  5
8BB8
330
19
100
AcDbEntity
  8
0
100
AcDbCircle
 10
598.7481276214257
 20
2545.13206825599
 30
0.0
 40
2.0
100
AcDbArc
 50
0.0
 51
180.0
  0
ARC
  5
8BB9
330
19
100
AcDbEntity
  8
0
100
AcDbCircle
 10
608.7481276214257
 20
2545.13206825599
 30
0.0
 40
2.0
100
AcDbArc
 50
0.0
 51
180.0
  0
ARC
  5
8BBA
330
19
100
AcDbEntity
  8
0
100
AcDbCircle
 10
618.7481276214257
 20
2545.13206825599
 30
0.0
 40
2.0
100
AcDbArc
 50
0.0
 51
180.0
  0
ARC
  5
8BBB
330
19
100
AcDbEntity
  8
0
100
AcDbCircle
 10
628.7481276214257
 20
2545.13206825599
 30
0.0
 40
2.0
100
AcDbArc
 50
0.0
 51
180.0
  0
ARC
  5
8BBC
330
19
100
AcDbEntity
  8
0
100
AcDbCircle
 10
638.7481276214257
 20
2545.13206825599
 30
0.0
 40
2.0
100
AcDbArc
 50
0.0
 51
180.0
  0
ARC
  5
8BBD
330
19
100
AcDbEntity
  8
0
100
AcDbCircle
 10
648.7481276214257
 20
2545.13206825599
 30
0.0
 40
2.0
100
AcDbArc
 50
0.0
 51
180.0
  0
ARC
  5
8BBE
330
19
100
AcDbEntity
  8
0
100
AcDbCircle
 10
658.7481276214257
 20
2545.13206825599
 30
0.0
 40
2.0
100
AcDbArc
 50
0.0
 51
180.0
  0
ARC
  5
8BBF
330
19
100
AcDbEntity
  8
0
100
AcDbCircle
 10
668.7481276214257
 20
2545.13206825599
 30
0.0
 40
2.0
100
AcDbArc
 50
0.0
 51
180.0
  0
ARC
  5
8BC0
330
19
100
AcDbEntity
  8
0
100
AcDbCircle
 10
678.7481276214257
 20
2545.13206825599
 30
0.0
 40
2.0
100
AcDbArc
 50
0.0
 51
180.0
  0
ARC
  5
8BC1
330
19
100
AcDbEntity
  8
0
100
AcDbCircle
 10
688.7481276214257
 20
2545.13206825599
 30
0.0
 40
2.0
100
AcDbArc
 50
0.0
 51
180.0
  0
ARC
  5
8BC2
330
19
100
AcDbEntity
  8
0
100
AcDbCircle
 10
698.7481276214257
 20
2545.13206825599
 30
0.0
 40
2.0
100
AcDbArc
 50
0.0
 51
180.0
  0
ARC
  5
8BC3
330
19
100
AcDbEntity
  8
0
100
AcDbCircle
 10
708.7481276214257
 20
2545.13206825599
 30
0.0
 40
2.0
100
AcDbArc
 50
0.0
 51
180.0
  0
ARC
  5
8BC4
330
19
100
AcDbEntity
  8
0
100
AcDbCircle
 10
718.7481276214257
 20
2545.13206825599
 30
0.0
 40
2.0
100
AcDbArc
 50
0.0
 51
180.0
  0
ARC
  5
8BC5
330
19
100
AcDbEntity
  8
0
100
AcDbCircle
 10
728.7481276214257
 20
2545.13206825599
 30
0.0
 40
2.0
100
AcDbArc
 50
0.0
 51
180.0
  0
ARC
  5
8BC6
330
19
100
AcDbEntity
  8
0
100
AcDbCircle
 10
738.7481276214257
 20
2545.13206825599
 30
0.0
 40
2.0
100
AcDbArc
 50
0.0
 51
180.0
  0
ARC
  5
8BC7
330
19
100
AcDbEntity
  8
0
100
AcDbCircle
 10
748.7481276214257
 20
2545.13206825599
 30
0.0
 40
2.0
100
AcDbArc
 50
0.0
 51
180.0
  0
ARC
  5
8BC8
330
19
100
AcDbEntity
  8
0
100
AcDbCircle
 10
758.7481276214257
 20
2545.13206825599
 30
0.0
 40
2.0
100
AcDbArc
 50
0.0
 51
180.0
  0
ARC
  5
8BC9
330
19
100
AcDbEntity
  8
0
100
AcDbCircle
 10
768.7481276214257
 20
2545.13206825599
 30
0.0
 40
2.0
100
AcDbArc
 50
0.0
 51
180.0
  0
ARC
  5
8BCA
330
19
100
AcDbEntity
  8
0
100
AcDbCircle
 10
778.7481276214257
 20
2545.13206825599
 30
0.0
 40
2.0
100
AcDbArc
 50
0.0
 51
180.0
  0
ARC
  5
8BCB
330
19
100
AcDbEntity
  8
0
100
AcDbCircle
 10
788.7481276214257
 20
2545.13206825599
 30
0.0
 40
2.0
100
AcDbArc
 50
0.0
 51
180.0
  0
ARC
  5
8BCC
330
19
100
AcDbEntity
  8
0
100
AcDbCircle
 10
798.7481276214257
 20
2545.13206825599
 30
0.0
 40
2.0
100
AcDbArc
 50
0.0
 51
180.0
  0
ARC
  5
8BCD
330
19
100
AcDbEntity
  8
0
100
AcDbCircle
 10
808.7481276214257
 20
2545.13206825599
 30
0.0
 40
2.0
100
AcDbArc
 50
0.0
 51
180.0
  0
ARC
  5
8BCE
330
19
100
AcDbEntity
  8
0
100
AcDbCircle
 10
818.7481276214256
 20
2545.13206825599
 30
0.0
 40
2.0
100
AcDbArc
 50
0.0
 51
180.0
  0
ARC
  5
8BCF
330
19
100
AcDbEntity
  8
0
100
AcDbCircle
 10
828.7481276214258
 20
2545.13206825599
 30
0.0
 40
2.0
100
AcDbArc
 50
0.0
 51
180.0
  0
ARC
  5
8BD0
330
19
100
AcDbEntity
  8
0
100
AcDbCircle
 10
838.7481276214257
 20
2545.13206825599
 30
0.0
 40
2.0
100
AcDbArc
 50
0.0
 51
180.0
  0
ARC
  5
8BD1
330
19
100
AcDbEntity
  8
0
100
AcDbCircle
 10
848.7481276214257
 20
2545.13206825599
 30
0.0
 40
2.0
100
AcDbArc
 50
0.0
 51
180.0
  0
ARC
  5
8BD2
330
19
100
AcDbEntity
  8
0
100
AcDbCircle
 10
858.7481276214257
 20
2545.13206825599
 30
0.0
 40
2.0
100
AcDbArc
 50
0.0
 51
180.0
  0
ARC
  5
8BD3
330
19
100
AcDbEntity
  8
0
100
AcDbCircle
 10
868.7481276214256
 20
2545.13206825599
 30
0.0
 40
2.0
100
AcDbArc
 50
0.0
 51
180.0
  0
ARC
  5
8BD4
330
19
100
AcDbEntity
  8
0
100
AcDbCircle
 10
878.7481276214258
 20
2545.13206825599
 30
0.0
 40
2.0
100
AcDbArc
 50
0.0
 51
180.0
  0
ARC
  5
8BD5
330
19
100
AcDbEntity
  8
0
100
AcDbCircle
 10
888.7481276214257
 20
2545.13206825599
 30
0.0
 40
2.0
100
AcDbArc
 50
0.0
 51
180.0
  0
ARC
  5
8BD6
330
19
100
AcDbEntity
  8
0
100
AcDbCircle
 10
908.7481276214257
 20
2545.13206825599
 30
0.0
 40
2.0
100
AcDbArc
 50
0.0
 51
180.0
  0
ARC
  5
8BD7
330
19
100
AcDbEntity
  8
0
100
AcDbCircle
 10
898.7481276214257
 20
2545.13206825599
 30
0.0
 40
2.0
100
AcDbArc
 50
0.0
 51
180.0
  0
ARC
  5
8BD8
330
19
100
AcDbEntity
  8
0
100
AcDbCircle
 10
918.7481276214256
 20
2545.13206825599
 30
0.0
 40
2.0
100
AcDbArc
 50
0.0
 51
180.0
  0
ARC
  5
8BD9
330
19
100
AcDbEntity
  8
0
100
AcDbCircle
 10
578.7481276214257
 20
2645.13206825599
 30
0.0
 40
2.0
100
AcDbArc
 50
0.0
 51
180.0
  0
ARC
  5
8BDA
330
19
100
AcDbEntity
  8
0
100
AcDbCircle
 10
588.7481276214257
 20
2645.13206825599
 30
0.0
 40
2.0
100
AcDbArc
 50
0.0
 51
180.0
  0
ARC
  5
8BDB
330
19
100
AcDbEntity
  8
0
100
AcDbCircle
 10
558.7481276214257
 20
2645.13206825599
 30
0.0
 40
2.0
100
AcDbArc
 50
0.0
 51
180.0
  0
ARC
  5
8BDC
330
19
100
AcDbEntity
  8
0
100
AcDbCircle
 10
568.7481276214257
 20
2645.13206825599
 30
0.0
 40
2.0
100
AcDbArc
 50
0.0
 51
180.0
  0
ARC
  5
8BDD
330
19
100
AcDbEntity
  8
0
100
AcDbCircle
 10
578.7481276214257
 20
2619.13206825599
 30
0.0
 40
2.0
100
AcDbArc
 50
180.0
 51
0.0
  0
ARC
  5
8BDE
330
19
100
AcDbEntity
  8
0
100
AcDbCircle
 10
588.7481276214257
 20
2619.13206825599
 30
0.0
 40
2.0
100
AcDbArc
 50
180.0
 51
0.0
  0
ARC
  5
8BDF
330
19
100
AcDbEntity
  8
0
100
AcDbCircle
 10
558.7481276214257
 20
2619.13206825599
 30
0.0
 40
2.0
100
AcDbArc
 50
180.0
 51
0.0
  0
ARC
  5
8BE0
330
19
100
AcDbEntity
  8
0
100
AcDbCircle
 10
568.7481276214257
 20
2619.13206825599
 30
0.0
 40
2.0
100
AcDbArc
 50
180.0
 51
0.0
  0
LINE
  5
8BE1
330
19
100
AcDbEntity
  8
0
100
AcDbLine
 10
566.7481276214257
 20
2619.13206825599
 30
0.0
 11
566.7481276214257
 21
2645.13206825599
 31
0.0
  0
LINE
  5
8BE2
330
19
100
AcDbEntity
  8
0
100
AcDbLine
 10
570.7481276214257
 20
2645.13206825599
 30
0.0
 11
570.7481276214257
 21
2619.13206825599
 31
0.0
  0
LINE
  5
8BE3
330
19
100
AcDbEntity
  8
0
100
AcDbLine
 10
556.7481276214257
 20
2619.13206825599
 30
0.0
 11
556.7481276214257
 21
2645.13206825599
 31
0.0
  0
LINE
  5
8BE4
330
19
100
AcDbEntity
  8
0
100
AcDbLine
 10
560.7481276214257
 20
2645.13206825599
 30
0.0
 11
560.7481276214257
 21
2619.13206825599
 31
0.0
  0
LINE
  5
8BE5
330
19
100
AcDbEntity
  8
0
100
AcDbLine
 10
576.7481276214257
 20
2619.13206825599
 30
0.0
 11
576.7481276214257
 21
2645.13206825599
 31
0.0
  0
LINE
  5
8BE6
330
19
100
AcDbEntity
  8
0
100
AcDbLine
 10
580.7481276214257
 20
2645.13206825599
 30
0.0
 11
580.7481276214257
 21
2619.13206825599
 31
0.0
  0
LINE
  5
8BE7
330
19
100
AcDbEntity
  8
0
100
AcDbLine
 10
586.7481276214257
 20
2619.13206825599
 30
0.0
 11
586.7481276214257
 21
2645.13206825599
 31
0.0
  0
LINE
  5
8BE8
330
19
100
AcDbEntity
  8
0
100
AcDbLine
 10
590.7481276214257
 20
2645.13206825599
 30
0.0
 11
590.7481276214257
 21
2619.13206825599
 31
0.0
  0
LINE
  5
8BE9
330
19
100
AcDbEntity
  8
0
100
AcDbLine
 10
560.7481276214257
 20
2695.13206825599
 30
0.0
 11
560.7481276214257
 21
2669.13206825599
 31
0.0
  0
LINE
  5
8BEA
330
19
100
AcDbEntity
  8
0
100
AcDbLine
 10
556.7481276214257
 20
2669.13206825599
 30
0.0
 11
556.7481276214257
 21
2695.13206825599
 31
0.0
  0
LINE
  5
8BEB
330
19
100
AcDbEntity
  8
0
100
AcDbLine
 10
570.7481276214257
 20
2695.13206825599
 30
0.0
 11
570.7481276214257
 21
2669.13206825599
 31
0.0
  0
LINE
  5
8BEC
330
19
100
AcDbEntity
  8
0
100
AcDbLine
 10
566.7481276214257
 20
2669.13206825599
 30
0.0
 11
566.7481276214257
 21
2695.13206825599
 31
0.0
  0
LINE
  5
8BED
330
19
100
AcDbEntity
  8
0
100
AcDbLine
 10
576.7481276214257
 20
2669.13206825599
 30
0.0
 11
576.7481276214257
 21
2695.13206825599
 31
0.0
  0
LINE
  5
8BEE
330
19
100
AcDbEntity
  8
0
100
AcDbLine
 10
580.7481276214257
 20
2695.13206825599
 30
0.0
 11
580.7481276214257
 21
2669.13206825599
 31
0.0
  0
LINE
  5
8BEF
330
19
100
AcDbEntity
  8
0
100
AcDbLine
 10
590.7481276214257
 20
2695.13206825599
 30
0.0
 11
590.7481276214257
 21
2669.13206825599
 31
0.0
  0
LINE
  5
8BF0
330
19
100
AcDbEntity
  8
0
100
AcDbLine
 10
586.7481276214257
 20
2669.13206825599
 30
0.0
 11
586.7481276214257
 21
2695.13206825599
 31
0.0
  0
ARC
  5
8BF1
330
19
100
AcDbEntity
  8
0
100
AcDbCircle
 10
558.7481276214257
 20
2669.13206825599
 30
0.0
 40
2.0
100
AcDbArc
 50
180.0
 51
0.0
  0
ARC
  5
8BF2
330
19
100
AcDbEntity
  8
0
100
AcDbCircle
 10
568.7481276214257
 20
2669.13206825599
 30
0.0
 40
2.0
100
AcDbArc
 50
180.0
 51
0.0
  0
ARC
  5
8BF3
330
19
100
AcDbEntity
  8
0
100
AcDbCircle
 10
578.7481276214257
 20
2669.13206825599
 30
0.0
 40
2.0
100
AcDbArc
 50
180.0
 51
0.0
  0
ARC
  5
8BF4
330
19
100
AcDbEntity
  8
0
100
AcDbCircle
 10
588.7481276214257
 20
2669.13206825599
 30
0.0
 40
2.0
100
AcDbArc
 50
180.0
 51
0.0
  0
ARC
  5
8BF5
330
19
100
AcDbEntity
  8
0
100
AcDbCircle
 10
558.7481276214257
 20
2695.13206825599
 30
0.0
 40
2.0
100
AcDbArc
 50
0.0
 51
180.0
  0
ARC
  5
8BF6
330
19
100
AcDbEntity
  8
0
100
AcDbCircle
 10
568.7481276214257
 20
2695.13206825599
 30
0.0
 40
2.0
100
AcDbArc
 50
0.0
 51
180.0
  0
ARC
  5
8BF7
330
19
100
AcDbEntity
  8
0
100
AcDbCircle
 10
578.7481276214257
 20
2695.13206825599
 30
0.0
 40
2.0
100
AcDbArc
 50
0.0
 51
180.0
  0
ARC
  5
8BF8
330
19
100
AcDbEntity
  8
0
100
AcDbCircle
 10
588.7481276214257
 20
2695.13206825599
 30
0.0
 40
2.0
100
AcDbArc
 50
0.0
 51
180.0
  0
ARC
  5
8BF9
330
19
100
AcDbEntity
  8
0
100
AcDbCircle
 10
908.7481276214257
 20
2619.13206825599
 30
0.0
 40
2.0
100
AcDbArc
 50
180.0
 51
0.0
  0
ARC
  5
8BFA
330
19
100
AcDbEntity
  8
0
100
AcDbCircle
 10
908.7481276214257
 20
2669.13206825599
 30
0.0
 40
2.0
100
AcDbArc
 50
180.0
 51
0.0
  0
ARC
  5
8BFB
330
19
100
AcDbEntity
  8
0
100
AcDbCircle
 10
908.7481276214257
 20
2645.13206825599
 30
0.0
 40
2.0
100
AcDbArc
 50
0.0
 51
180.0
  0
ARC
  5
8BFC
330
19
100
AcDbEntity
  8
0
100
AcDbCircle
 10
908.7481276214262
 20
2695.13206825599
 30
0.0
 40
2.0
100
AcDbArc
 50
0.0
 51
180.0
  0
ARC
  5
8BFD
330
19
100
AcDbEntity
  8
0
100
AcDbCircle
 10
738.7481276214257
 20
2645.13206825599
 30
0.0
 40
2.0
100
AcDbArc
 50
0.0
 51
180.0
  0
ARC
  5
8BFE
330
19
100
AcDbEntity
  8
0
100
AcDbCircle
 10
748.7481276214257
 20
2645.13206825599
 30
0.0
 40
2.0
100
AcDbArc
 50
0.0
 51
180.0
  0
ARC
  5
8BFF
330
19
100
AcDbEntity
  8
0
100
AcDbCircle
 10
718.7481276214257
 20
2645.13206825599
 30
0.0
 40
2.0
100
AcDbArc
 50
0.0
 51
180.0
  0
ARC
  5
8C00
330
19
100
AcDbEntity
  8
0
100
AcDbCircle
 10
728.7481276214257
 20
2645.13206825599
 30
0.0
 40
2.0
100
AcDbArc
 50
0.0
 51
180.0
  0
ARC
  5
8C01
330
19
100
AcDbEntity
  8
0
100
AcDbCircle
 10
698.7481276214257
 20
2645.13206825599
 30
0.0
 40
2.0
100
AcDbArc
 50
0.0
 51
180.0
  0
ARC
  5
8C02
330
19
100
AcDbEntity
  8
0
100
AcDbCircle
 10
708.7481276214257
 20
2645.13206825599
 30
0.0
 40
2.0
100
AcDbArc
 50
0.0
 51
180.0
  0
ARC
  5
8C03
330
19
100
AcDbEntity
  8
0
100
AcDbCircle
 10
678.7481276214257
 20
2645.13206825599
 30
0.0
 40
2.0
100
AcDbArc
 50
0.0
 51
180.0
  0
ARC
  5
8C04
330
19
100
AcDbEntity
  8
0
100
AcDbCircle
 10
688.7481276214257
 20
2645.13206825599
 30
0.0
 40
2.0
100
AcDbArc
 50
0.0
 51
180.0
  0
ARC
  5
8C05
330
19
100
AcDbEntity
  8
0
100
AcDbCircle
 10
658.7481276214257
 20
2645.13206825599
 30
0.0
 40
2.0
100
AcDbArc
 50
0.0
 51
180.0
  0
ARC
  5
8C06
330
19
100
AcDbEntity
  8
0
100
AcDbCircle
 10
668.7481276214257
 20
2645.13206825599
 30
0.0
 40
2.0
100
AcDbArc
 50
0.0
 51
180.0
  0
ARC
  5
8C07
330
19
100
AcDbEntity
  8
0
100
AcDbCircle
 10
638.7481276214257
 20
2645.13206825599
 30
0.0
 40
2.0
100
AcDbArc
 50
0.0
 51
180.0
  0
ARC
  5
8C08
330
19
100
AcDbEntity
  8
0
100
AcDbCircle
 10
648.7481276214257
 20
2645.13206825599
 30
0.0
 40
2.0
100
AcDbArc
 50
0.0
 51
180.0
  0
ARC
  5
8C09
330
19
100
AcDbEntity
  8
0
100
AcDbCircle
 10
618.7481276214257
 20
2645.13206825599
 30
0.0
 40
2.0
100
AcDbArc
 50
0.0
 51
180.0
  0
ARC
  5
8C0A
330
19
100
AcDbEntity
  8
0
100
AcDbCircle
 10
628.7481276214257
 20
2645.13206825599
 30
0.0
 40
2.0
100
AcDbArc
 50
0.0
 51
180.0
  0
ARC
  5
8C0B
330
19
100
AcDbEntity
  8
0
100
AcDbCircle
 10
598.7481276214257
 20
2645.13206825599
 30
0.0
 40
2.0
100
AcDbArc
 50
0.0
 51
180.0
  0
ARC
  5
8C0C
330
19
100
AcDbEntity
  8
0
100
AcDbCircle
 10
608.7481276214257
 20
2645.13206825599
 30
0.0
 40
2.0
100
AcDbArc
 50
0.0
 51
180.0
  0
ARC
  5
8C0D
330
19
100
AcDbEntity
  8
0
100
AcDbCircle
 10
618.7481276214257
 20
2619.13206825599
 30
0.0
 40
2.0
100
AcDbArc
 50
180.0
 51
0.0
  0
ARC
  5
8C0E
330
19
100
AcDbEntity
  8
0
100
AcDbCircle
 10
628.7481276214257
 20
2619.13206825599
 30
0.0
 40
2.0
100
AcDbArc
 50
180.0
 51
0.0
  0
ARC
  5
8C0F
330
19
100
AcDbEntity
  8
0
100
AcDbCircle
 10
598.7481276214257
 20
2619.13206825599
 30
0.0
 40
2.0
100
AcDbArc
 50
180.0
 51
0.0
  0
ARC
  5
8C10
330
19
100
AcDbEntity
  8
0
100
AcDbCircle
 10
608.7481276214257
 20
2619.13206825599
 30
0.0
 40
2.0
100
AcDbArc
 50
180.0
 51
0.0
  0
LINE
  5
8C11
330
19
100
AcDbEntity
  8
0
100
AcDbLine
 10
606.7481276214257
 20
2619.13206825599
 30
0.0
 11
606.7481276214257
 21
2645.13206825599
 31
0.0
  0
LINE
  5
8C12
330
19
100
AcDbEntity
  8
0
100
AcDbLine
 10
610.7481276214257
 20
2645.13206825599
 30
0.0
 11
610.7481276214257
 21
2619.13206825599
 31
0.0
  0
LINE
  5
8C13
330
19
100
AcDbEntity
  8
0
100
AcDbLine
 10
596.7481276214257
 20
2619.13206825599
 30
0.0
 11
596.7481276214257
 21
2645.13206825599
 31
0.0
  0
LINE
  5
8C14
330
19
100
AcDbEntity
  8
0
100
AcDbLine
 10
600.7481276214257
 20
2645.13206825599
 30
0.0
 11
600.7481276214257
 21
2619.13206825599
 31
0.0
  0
LINE
  5
8C15
330
19
100
AcDbEntity
  8
0
100
AcDbLine
 10
616.7481276214257
 20
2619.13206825599
 30
0.0
 11
616.7481276214257
 21
2645.13206825599
 31
0.0
  0
LINE
  5
8C16
330
19
100
AcDbEntity
  8
0
100
AcDbLine
 10
626.7481276214257
 20
2619.13206825599
 30
0.0
 11
626.7481276214257
 21
2645.13206825599
 31
0.0
  0
LINE
  5
8C17
330
19
100
AcDbEntity
  8
0
100
AcDbLine
 10
630.7481276214257
 20
2645.13206825599
 30
0.0
 11
630.7481276214257
 21
2619.13206825599
 31
0.0
  0
LINE
  5
8C18
330
19
100
AcDbEntity
  8
0
100
AcDbLine
 10
620.7481276214257
 20
2645.13206825599
 30
0.0
 11
620.7481276214257
 21
2619.13206825599
 31
0.0
  0
ARC
  5
8C19
330
19
100
AcDbEntity
  8
0
100
AcDbCircle
 10
658.7481276214257
 20
2619.13206825599
 30
0.0
 40
2.0
100
AcDbArc
 50
180.0
 51
0.0
  0
ARC
  5
8C1A
330
19
100
AcDbEntity
  8
0
100
AcDbCircle
 10
668.7481276214257
 20
2619.13206825599
 30
0.0
 40
2.0
100
AcDbArc
 50
180.0
 51
0.0
  0
ARC
  5
8C1B
330
19
100
AcDbEntity
  8
0
100
AcDbCircle
 10
638.7481276214257
 20
2619.13206825599
 30
0.0
 40
2.0
100
AcDbArc
 50
180.0
 51
0.0
  0
ARC
  5
8C1C
330
19
100
AcDbEntity
  8
0
100
AcDbCircle
 10
648.7481276214257
 20
2619.13206825599
 30
0.0
 40
2.0
100
AcDbArc
 50
180.0
 51
0.0
  0
LINE
  5
8C1D
330
19
100
AcDbEntity
  8
0
100
AcDbLine
 10
636.7481276214257
 20
2619.13206825599
 30
0.0
 11
636.7481276214257
 21
2645.13206825599
 31
0.0
  0
LINE
  5
8C1E
330
19
100
AcDbEntity
  8
0
100
AcDbLine
 10
650.7481276214257
 20
2645.13206825599
 30
0.0
 11
650.7481276214257
 21
2619.13206825599
 31
0.0
  0
LINE
  5
8C1F
330
19
100
AcDbEntity
  8
0
100
AcDbLine
 10
640.7481276214257
 20
2645.13206825599
 30
0.0
 11
640.7481276214257
 21
2619.13206825599
 31
0.0
  0
LINE
  5
8C20
330
19
100
AcDbEntity
  8
0
100
AcDbLine
 10
646.7481276214257
 20
2619.13206825599
 30
0.0
 11
646.7481276214257
 21
2645.13206825599
 31
0.0
  0
LINE
  5
8C21
330
19
100
AcDbEntity
  8
0
100
AcDbLine
 10
656.7481276214257
 20
2619.13206825599
 30
0.0
 11
656.7481276214257
 21
2645.13206825599
 31
0.0
  0
LINE
  5
8C22
330
19
100
AcDbEntity
  8
0
100
AcDbLine
 10
660.7481276214257
 20
2645.13206825599
 30
0.0
 11
660.7481276214257
 21
2619.13206825599
 31
0.0
  0
LINE
  5
8C23
330
19
100
AcDbEntity
  8
0
100
AcDbLine
 10
666.7481276214257
 20
2619.13206825599
 30
0.0
 11
666.7481276214257
 21
2645.13206825599
 31
0.0
  0
LINE
  5
8C24
330
19
100
AcDbEntity
  8
0
100
AcDbLine
 10
670.7481276214257
 20
2645.13206825599
 30
0.0
 11
670.7481276214257
 21
2619.13206825599
 31
0.0
  0
ARC
  5
8C25
330
19
100
AcDbEntity
  8
0
100
AcDbCircle
 10
698.7481276214257
 20
2619.13206825599
 30
0.0
 40
2.0
100
AcDbArc
 50
180.0
 51
0.0
  0
ARC
  5
8C26
330
19
100
AcDbEntity
  8
0
100
AcDbCircle
 10
708.7481276214257
 20
2619.13206825599
 30
0.0
 40
2.0
100
AcDbArc
 50
180.0
 51
0.0
  0
ARC
  5
8C27
330
19
100
AcDbEntity
  8
0
100
AcDbCircle
 10
678.7481276214257
 20
2619.13206825599
 30
0.0
 40
2.0
100
AcDbArc
 50
180.0
 51
0.0
  0
ARC
  5
8C28
330
19
100
AcDbEntity
  8
0
100
AcDbCircle
 10
688.7481276214257
 20
2619.13206825599
 30
0.0
 40
2.0
100
AcDbArc
 50
180.0
 51
0.0
  0
LINE
  5
8C29
330
19
100
AcDbEntity
  8
0
100
AcDbLine
 10
686.7481276214257
 20
2619.13206825599
 30
0.0
 11
686.7481276214257
 21
2645.13206825599
 31
0.0
  0
LINE
  5
8C2A
330
19
100
AcDbEntity
  8
0
100
AcDbLine
 10
690.7481276214257
 20
2645.13206825599
 30
0.0
 11
690.7481276214257
 21
2619.13206825599
 31
0.0
  0
LINE
  5
8C2B
330
19
100
AcDbEntity
  8
0
100
AcDbLine
 10
676.7481276214257
 20
2619.13206825599
 30
0.0
 11
676.7481276214257
 21
2645.13206825599
 31
0.0
  0
LINE
  5
8C2C
330
19
100
AcDbEntity
  8
0
100
AcDbLine
 10
680.7481276214257
 20
2645.13206825599
 30
0.0
 11
680.7481276214257
 21
2619.13206825599
 31
0.0
  0
LINE
  5
8C2D
330
19
100
AcDbEntity
  8
0
100
AcDbLine
 10
696.7481276214257
 20
2619.13206825599
 30
0.0
 11
696.7481276214257
 21
2645.13206825599
 31
0.0
  0
LINE
  5
8C2E
330
19
100
AcDbEntity
  8
0
100
AcDbLine
 10
706.7481276214257
 20
2619.13206825599
 30
0.0
 11
706.7481276214257
 21
2645.13206825599
 31
0.0
  0
LINE
  5
8C2F
330
19
100
AcDbEntity
  8
0
100
AcDbLine
 10
710.7481276214257
 20
2645.13206825599
 30
0.0
 11
710.7481276214257
 21
2619.13206825599
 31
0.0
  0
LINE
  5
8C30
330
19
100
AcDbEntity
  8
0
100
AcDbLine
 10
700.7481276214257
 20
2645.13206825599
 30
0.0
 11
700.7481276214257
 21
2619.13206825599
 31
0.0
  0
ARC
  5
8C31
330
19
100
AcDbEntity
  8
0
100
AcDbCircle
 10
738.7481276214257
 20
2619.13206825599
 30
0.0
 40
2.0
100
AcDbArc
 50
180.0
 51
0.0
  0
ARC
  5
8C32
330
19
100
AcDbEntity
  8
0
100
AcDbCircle
 10
748.7481276214257
 20
2619.13206825599
 30
0.0
 40
2.0
100
AcDbArc
 50
180.0
 51
0.0
  0
ARC
  5
8C33
330
19
100
AcDbEntity
  8
0
100
AcDbCircle
 10
718.7481276214257
 20
2619.13206825599
 30
0.0
 40
2.0
100
AcDbArc
 50
180.0
 51
0.0
  0
ARC
  5
8C34
330
19
100
AcDbEntity
  8
0
100
AcDbCircle
 10
728.7481276214257
 20
2619.13206825599
 30
0.0
 40
2.0
100
AcDbArc
 50
180.0
 51
0.0
  0
LINE
  5
8C35
330
19
100
AcDbEntity
  8
0
100
AcDbLine
 10
716.7481276214257
 20
2619.13206825599
 30
0.0
 11
716.7481276214257
 21
2645.13206825599
 31
0.0
  0
LINE
  5
8C36
330
19
100
AcDbEntity
  8
0
100
AcDbLine
 10
720.7481276214257
 20
2645.13206825599
 30
0.0
 11
720.7481276214257
 21
2619.13206825599
 31
0.0
  0
LINE
  5
8C37
330
19
100
AcDbEntity
  8
0
100
AcDbLine
 10
730.7481276214257
 20
2645.13206825599
 30
0.0
 11
730.7481276214257
 21
2619.13206825599
 31
0.0
  0
LINE
  5
8C38
330
19
100
AcDbEntity
  8
0
100
AcDbLine
 10
726.7481276214257
 20
2619.13206825599
 30
0.0
 11
726.7481276214257
 21
2645.13206825599
 31
0.0
  0
LINE
  5
8C39
330
19
100
AcDbEntity
  8
0
100
AcDbLine
 10
746.7481276214257
 20
2619.13206825599
 30
0.0
 11
746.7481276214257
 21
2645.13206825599
 31
0.0
  0
LINE
  5
8C3A
330
19
100
AcDbEntity
  8
0
100
AcDbLine
 10
736.7481276214257
 20
2619.13206825599
 30
0.0
 11
736.7481276214257
 21
2645.13206825599
 31
0.0
  0
LINE
  5
8C3B
330
19
100
AcDbEntity
  8
0
100
AcDbLine
 10
740.7481276214257
 20
2645.13206825599
 30
0.0
 11
740.7481276214257
 21
2619.13206825599
 31
0.0
  0
LINE
  5
8C3C
330
19
100
AcDbEntity
  8
0
100
AcDbLine
 10
750.7481276214257
 20
2645.13206825599
 30
0.0
 11
750.7481276214257
 21
2619.13206825599
 31
0.0
  0
LINE
  5
8C3D
330
19
100
AcDbEntity
  8
0
100
AcDbLine
 10
600.7481276214257
 20
2695.13206825599
 30
0.0
 11
600.7481276214257
 21
2669.13206825599
 31
0.0
  0
LINE
  5
8C3E
330
19
100
AcDbEntity
  8
0
100
AcDbLine
 10
596.7481276214257
 20
2669.13206825599
 30
0.0
 11
596.7481276214257
 21
2695.13206825599
 31
0.0
  0
LINE
  5
8C3F
330
19
100
AcDbEntity
  8
0
100
AcDbLine
 10
610.7481276214257
 20
2695.13206825599
 30
0.0
 11
610.7481276214257
 21
2669.13206825599
 31
0.0
  0
LINE
  5
8C40
330
19
100
AcDbEntity
  8
0
100
AcDbLine
 10
606.7481276214257
 20
2669.13206825599
 30
0.0
 11
606.7481276214257
 21
2695.13206825599
 31
0.0
  0
LINE
  5
8C41
330
19
100
AcDbEntity
  8
0
100
AcDbLine
 10
616.7481276214257
 20
2669.13206825599
 30
0.0
 11
616.7481276214257
 21
2695.13206825599
 31
0.0
  0
LINE
  5
8C42
330
19
100
AcDbEntity
  8
0
100
AcDbLine
 10
620.7481276214257
 20
2695.13206825599
 30
0.0
 11
620.7481276214257
 21
2669.13206825599
 31
0.0
  0
LINE
  5
8C43
330
19
100
AcDbEntity
  8
0
100
AcDbLine
 10
630.7481276214257
 20
2695.13206825599
 30
0.0
 11
630.7481276214257
 21
2669.13206825599
 31
0.0
  0
LINE
  5
8C44
330
19
100
AcDbEntity
  8
0
100
AcDbLine
 10
626.7481276214257
 20
2669.13206825599
 30
0.0
 11
626.7481276214257
 21
2695.13206825599
 31
0.0
  0
ARC
  5
8C45
330
19
100
AcDbEntity
  8
0
100
AcDbCircle
 10
598.7481276214257
 20
2669.13206825599
 30
0.0
 40
2.0
100
AcDbArc
 50
180.0
 51
0.0
  0
ARC
  5
8C46
330
19
100
AcDbEntity
  8
0
100
AcDbCircle
 10
608.7481276214257
 20
2669.13206825599
 30
0.0
 40
2.0
100
AcDbArc
 50
180.0
 51
0.0
  0
ARC
  5
8C47
330
19
100
AcDbEntity
  8
0
100
AcDbCircle
 10
618.7481276214257
 20
2669.13206825599
 30
0.0
 40
2.0
100
AcDbArc
 50
180.0
 51
0.0
  0
ARC
  5
8C48
330
19
100
AcDbEntity
  8
0
100
AcDbCircle
 10
628.7481276214257
 20
2669.13206825599
 30
0.0
 40
2.0
100
AcDbArc
 50
180.0
 51
0.0
  0
ARC
  5
8C49
330
19
100
AcDbEntity
  8
0
100
AcDbCircle
 10
598.7481276214257
 20
2695.13206825599
 30
0.0
 40
2.0
100
AcDbArc
 50
0.0
 51
180.0
  0
ARC
  5
8C4A
330
19
100
AcDbEntity
  8
0
100
AcDbCircle
 10
608.7481276214257
 20
2695.13206825599
 30
0.0
 40
2.0
100
AcDbArc
 50
0.0
 51
180.0
  0
ARC
  5
8C4B
330
19
100
AcDbEntity
  8
0
100
AcDbCircle
 10
618.7481276214257
 20
2695.13206825599
 30
0.0
 40
2.0
100
AcDbArc
 50
0.0
 51
180.0
  0
ARC
  5
8C4C
330
19
100
AcDbEntity
  8
0
100
AcDbCircle
 10
628.7481276214257
 20
2695.13206825599
 30
0.0
 40
2.0
100
AcDbArc
 50
0.0
 51
180.0
  0
LINE
  5
8C4D
330
19
100
AcDbEntity
  8
0
100
AcDbLine
 10
656.7481276214257
 20
2669.13206825599
 30
0.0
 11
656.7481276214257
 21
2695.13206825599
 31
0.0
  0
LINE
  5
8C4E
330
19
100
AcDbEntity
  8
0
100
AcDbLine
 10
640.7481276214257
 20
2695.13206825599
 30
0.0
 11
640.7481276214257
 21
2669.13206825599
 31
0.0
  0
LINE
  5
8C4F
330
19
100
AcDbEntity
  8
0
100
AcDbLine
 10
636.7481276214257
 20
2669.13206825599
 30
0.0
 11
636.7481276214257
 21
2695.13206825599
 31
0.0
  0
LINE
  5
8C50
330
19
100
AcDbEntity
  8
0
100
AcDbLine
 10
650.7481276214257
 20
2695.13206825599
 30
0.0
 11
650.7481276214257
 21
2669.13206825599
 31
0.0
  0
LINE
  5
8C51
330
19
100
AcDbEntity
  8
0
100
AcDbLine
 10
646.7481276214257
 20
2669.13206825599
 30
0.0
 11
646.7481276214257
 21
2695.13206825599
 31
0.0
  0
LINE
  5
8C52
330
19
100
AcDbEntity
  8
0
100
AcDbLine
 10
660.7481276214257
 20
2695.13206825599
 30
0.0
 11
660.7481276214257
 21
2669.13206825599
 31
0.0
  0
LINE
  5
8C53
330
19
100
AcDbEntity
  8
0
100
AcDbLine
 10
670.7481276214257
 20
2695.13206825599
 30
0.0
 11
670.7481276214257
 21
2669.13206825599
 31
0.0
  0
LINE
  5
8C54
330
19
100
AcDbEntity
  8
0
100
AcDbLine
 10
666.7481276214257
 20
2669.13206825599
 30
0.0
 11
666.7481276214257
 21
2695.13206825599
 31
0.0
  0
ARC
  5
8C55
330
19
100
AcDbEntity
  8
0
100
AcDbCircle
 10
638.7481276214257
 20
2669.13206825599
 30
0.0
 40
2.0
100
AcDbArc
 50
180.0
 51
0.0
  0
ARC
  5
8C56
330
19
100
AcDbEntity
  8
0
100
AcDbCircle
 10
648.7481276214257
 20
2669.13206825599
 30
0.0
 40
2.0
100
AcDbArc
 50
180.0
 51
0.0
  0
ARC
  5
8C57
330
19
100
AcDbEntity
  8
0
100
AcDbCircle
 10
658.7481276214257
 20
2669.13206825599
 30
0.0
 40
2.0
100
AcDbArc
 50
180.0
 51
0.0
  0
ARC
  5
8C58
330
19
100
AcDbEntity
  8
0
100
AcDbCircle
 10
668.7481276214257
 20
2669.13206825599
 30
0.0
 40
2.0
100
AcDbArc
 50
180.0
 51
0.0
  0
ARC
  5
8C59
330
19
100
AcDbEntity
  8
0
100
AcDbCircle
 10
638.7481276214257
 20
2695.13206825599
 30
0.0
 40
2.0
100
AcDbArc
 50
0.0
 51
180.0
  0
ARC
  5
8C5A
330
19
100
AcDbEntity
  8
0
100
AcDbCircle
 10
648.7481276214257
 20
2695.13206825599
 30
0.0
 40
2.0
100
AcDbArc
 50
0.0
 51
180.0
  0
ARC
  5
8C5B
330
19
100
AcDbEntity
  8
0
100
AcDbCircle
 10
658.7481276214257
 20
2695.13206825599
 30
0.0
 40
2.0
100
AcDbArc
 50
0.0
 51
180.0
  0
ARC
  5
8C5C
330
19
100
AcDbEntity
  8
0
100
AcDbCircle
 10
668.7481276214257
 20
2695.13206825599
 30
0.0
 40
2.0
100
AcDbArc
 50
0.0
 51
180.0
  0
LINE
  5
8C5D
330
19
100
AcDbEntity
  8
0
100
AcDbLine
 10
680.7481276214257
 20
2695.13206825599
 30
0.0
 11
680.7481276214257
 21
2669.13206825599
 31
0.0
  0
LINE
  5
8C5E
330
19
100
AcDbEntity
  8
0
100
AcDbLine
 10
676.7481276214257
 20
2669.13206825599
 30
0.0
 11
676.7481276214257
 21
2695.13206825599
 31
0.0
  0
LINE
  5
8C5F
330
19
100
AcDbEntity
  8
0
100
AcDbLine
 10
690.7481276214257
 20
2695.13206825599
 30
0.0
 11
690.7481276214257
 21
2669.13206825599
 31
0.0
  0
LINE
  5
8C60
330
19
100
AcDbEntity
  8
0
100
AcDbLine
 10
686.7481276214257
 20
2669.13206825599
 30
0.0
 11
686.7481276214257
 21
2695.13206825599
 31
0.0
  0
LINE
  5
8C61
330
19
100
AcDbEntity
  8
0
100
AcDbLine
 10
696.7481276214257
 20
2669.13206825599
 30
0.0
 11
696.7481276214257
 21
2695.13206825599
 31
0.0
  0
LINE
  5
8C62
330
19
100
AcDbEntity
  8
0
100
AcDbLine
 10
700.7481276214257
 20
2695.13206825599
 30
0.0
 11
700.7481276214257
 21
2669.13206825599
 31
0.0
  0
LINE
  5
8C63
330
19
100
AcDbEntity
  8
0
100
AcDbLine
 10
710.7481276214257
 20
2695.13206825599
 30
0.0
 11
710.7481276214257
 21
2669.13206825599
 31
0.0
  0
LINE
  5
8C64
330
19
100
AcDbEntity
  8
0
100
AcDbLine
 10
706.7481276214257
 20
2669.13206825599
 30
0.0
 11
706.7481276214257
 21
2695.13206825599
 31
0.0
  0
ARC
  5
8C65
330
19
100
AcDbEntity
  8
0
100
AcDbCircle
 10
678.7481276214257
 20
2669.13206825599
 30
0.0
 40
2.0
100
AcDbArc
 50
180.0
 51
0.0
  0
ARC
  5
8C66
330
19
100
AcDbEntity
  8
0
100
AcDbCircle
 10
688.7481276214257
 20
2669.13206825599
 30
0.0
 40
2.0
100
AcDbArc
 50
180.0
 51
0.0
  0
ARC
  5
8C67
330
19
100
AcDbEntity
  8
0
100
AcDbCircle
 10
698.7481276214257
 20
2669.13206825599
 30
0.0
 40
2.0
100
AcDbArc
 50
180.0
 51
0.0
  0
ARC
  5
8C68
330
19
100
AcDbEntity
  8
0
100
AcDbCircle
 10
708.7481276214257
 20
2669.13206825599
 30
0.0
 40
2.0
100
AcDbArc
 50
180.0
 51
0.0
  0
ARC
  5
8C69
330
19
100
AcDbEntity
  8
0
100
AcDbCircle
 10
678.7481276214257
 20
2695.13206825599
 30
0.0
 40
2.0
100
AcDbArc
 50
0.0
 51
180.0
  0
ARC
  5
8C6A
330
19
100
AcDbEntity
  8
0
100
AcDbCircle
 10
688.7481276214257
 20
2695.13206825599
 30
0.0
 40
2.0
100
AcDbArc
 50
0.0
 51
180.0
  0
ARC
  5
8C6B
330
19
100
AcDbEntity
  8
0
100
AcDbCircle
 10
698.7481276214257
 20
2695.13206825599
 30
0.0
 40
2.0
100
AcDbArc
 50
0.0
 51
180.0
  0
ARC
  5
8C6C
330
19
100
AcDbEntity
  8
0
100
AcDbCircle
 10
708.7481276214257
 20
2695.13206825599
 30
0.0
 40
2.0
100
AcDbArc
 50
0.0
 51
180.0
  0
LINE
  5
8C6D
330
19
100
AcDbEntity
  8
0
100
AcDbLine
 10
730.7481276214257
 20
2695.13206825599
 30
0.0
 11
730.7481276214257
 21
2669.13206825599
 31
0.0
  0
LINE
  5
8C6E
330
19
100
AcDbEntity
  8
0
100
AcDbLine
 10
736.7481276214257
 20
2669.13206825599
 30
0.0
 11
736.7481276214257
 21
2695.13206825599
 31
0.0
  0
LINE
  5
8C6F
330
19
100
AcDbEntity
  8
0
100
AcDbLine
 10
720.7481276214257
 20
2695.13206825599
 30
0.0
 11
720.7481276214257
 21
2669.13206825599
 31
0.0
  0
LINE
  5
8C70
330
19
100
AcDbEntity
  8
0
100
AcDbLine
 10
716.7481276214257
 20
2669.13206825599
 30
0.0
 11
716.7481276214257
 21
2695.13206825599
 31
0.0
  0
LINE
  5
8C71
330
19
100
AcDbEntity
  8
0
100
AcDbLine
 10
726.7481276214257
 20
2669.13206825599
 30
0.0
 11
726.7481276214257
 21
2695.13206825599
 31
0.0
  0
LINE
  5
8C72
330
19
100
AcDbEntity
  8
0
100
AcDbLine
 10
740.7481276214257
 20
2695.13206825599
 30
0.0
 11
740.7481276214257
 21
2669.13206825599
 31
0.0
  0
LINE
  5
8C73
330
19
100
AcDbEntity
  8
0
100
AcDbLine
 10
750.7481276214257
 20
2695.13206825599
 30
0.0
 11
750.7481276214257
 21
2669.13206825599
 31
0.0
  0
LINE
  5
8C74
330
19
100
AcDbEntity
  8
0
100
AcDbLine
 10
746.7481276214257
 20
2669.13206825599
 30
0.0
 11
746.7481276214257
 21
2695.13206825599
 31
0.0
  0
ARC
  5
8C75
330
19
100
AcDbEntity
  8
0
100
AcDbCircle
 10
718.7481276214257
 20
2669.13206825599
 30
0.0
 40
2.0
100
AcDbArc
 50
180.0
 51
0.0
  0
ARC
  5
8C76
330
19
100
AcDbEntity
  8
0
100
AcDbCircle
 10
728.7481276214257
 20
2669.13206825599
 30
0.0
 40
2.0
100
AcDbArc
 50
180.0
 51
0.0
  0
ARC
  5
8C77
330
19
100
AcDbEntity
  8
0
100
AcDbCircle
 10
738.7481276214257
 20
2669.13206825599
 30
0.0
 40
2.0
100
AcDbArc
 50
180.0
 51
0.0
  0
ARC
  5
8C78
330
19
100
AcDbEntity
  8
0
100
AcDbCircle
 10
748.7481276214257
 20
2669.13206825599
 30
0.0
 40
2.0
100
AcDbArc
 50
180.0
 51
0.0
  0
ARC
  5
8C79
330
19
100
AcDbEntity
  8
0
100
AcDbCircle
 10
718.7481276214257
 20
2695.13206825599
 30
0.0
 40
2.0
100
AcDbArc
 50
0.0
 51
180.0
  0
ARC
  5
8C7A
330
19
100
AcDbEntity
  8
0
100
AcDbCircle
 10
728.7481276214257
 20
2695.13206825599
 30
0.0
 40
2.0
100
AcDbArc
 50
0.0
 51
180.0
  0
ARC
  5
8C7B
330
19
100
AcDbEntity
  8
0
100
AcDbCircle
 10
738.7481276214257
 20
2695.13206825599
 30
0.0
 40
2.0
100
AcDbArc
 50
0.0
 51
180.0
  0
ARC
  5
8C7C
330
19
100
AcDbEntity
  8
0
100
AcDbCircle
 10
748.7481276214257
 20
2695.13206825599
 30
0.0
 40
2.0
100
AcDbArc
 50
0.0
 51
180.0
  0
ARC
  5
8C7D
330
19
100
AcDbEntity
  8
0
100
AcDbCircle
 10
898.7481276214257
 20
2645.13206825599
 30
0.0
 40
2.0
100
AcDbArc
 50
0.0
 51
180.0
  0
ARC
  5
8C7E
330
19
100
AcDbEntity
  8
0
100
AcDbCircle
 10
878.7481276214258
 20
2645.13206825599
 30
0.0
 40
2.0
100
AcDbArc
 50
0.0
 51
180.0
  0
ARC
  5
8C7F
330
19
100
AcDbEntity
  8
0
100
AcDbCircle
 10
888.7481276214257
 20
2645.13206825599
 30
0.0
 40
2.0
100
AcDbArc
 50
0.0
 51
180.0
  0
ARC
  5
8C80
330
19
100
AcDbEntity
  8
0
100
AcDbCircle
 10
858.7481276214257
 20
2645.13206825599
 30
0.0
 40
2.0
100
AcDbArc
 50
0.0
 51
180.0
  0
ARC
  5
8C81
330
19
100
AcDbEntity
  8
0
100
AcDbCircle
 10
838.7481276214257
 20
2645.13206825599
 30
0.0
 40
2.0
100
AcDbArc
 50
0.0
 51
180.0
  0
ARC
  5
8C82
330
19
100
AcDbEntity
  8
0
100
AcDbCircle
 10
848.7481276214257
 20
2645.13206825599
 30
0.0
 40
2.0
100
AcDbArc
 50
0.0
 51
180.0
  0
ARC
  5
8C83
330
19
100
AcDbEntity
  8
0
100
AcDbCircle
 10
868.7481276214256
 20
2645.13206825599
 30
0.0
 40
2.0
100
AcDbArc
 50
0.0
 51
180.0
  0
ARC
  5
8C84
330
19
100
AcDbEntity
  8
0
100
AcDbCircle
 10
818.7481276214256
 20
2645.13206825599
 30
0.0
 40
2.0
100
AcDbArc
 50
0.0
 51
180.0
  0
ARC
  5
8C85
330
19
100
AcDbEntity
  8
0
100
AcDbCircle
 10
798.7481276214257
 20
2645.13206825599
 30
0.0
 40
2.0
100
AcDbArc
 50
0.0
 51
180.0
  0
ARC
  5
8C86
330
19
100
AcDbEntity
  8
0
100
AcDbCircle
 10
808.7481276214257
 20
2645.13206825599
 30
0.0
 40
2.0
100
AcDbArc
 50
0.0
 51
180.0
  0
ARC
  5
8C87
330
19
100
AcDbEntity
  8
0
100
AcDbCircle
 10
778.7481276214257
 20
2645.13206825599
 30
0.0
 40
2.0
100
AcDbArc
 50
0.0
 51
180.0
  0
ARC
  5
8C88
330
19
100
AcDbEntity
  8
0
100
AcDbCircle
 10
788.7481276214257
 20
2645.13206825599
 30
0.0
 40
2.0
100
AcDbArc
 50
0.0
 51
180.0
  0
ARC
  5
8C89
330
19
100
AcDbEntity
  8
0
100
AcDbCircle
 10
758.7481276214257
 20
2645.13206825599
 30
0.0
 40
2.0
100
AcDbArc
 50
0.0
 51
180.0
  0
ARC
  5
8C8A
330
19
100
AcDbEntity
  8
0
100
AcDbCircle
 10
768.7481276214257
 20
2645.13206825599
 30
0.0
 40
2.0
100
AcDbArc
 50
0.0
 51
180.0
  0
ARC
  5
8C8B
330
19
100
AcDbEntity
  8
0
100
AcDbCircle
 10
828.7481276214258
 20
2645.13206825599
 30
0.0
 40
2.0
100
AcDbArc
 50
0.0
 51
180.0
  0
ARC
  5
8C8C
330
19
100
AcDbEntity
  8
0
100
AcDbCircle
 10
828.7481276214258
 20
2619.13206825599
 30
0.0
 40
2.0
100
AcDbArc
 50
180.0
 51
0.0
  0
ARC
  5
8C8D
330
19
100
AcDbEntity
  8
0
100
AcDbCircle
 10
778.7481276214257
 20
2619.13206825599
 30
0.0
 40
2.0
100
AcDbArc
 50
180.0
 51
0.0
  0
ARC
  5
8C8E
330
19
100
AcDbEntity
  8
0
100
AcDbCircle
 10
788.7481276214257
 20
2619.13206825599
 30
0.0
 40
2.0
100
AcDbArc
 50
180.0
 51
0.0
  0
ARC
  5
8C8F
330
19
100
AcDbEntity
  8
0
100
AcDbCircle
 10
758.7481276214257
 20
2619.13206825599
 30
0.0
 40
2.0
100
AcDbArc
 50
180.0
 51
0.0
  0
ARC
  5
8C90
330
19
100
AcDbEntity
  8
0
100
AcDbCircle
 10
768.7481276214257
 20
2619.13206825599
 30
0.0
 40
2.0
100
AcDbArc
 50
180.0
 51
0.0
  0
LINE
  5
8C91
330
19
100
AcDbEntity
  8
0
100
AcDbLine
 10
766.7481276214257
 20
2619.13206825599
 30
0.0
 11
766.7481276214257
 21
2645.13206825599
 31
0.0
  0
LINE
  5
8C92
330
19
100
AcDbEntity
  8
0
100
AcDbLine
 10
770.7481276214257
 20
2645.13206825599
 30
0.0
 11
770.7481276214257
 21
2619.13206825599
 31
0.0
  0
LINE
  5
8C93
330
19
100
AcDbEntity
  8
0
100
AcDbLine
 10
760.7481276214257
 20
2645.13206825599
 30
0.0
 11
760.7481276214257
 21
2619.13206825599
 31
0.0
  0
LINE
  5
8C94
330
19
100
AcDbEntity
  8
0
100
AcDbLine
 10
756.7481276214257
 20
2619.13206825599
 30
0.0
 11
756.7481276214257
 21
2645.13206825599
 31
0.0
  0
LINE
  5
8C95
330
19
100
AcDbEntity
  8
0
100
AcDbLine
 10
776.7481276214257
 20
2619.13206825599
 30
0.0
 11
776.7481276214257
 21
2645.13206825599
 31
0.0
  0
LINE
  5
8C96
330
19
100
AcDbEntity
  8
0
100
AcDbLine
 10
786.7481276214257
 20
2619.13206825599
 30
0.0
 11
786.7481276214257
 21
2645.13206825599
 31
0.0
  0
LINE
  5
8C97
330
19
100
AcDbEntity
  8
0
100
AcDbLine
 10
790.7481276214257
 20
2645.13206825599
 30
0.0
 11
790.7481276214257
 21
2619.13206825599
 31
0.0
  0
LINE
  5
8C98
330
19
100
AcDbEntity
  8
0
100
AcDbLine
 10
780.7481276214257
 20
2645.13206825599
 30
0.0
 11
780.7481276214257
 21
2619.13206825599
 31
0.0
  0
ARC
  5
8C99
330
19
100
AcDbEntity
  8
0
100
AcDbCircle
 10
818.7481276214256
 20
2619.13206825599
 30
0.0
 40
2.0
100
AcDbArc
 50
180.0
 51
0.0
  0
ARC
  5
8C9A
330
19
100
AcDbEntity
  8
0
100
AcDbCircle
 10
798.7481276214257
 20
2619.13206825599
 30
0.0
 40
2.0
100
AcDbArc
 50
180.0
 51
0.0
  0
ARC
  5
8C9B
330
19
100
AcDbEntity
  8
0
100
AcDbCircle
 10
808.7481276214257
 20
2619.13206825599
 30
0.0
 40
2.0
100
AcDbArc
 50
180.0
 51
0.0
  0
LINE
  5
8C9C
330
19
100
AcDbEntity
  8
0
100
AcDbLine
 10
796.7481276214257
 20
2619.13206825599
 30
0.0
 11
796.7481276214257
 21
2645.13206825599
 31
0.0
  0
LINE
  5
8C9D
330
19
100
AcDbEntity
  8
0
100
AcDbLine
 10
800.7481276214257
 20
2645.13206825599
 30
0.0
 11
800.7481276214257
 21
2619.13206825599
 31
0.0
  0
LINE
  5
8C9E
330
19
100
AcDbEntity
  8
0
100
AcDbLine
 10
806.7481276214257
 20
2619.13206825599
 30
0.0
 11
806.7481276214257
 21
2645.13206825599
 31
0.0
  0
LINE
  5
8C9F
330
19
100
AcDbEntity
  8
0
100
AcDbLine
 10
810.7481276214256
 20
2645.13206825599
 30
0.0
 11
810.7481276214256
 21
2619.13206825599
 31
0.0
  0
LINE
  5
8CA0
330
19
100
AcDbEntity
  8
0
100
AcDbLine
 10
826.7481276214256
 20
2619.13206825599
 30
0.0
 11
826.7481276214256
 21
2645.13206825599
 31
0.0
  0
LINE
  5
8CA1
330
19
100
AcDbEntity
  8
0
100
AcDbLine
 10
816.7481276214257
 20
2619.13206825599
 30
0.0
 11
816.7481276214257
 21
2645.13206825599
 31
0.0
  0
LINE
  5
8CA2
330
19
100
AcDbEntity
  8
0
100
AcDbLine
 10
820.7481276214258
 20
2645.13206825599
 30
0.0
 11
820.7481276214258
 21
2619.13206825599
 31
0.0
  0
ARC
  5
8CA3
330
19
100
AcDbEntity
  8
0
100
AcDbCircle
 10
868.7481276214256
 20
2619.13206825599
 30
0.0
 40
2.0
100
AcDbArc
 50
180.0
 51
0.0
  0
ARC
  5
8CA4
330
19
100
AcDbEntity
  8
0
100
AcDbCircle
 10
858.7481276214257
 20
2619.13206825599
 30
0.0
 40
2.0
100
AcDbArc
 50
180.0
 51
0.0
  0
ARC
  5
8CA5
330
19
100
AcDbEntity
  8
0
100
AcDbCircle
 10
838.7481276214257
 20
2619.13206825599
 30
0.0
 40
2.0
100
AcDbArc
 50
180.0
 51
0.0
  0
ARC
  5
8CA6
330
19
100
AcDbEntity
  8
0
100
AcDbCircle
 10
848.7481276214257
 20
2619.13206825599
 30
0.0
 40
2.0
100
AcDbArc
 50
180.0
 51
0.0
  0
LINE
  5
8CA7
330
19
100
AcDbEntity
  8
0
100
AcDbLine
 10
830.7481276214257
 20
2645.13206825599
 30
0.0
 11
830.7481276214257
 21
2619.13206825599
 31
0.0
  0
LINE
  5
8CA8
330
19
100
AcDbEntity
  8
0
100
AcDbLine
 10
846.7481276214257
 20
2619.13206825599
 30
0.0
 11
846.7481276214257
 21
2645.13206825599
 31
0.0
  0
LINE
  5
8CA9
330
19
100
AcDbEntity
  8
0
100
AcDbLine
 10
840.7481276214257
 20
2645.13206825599
 30
0.0
 11
840.7481276214257
 21
2619.13206825599
 31
0.0
  0
LINE
  5
8CAA
330
19
100
AcDbEntity
  8
0
100
AcDbLine
 10
836.7481276214258
 20
2619.13206825599
 30
0.0
 11
836.7481276214258
 21
2645.13206825599
 31
0.0
  0
LINE
  5
8CAB
330
19
100
AcDbEntity
  8
0
100
AcDbLine
 10
850.7481276214257
 20
2645.13206825599
 30
0.0
 11
850.7481276214257
 21
2619.13206825599
 31
0.0
  0
LINE
  5
8CAC
330
19
100
AcDbEntity
  8
0
100
AcDbLine
 10
856.7481276214257
 20
2619.13206825599
 30
0.0
 11
856.7481276214257
 21
2645.13206825599
 31
0.0
  0
LINE
  5
8CAD
330
19
100
AcDbEntity
  8
0
100
AcDbLine
 10
860.7481276214256
 20
2645.13206825599
 30
0.0
 11
860.7481276214256
 21
2619.13206825599
 31
0.0
  0
LINE
  5
8CAE
330
19
100
AcDbEntity
  8
0
100
AcDbLine
 10
866.7481276214257
 20
2619.13206825599
 30
0.0
 11
866.7481276214257
 21
2645.13206825599
 31
0.0
  0
ARC
  5
8CAF
330
19
100
AcDbEntity
  8
0
100
AcDbCircle
 10
898.7481276214257
 20
2619.13206825599
 30
0.0
 40
2.0
100
AcDbArc
 50
180.0
 51
0.0
  0
ARC
  5
8CB0
330
19
100
AcDbEntity
  8
0
100
AcDbCircle
 10
878.7481276214258
 20
2619.13206825599
 30
0.0
 40
2.0
100
AcDbArc
 50
180.0
 51
0.0
  0
ARC
  5
8CB1
330
19
100
AcDbEntity
  8
0
100
AcDbCircle
 10
888.7481276214257
 20
2619.13206825599
 30
0.0
 40
2.0
100
AcDbArc
 50
180.0
 51
0.0
  0
LINE
  5
8CB2
330
19
100
AcDbEntity
  8
0
100
AcDbLine
 10
876.7481276214256
 20
2619.13206825599
 30
0.0
 11
876.7481276214256
 21
2645.13206825599
 31
0.0
  0
LINE
  5
8CB3
330
19
100
AcDbEntity
  8
0
100
AcDbLine
 10
880.7481276214257
 20
2645.13206825599
 30
0.0
 11
880.7481276214257
 21
2619.13206825599
 31
0.0
  0
LINE
  5
8CB4
330
19
100
AcDbEntity
  8
0
100
AcDbLine
 10
870.7481276214258
 20
2645.13206825599
 30
0.0
 11
870.7481276214258
 21
2619.13206825599
 31
0.0
  0
LINE
  5
8CB5
330
19
100
AcDbEntity
  8
0
100
AcDbLine
 10
886.7481276214258
 20
2619.13206825599
 30
0.0
 11
886.7481276214258
 21
2645.13206825599
 31
0.0
  0
LINE
  5
8CB6
330
19
100
AcDbEntity
  8
0
100
AcDbLine
 10
906.7481276214257
 20
2619.13206825599
 30
0.0
 11
906.7481276214257
 21
2645.13206825599
 31
0.0
  0
LINE
  5
8CB7
330
19
100
AcDbEntity
  8
0
100
AcDbLine
 10
896.7481276214257
 20
2619.13206825599
 30
0.0
 11
896.7481276214257
 21
2645.13206825599
 31
0.0
  0
LINE
  5
8CB8
330
19
100
AcDbEntity
  8
0
100
AcDbLine
 10
900.7481276214257
 20
2645.13206825599
 30
0.0
 11
900.7481276214257
 21
2619.13206825599
 31
0.0
  0
LINE
  5
8CB9
330
19
100
AcDbEntity
  8
0
100
AcDbLine
 10
890.7481276214257
 20
2645.13206825599
 30
0.0
 11
890.7481276214257
 21
2619.13206825599
 31
0.0
  0
ARC
  5
8CBA
330
19
100
AcDbEntity
  8
0
100
AcDbCircle
 10
828.7481276214258
 20
2669.13206825599
 30
0.0
 40
2.0
100
AcDbArc
 50
180.0
 51
0.0
  0
ARC
  5
8CBB
330
19
100
AcDbEntity
  8
0
100
AcDbCircle
 10
828.7481276214258
 20
2695.13206825599
 30
0.0
 40
2.0
100
AcDbArc
 50
0.0
 51
180.0
  0
LINE
  5
8CBC
330
19
100
AcDbEntity
  8
0
100
AcDbLine
 10
760.7481276214257
 20
2695.13206825599
 30
0.0
 11
760.7481276214257
 21
2669.13206825599
 31
0.0
  0
LINE
  5
8CBD
330
19
100
AcDbEntity
  8
0
100
AcDbLine
 10
756.7481276214257
 20
2669.13206825599
 30
0.0
 11
756.7481276214257
 21
2695.13206825599
 31
0.0
  0
LINE
  5
8CBE
330
19
100
AcDbEntity
  8
0
100
AcDbLine
 10
770.7481276214257
 20
2695.13206825599
 30
0.0
 11
770.7481276214257
 21
2669.13206825599
 31
0.0
  0
LINE
  5
8CBF
330
19
100
AcDbEntity
  8
0
100
AcDbLine
 10
766.7481276214257
 20
2669.13206825599
 30
0.0
 11
766.7481276214257
 21
2695.13206825599
 31
0.0
  0
LINE
  5
8CC0
330
19
100
AcDbEntity
  8
0
100
AcDbLine
 10
776.7481276214257
 20
2669.13206825599
 30
0.0
 11
776.7481276214257
 21
2695.13206825599
 31
0.0
  0
LINE
  5
8CC1
330
19
100
AcDbEntity
  8
0
100
AcDbLine
 10
780.7481276214257
 20
2695.13206825599
 30
0.0
 11
780.7481276214257
 21
2669.13206825599
 31
0.0
  0
LINE
  5
8CC2
330
19
100
AcDbEntity
  8
0
100
AcDbLine
 10
790.7481276214257
 20
2695.13206825599
 30
0.0
 11
790.7481276214257
 21
2669.13206825599
 31
0.0
  0
LINE
  5
8CC3
330
19
100
AcDbEntity
  8
0
100
AcDbLine
 10
786.7481276214257
 20
2669.13206825599
 30
0.0
 11
786.7481276214257
 21
2695.13206825599
 31
0.0
  0
ARC
  5
8CC4
330
19
100
AcDbEntity
  8
0
100
AcDbCircle
 10
758.7481276214257
 20
2669.13206825599
 30
0.0
 40
2.0
100
AcDbArc
 50
180.0
 51
0.0
  0
ARC
  5
8CC5
330
19
100
AcDbEntity
  8
0
100
AcDbCircle
 10
768.7481276214257
 20
2669.13206825599
 30
0.0
 40
2.0
100
AcDbArc
 50
180.0
 51
0.0
  0
ARC
  5
8CC6
330
19
100
AcDbEntity
  8
0
100
AcDbCircle
 10
778.7481276214257
 20
2669.13206825599
 30
0.0
 40
2.0
100
AcDbArc
 50
180.0
 51
0.0
  0
ARC
  5
8CC7
330
19
100
AcDbEntity
  8
0
100
AcDbCircle
 10
788.7481276214257
 20
2669.13206825599
 30
0.0
 40
2.0
100
AcDbArc
 50
180.0
 51
0.0
  0
ARC
  5
8CC8
330
19
100
AcDbEntity
  8
0
100
AcDbCircle
 10
758.7481276214257
 20
2695.13206825599
 30
0.0
 40
2.0
100
AcDbArc
 50
0.0
 51
180.0
  0
ARC
  5
8CC9
330
19
100
AcDbEntity
  8
0
100
AcDbCircle
 10
768.7481276214257
 20
2695.13206825599
 30
0.0
 40
2.0
100
AcDbArc
 50
0.0
 51
180.0
  0
ARC
  5
8CCA
330
19
100
AcDbEntity
  8
0
100
AcDbCircle
 10
778.7481276214257
 20
2695.13206825599
 30
0.0
 40
2.0
100
AcDbArc
 50
0.0
 51
180.0
  0
ARC
  5
8CCB
330
19
100
AcDbEntity
  8
0
100
AcDbCircle
 10
788.7481276214257
 20
2695.13206825599
 30
0.0
 40
2.0
100
AcDbArc
 50
0.0
 51
180.0
  0
LINE
  5
8CCC
330
19
100
AcDbEntity
  8
0
100
AcDbLine
 10
800.7481276214257
 20
2695.13206825599
 30
0.0
 11
800.7481276214257
 21
2669.13206825599
 31
0.0
  0
LINE
  5
8CCD
330
19
100
AcDbEntity
  8
0
100
AcDbLine
 10
796.7481276214257
 20
2669.13206825599
 30
0.0
 11
796.7481276214257
 21
2695.13206825599
 31
0.0
  0
LINE
  5
8CCE
330
19
100
AcDbEntity
  8
0
100
AcDbLine
 10
810.7481276214256
 20
2695.13206825599
 30
0.0
 11
810.7481276214256
 21
2669.13206825599
 31
0.0
  0
LINE
  5
8CCF
330
19
100
AcDbEntity
  8
0
100
AcDbLine
 10
806.7481276214257
 20
2669.13206825599
 30
0.0
 11
806.7481276214257
 21
2695.13206825599
 31
0.0
  0
LINE
  5
8CD0
330
19
100
AcDbEntity
  8
0
100
AcDbLine
 10
816.7481276214257
 20
2669.13206825599
 30
0.0
 11
816.7481276214257
 21
2695.13206825599
 31
0.0
  0
LINE
  5
8CD1
330
19
100
AcDbEntity
  8
0
100
AcDbLine
 10
820.7481276214258
 20
2695.13206825599
 30
0.0
 11
820.7481276214258
 21
2669.13206825599
 31
0.0
  0
LINE
  5
8CD2
330
19
100
AcDbEntity
  8
0
100
AcDbLine
 10
826.7481276214256
 20
2669.13206825599
 30
0.0
 11
826.7481276214256
 21
2695.13206825599
 31
0.0
  0
ARC
  5
8CD3
330
19
100
AcDbEntity
  8
0
100
AcDbCircle
 10
798.7481276214257
 20
2669.13206825599
 30
0.0
 40
2.0
100
AcDbArc
 50
180.0
 51
0.0
  0
ARC
  5
8CD4
330
19
100
AcDbEntity
  8
0
100
AcDbCircle
 10
808.7481276214257
 20
2669.13206825599
 30
0.0
 40
2.0
100
AcDbArc
 50
180.0
 51
0.0
  0
ARC
  5
8CD5
330
19
100
AcDbEntity
  8
0
100
AcDbCircle
 10
818.7481276214256
 20
2669.13206825599
 30
0.0
 40
2.0
100
AcDbArc
 50
180.0
 51
0.0
  0
ARC
  5
8CD6
330
19
100
AcDbEntity
  8
0
100
AcDbCircle
 10
798.7481276214257
 20
2695.13206825599
 30
0.0
 40
2.0
100
AcDbArc
 50
0.0
 51
180.0
  0
ARC
  5
8CD7
330
19
100
AcDbEntity
  8
0
100
AcDbCircle
 10
808.7481276214257
 20
2695.13206825599
 30
0.0
 40
2.0
100
AcDbArc
 50
0.0
 51
180.0
  0
ARC
  5
8CD8
330
19
100
AcDbEntity
  8
0
100
AcDbCircle
 10
818.7481276214256
 20
2695.13206825599
 30
0.0
 40
2.0
100
AcDbArc
 50
0.0
 51
180.0
  0
ARC
  5
8CD9
330
19
100
AcDbEntity
  8
0
100
AcDbCircle
 10
868.7481276214262
 20
2695.13206825599
 30
0.0
 40
2.0
100
AcDbArc
 50
0.0
 51
180.0
  0
ARC
  5
8CDA
330
19
100
AcDbEntity
  8
0
100
AcDbCircle
 10
868.7481276214256
 20
2669.13206825599
 30
0.0
 40
2.0
100
AcDbArc
 50
180.0
 51
0.0
  0
LINE
  5
8CDB
330
19
100
AcDbEntity
  8
0
100
AcDbLine
 10
840.7481276214257
 20
2695.13206825599
 30
0.0
 11
840.7481276214257
 21
2669.13206825599
 31
0.0
  0
LINE
  5
8CDC
330
19
100
AcDbEntity
  8
0
100
AcDbLine
 10
850.7481276214257
 20
2695.13206825599
 30
0.0
 11
850.7481276214257
 21
2669.13206825599
 31
0.0
  0
LINE
  5
8CDD
330
19
100
AcDbEntity
  8
0
100
AcDbLine
 10
846.7481276214257
 20
2669.13206825599
 30
0.0
 11
846.7481276214257
 21
2695.13206825599
 31
0.0
  0
LINE
  5
8CDE
330
19
100
AcDbEntity
  8
0
100
AcDbLine
 10
830.7481276214257
 20
2695.13206825599
 30
0.0
 11
830.7481276214257
 21
2669.13206825599
 31
0.0
  0
LINE
  5
8CDF
330
19
100
AcDbEntity
  8
0
100
AcDbLine
 10
836.7481276214258
 20
2669.13206825599
 30
0.0
 11
836.7481276214258
 21
2695.13206825599
 31
0.0
  0
LINE
  5
8CE0
330
19
100
AcDbEntity
  8
0
100
AcDbLine
 10
860.7481276214256
 20
2695.13206825599
 30
0.0
 11
860.7481276214256
 21
2669.13206825599
 31
0.0
  0
LINE
  5
8CE1
330
19
100
AcDbEntity
  8
0
100
AcDbLine
 10
856.7481276214257
 20
2669.13206825599
 30
0.0
 11
856.7481276214257
 21
2695.13206825599
 31
0.0
  0
LINE
  5
8CE2
330
19
100
AcDbEntity
  8
0
100
AcDbLine
 10
866.7481276214257
 20
2669.13206825599
 30
0.0
 11
866.7481276214257
 21
2695.13206825599
 31
0.0
  0
ARC
  5
8CE3
330
19
100
AcDbEntity
  8
0
100
AcDbCircle
 10
848.7481276214257
 20
2669.13206825599
 30
0.0
 40
2.0
100
AcDbArc
 50
180.0
 51
0.0
  0
ARC
  5
8CE4
330
19
100
AcDbEntity
  8
0
100
AcDbCircle
 10
838.7481276214257
 20
2669.13206825599
 30
0.0
 40
2.0
100
AcDbArc
 50
180.0
 51
0.0
  0
ARC
  5
8CE5
330
19
100
AcDbEntity
  8
0
100
AcDbCircle
 10
858.7481276214257
 20
2669.13206825599
 30
0.0
 40
2.0
100
AcDbArc
 50
180.0
 51
0.0
  0
ARC
  5
8CE6
330
19
100
AcDbEntity
  8
0
100
AcDbCircle
 10
848.7481276214257
 20
2695.13206825599
 30
0.0
 40
2.0
100
AcDbArc
 50
0.0
 51
180.0
  0
ARC
  5
8CE7
330
19
100
AcDbEntity
  8
0
100
AcDbCircle
 10
838.7481276214257
 20
2695.13206825599
 30
0.0
 40
2.0
100
AcDbArc
 50
0.0
 51
180.0
  0
ARC
  5
8CE8
330
19
100
AcDbEntity
  8
0
100
AcDbCircle
 10
858.7481276214262
 20
2695.13206825599
 30
0.0
 40
2.0
100
AcDbArc
 50
0.0
 51
180.0
  0
LINE
  5
8CE9
330
19
100
AcDbEntity
  8
0
100
AcDbLine
 10
870.7481276214258
 20
2695.13206825599
 30
0.0
 11
870.7481276214258
 21
2669.13206825599
 31
0.0
  0
LINE
  5
8CEA
330
19
100
AcDbEntity
  8
0
100
AcDbLine
 10
880.7481276214257
 20
2695.13206825599
 30
0.0
 11
880.7481276214257
 21
2669.13206825599
 31
0.0
  0
LINE
  5
8CEB
330
19
100
AcDbEntity
  8
0
100
AcDbLine
 10
876.7481276214256
 20
2669.13206825599
 30
0.0
 11
876.7481276214256
 21
2695.13206825599
 31
0.0
  0
LINE
  5
8CEC
330
19
100
AcDbEntity
  8
0
100
AcDbLine
 10
890.7481276214257
 20
2695.13206825599
 30
0.0
 11
890.7481276214257
 21
2669.13206825599
 31
0.0
  0
LINE
  5
8CED
330
19
100
AcDbEntity
  8
0
100
AcDbLine
 10
886.7481276214258
 20
2669.13206825599
 30
0.0
 11
886.7481276214258
 21
2695.13206825599
 31
0.0
  0
LINE
  5
8CEE
330
19
100
AcDbEntity
  8
0
100
AcDbLine
 10
900.7481276214257
 20
2695.13206825599
 30
0.0
 11
900.7481276214257
 21
2669.13206825599
 31
0.0
  0
LINE
  5
8CEF
330
19
100
AcDbEntity
  8
0
100
AcDbLine
 10
896.7481276214257
 20
2669.13206825599
 30
0.0
 11
896.7481276214257
 21
2695.13206825599
 31
0.0
  0
LINE
  5
8CF0
330
19
100
AcDbEntity
  8
0
100
AcDbLine
 10
906.7481276214257
 20
2669.13206825599
 30
0.0
 11
906.7481276214257
 21
2695.13206825599
 31
0.0
  0
ARC
  5
8CF1
330
19
100
AcDbEntity
  8
0
100
AcDbCircle
 10
888.7481276214257
 20
2669.13206825599
 30
0.0
 40
2.0
100
AcDbArc
 50
180.0
 51
0.0
  0
ARC
  5
8CF2
330
19
100
AcDbEntity
  8
0
100
AcDbCircle
 10
878.7481276214258
 20
2669.13206825599
 30
0.0
 40
2.0
100
AcDbArc
 50
180.0
 51
0.0
  0
ARC
  5
8CF3
330
19
100
AcDbEntity
  8
0
100
AcDbCircle
 10
898.7481276214257
 20
2669.13206825599
 30
0.0
 40
2.0
100
AcDbArc
 50
180.0
 51
0.0
  0
ARC
  5
8CF4
330
19
100
AcDbEntity
  8
0
100
AcDbCircle
 10
888.7481276214261
 20
2695.13206825599
 30
0.0
 40
2.0
100
AcDbArc
 50
0.0
 51
180.0
  0
ARC
  5
8CF5
330
19
100
AcDbEntity
  8
0
100
AcDbCircle
 10
878.7481276214261
 20
2695.13206825599
 30
0.0
 40
2.0
100
AcDbArc
 50
0.0
 51
180.0
  0
ARC
  5
8CF6
330
19
100
AcDbEntity
  8
0
100
AcDbCircle
 10
898.7481276214262
 20
2695.13206825599
 30
0.0
 40
2.0
100
AcDbArc
 50
0.0
 51
180.0
  0
ARC
  5
8CF7
330
19
100
AcDbEntity
  8
0
100
AcDbCircle
 10
918.7481276214256
 20
2645.13206825599
 30
0.0
 40
2.0
100
AcDbArc
 50
0.0
 51
180.0
  0
ARC
  5
8CF8
330
19
100
AcDbEntity
  8
0
100
AcDbCircle
 10
918.7481276214256
 20
2619.13206825599
 30
0.0
 40
2.0
100
AcDbArc
 50
180.0
 51
0.0
  0
LINE
  5
8CF9
330
19
100
AcDbEntity
  8
0
100
AcDbLine
 10
910.7481276214256
 20
2645.13206825599
 30
0.0
 11
910.7481276214256
 21
2619.13206825599
 31
0.0
  0
LINE
  5
8CFA
330
19
100
AcDbEntity
  8
0
100
AcDbLine
 10
920.7481276214258
 20
2645.13206825599
 30
0.0
 11
920.7481276214258
 21
2619.13206825599
 31
0.0
  0
LINE
  5
8CFB
330
19
100
AcDbEntity
  8
0
100
AcDbLine
 10
916.7481276214257
 20
2619.13206825599
 30
0.0
 11
916.7481276214257
 21
2645.13206825599
 31
0.0
  0
LINE
  5
8CFC
330
19
100
AcDbEntity
  8
0
100
AcDbLine
 10
910.7481276214256
 20
2695.13206825599
 30
0.0
 11
910.7481276214256
 21
2669.13206825599
 31
0.0
  0
LINE
  5
8CFD
330
19
100
AcDbEntity
  8
0
100
AcDbLine
 10
916.7481276214257
 20
2669.13206825599
 30
0.0
 11
916.7481276214257
 21
2695.13206825599
 31
0.0
  0
LINE
  5
8CFE
330
19
100
AcDbEntity
  8
0
100
AcDbLine
 10
920.7481276214258
 20
2695.13206825599
 30
0.0
 11
920.7481276214258
 21
2669.13206825599
 31
0.0
  0
ARC
  5
8CFF
330
19
100
AcDbEntity
  8
0
100
AcDbCircle
 10
918.7481276214256
 20
2669.13206825599
 30
0.0
 40
2.0
100
AcDbArc
 50
180.0
 51
0.0
  0
ARC
  5
8D00
330
19
100
AcDbEntity
  8
0
100
AcDbCircle
 10
918.7481276214262
 20
2695.13206825599
 30
0.0
 40
2.0
100
AcDbArc
 50
0.0
 51
180.0
  0
TEXT
  5
90D5
330
19
100
AcDbEntity
  8
0
100
AcDbText
 10
970.8791564737438
 20
2396.188777845615
 30
0.0
 40
10.8
  1
スリット加工
 41
0.8
  7
y-4
100
AcDbText
  0
TEXT
  5
90D6
330
19
100
AcDbEntity
  8
0
100
AcDbText
 10
970.8791564737438
 20
2378.188777845615
 30
0.0
 40
10.8
  1
185-小判穴4×30
 41
0.8
  7
y-4
100
AcDbText
  0
LINE
  5
90D9
330
19
100
AcDbEntity
  8
0
100
AcDbLine
 10
987.7481276214258
 20
2238.65420047398
 30
0.0
 11
1032.405037809334
 21
2238.654200473979
 31
0.0
  0
LINE
  5
90DA
330
19
100
AcDbEntity
  8
0
100
AcDbLine
 10
987.7481276214258
 20
2197.454200473979
 30
0.0
 11
1032.405037809334
 21
2197.454200473979
 31
0.0
  0
LINE
  5
90DB
330
19
100
AcDbEntity
  8
0
100
AcDbLine
 10
1024.405037809334
 20
2228.654200473979
 30
0.0
 11
1024.405037809334
 21
2207.454200473979
 31
0.0
  0
LINE
  5
90DF
330
19
100
AcDbEntity
  8
0
100
AcDbLine
 10
750.7481276214257
 20
2235.554200473979
 30
0.0
 11
749.5848544109452
 21
2235.554200473979
 31
0.0
  0
LINE
  5
90E0
330
19
100
AcDbEntity
  8
0
100
AcDbLine
 10
750.7481276214257
 20
2200.554200473979
 30
0.0
 11
749.5848544109452
 21
2200.554200473979
 31
0.0
  0
LINE
  5
90E1
330
19
100
AcDbEntity
  8
0
100
AcDbLine
 10
741.5848544109452
 20
2225.554200473979
 30
0.0
 11
741.5848544109452
 21
2210.554200473979
 31
0.0
  0
LINE
  5
90E2
330
19
100
AcDbEntity
  8
0
100
AcDbLine
 10
741.5848544109452
 20
2200.554200473979
 30
0.0
 11
741.5848544109452
 21
2168.154200473979
 31
0.0
  0
TEXT
  5
90E6
330
19
100
AcDbEntity
  8
0
100
AcDbText
 10
532.6712017825229
 20
2284.664759130995
 30
0.0
 40
10.8
  1
φ6.2
 41
0.8
  7
y-4
100
AcDbText
  0
LINE
  5
90E9
330
19
100
AcDbEntity
  8
0
100
AcDbLine
 10
838.7481276214257
 20
2206.054200473979
 30
0.0
 11
838.7481276214257
 21
2143.259039991153
 31
0.0
  0
LINE
  5
90EA
330
19
100
AcDbEntity
  8
0
100
AcDbLine
 10
888.7481276214257
 20
2206.054200473979
 30
0.0
 11
888.7481276214257
 21
2143.259039991153
 31
0.0
  0
LINE
  5
90EB
330
19
100
AcDbEntity
  8
0
100
AcDbLine
 10
848.7481276214257
 20
2151.259039991153
 30
0.0
 11
878.7481276214258
 21
2151.259039991153
 31
0.0
  0
LINE
  5
90EF
330
19
100
AcDbEntity
  8
0
100
AcDbLine
 10
888.7481276214257
 20
2206.054200473979
 30
0.0
 11
888.7481276214257
 21
2143.259039991153
 31
0.0
  0
LINE
  5
90F0
330
19
100
AcDbEntity
  8
0
100
AcDbLine
 10
938.7481276214257
 20
2206.054200473979
 30
0.0
 11
938.7481276214257
 21
2143.259039991153
 31
0.0
  0
LINE
  5
90F1
330
19
100
AcDbEntity
  8
0
100
AcDbLine
 10
898.7481276214257
 20
2151.259039991153
 30
0.0
 11
928.7481276214258
 21
2151.259039991153
 31
0.0
  0
LINE
  5
90F5
330
19
100
AcDbEntity
  8
0
100
AcDbLine
 10
938.7481276214257
 20
2206.054200473979
 30
0.0
 11
938.7481276214257
 21
2143.259039991153
 31
0.0
  0
LINE
  5
90F6
330
19
100
AcDbEntity
  8
0
100
AcDbLine
 10
953.7481276214258
 20
2188.554200473979
 30
0.0
 11
953.7481276214258
 21
2143.259039991153
 31
0.0
  0
LINE
  5
90F7
330
19
100
AcDbEntity
  8
0
100
AcDbLine
 10
928.7481276214258
 20
2151.259039991153
 30
0.0
 11
918.7481276214256
 21
2151.259039991153
 31
0.0
  0
LINE
  5
90F8
330
19
100
AcDbEntity
  8
0
100
AcDbLine
 10
963.7481276214257
 20
2151.259039991153
 30
0.0
 11
993.2681276214257
 21
2151.259039991153
 31
0.0
  0
LINE
  5
90F9
330
19
100
AcDbEntity
  8
0
100
AcDbLine
 10
938.7481276214257
 20
2151.259039991153
 30
0.0
 11
953.7481276214258
 21
2151.259039991153
 31
0.0
  0
TEXT
  5
90FD
330
19
100
AcDbEntity
  8
0
100
AcDbText
 10
618.8440382888257
 20
2274.165242169703
 30
0.0
 40
10.8
  1
12-φ4.2
 41
0.8
  7
y-4
100
AcDbText
  0
LINE
  5
9100
330
19
100
AcDbEntity
  8
0
100
AcDbLine
 10
588.7481276214257
 20
2206.054200473979
 30
0.0
 11
588.7481276214257
 21
2143.259039991153
 31
0.0
  0
LINE
  5
9101
330
19
100
AcDbEntity
  8
0
100
AcDbLine
 10
638.7481276214257
 20
2206.054200473979
 30
0.0
 11
638.7481276214257
 21
2143.259039991153
 31
0.0
  0
LINE
  5
9102
330
19
100
AcDbEntity
  8
0
100
AcDbLine
 10
598.7481276214257
 20
2151.259039991153
 30
0.0
 11
628.7481276214257
 21
2151.259039991153
 31
0.0
  0
LINE
  5
9106
330
19
100
AcDbEntity
  8
0
100
AcDbLine
 10
538.7481276214257
 20
2206.054200473979
 30
0.0
 11
538.7481276214257
 21
2143.259039991153
 31
0.0
  0
LINE
  5
9107
330
19
100
AcDbEntity
  8
0
100
AcDbLine
 10
588.7481276214257
 20
2206.054200473979
 30
0.0
 11
588.7481276214257
 21
2143.259039991153
 31
0.0
  0
LINE
  5
9108
330
19
100
AcDbEntity
  8
0
100
AcDbLine
 10
548.7481276214257
 20
2151.259039991153
 30
0.0
 11
578.7481276214257
 21
2151.259039991153
 31
0.0
  0
LINE
  5
910C
330
19
100
AcDbEntity
  8
0
100
AcDbLine
 10
538.7481276214257
 20
2206.054200473979
 30
0.0
 11
538.7481276214257
 21
2143.259039991153
 31
0.0
  0
LINE
  5
910D
330
19
100
AcDbEntity
  8
0
100
AcDbLine
 10
523.7481276214257
 20
2188.554200473979
 30
0.0
 11
523.7481276214257
 21
2143.259039991153
 31
0.0
  0
LINE
  5
910E
330
19
100
AcDbEntity
  8
0
100
AcDbLine
 10
548.7481276214257
 20
2151.259039991153
 30
0.0
 11
558.7481276214257
 21
2151.259039991153
 31
0.0
  0
LINE
  5
910F
330
19
100
AcDbEntity
  8
0
100
AcDbLine
 10
513.7481276214257
 20
2151.259039991153
 30
0.0
 11
484.2281276214257
 21
2151.259039991153
 31
0.0
  0
LINE
  5
9110
330
19
100
AcDbEntity
  8
0
100
AcDbLine
 10
538.7481276214257
 20
2151.259039991153
 30
0.0
 11
523.7481276214257
 21
2151.259039991153
 31
0.0
  0
LINE
  5
9114
330
19
100
AcDbEntity
  8
0
100
AcDbLine
 10
523.7481276214257
 20
2188.554200473979
 30
0.0
 11
523.7481276214257
 21
2117.315354286249
 31
0.0
  0
LINE
  5
9115
330
19
100
AcDbEntity
  8
0
100
AcDbLine
 10
953.7481276214258
 20
2188.554200473979
 30
0.0
 11
953.7481276214258
 21
2117.315354286249
 31
0.0
  0
LINE
  5
9116
330
19
100
AcDbEntity
  8
0
100
AcDbLine
 10
533.7481276214257
 20
2125.315354286249
 30
0.0
 11
943.7481276214258
 21
2125.315354286249
 31
0.0
  0
LINE
  5
911A
330
19
100
AcDbEntity
  8
0
100
AcDbLine
 10
506.2481276214257
 20
2230.054200473979
 30
0.0
 11
506.2481276214257
 21
2325.743236618893
 31
0.0
  0
LINE
  5
911B
330
19
100
AcDbEntity
  8
0
100
AcDbLine
 10
971.2481276214257
 20
2230.054200473979
 30
0.0
 11
971.2481276214257
 21
2325.743236618893
 31
0.0
  0
LINE
  5
911C
330
19
100
AcDbEntity
  8
0
100
AcDbLine
 10
516.2481276214257
 20
2317.743236618893
 30
0.0
 11
961.2481276214257
 21
2317.743236618893
 31
0.0
  0
LINE
  5
9120
330
19
100
AcDbEntity
  8
0
100
AcDbLine
 10
498.7481276214257
 20
2236.15420047398
 30
0.0
 11
498.7481276214257
 21
2354.310363221584
 31
0.0
  0
LINE
  5
9121
330
19
100
AcDbEntity
  8
0
100
AcDbLine
 10
978.7481276214258
 20
2236.15420047398
 30
0.0
 11
978.7481276214258
 21
2354.310363221584
 31
0.0
  0
LINE
  5
9122
330
19
100
AcDbEntity
  8
0
100
AcDbLine
 10
508.7481276214257
 20
2346.310363221583
 30
0.0
 11
968.7481276214256
 21
2346.310363221583
 31
0.0
  0
TEXT
  5
9126
330
19
100
AcDbEntity
  8
0
100
AcDbText
 10
1290.766665620544
 20
2369.850048071484
 30
0.0
 40
10.8
  1
20-φ6
 41
0.8
  7
y-4
100
AcDbText
  0
TEXT
  5
9127
330
19
100
AcDbEntity
  8
0
100
AcDbText
 10
1290.766665620544
 20
2351.850048071483
 30
0.0
 40
10.8
  1
\U+203B十字穴付トラス小ネジM4-8　×8
 41
0.8
  7
y-4
100
AcDbText
  0
TEXT
  5
9128
330
19
100
AcDbEntity
  8
0
100
AcDbText
 10
1290.766665620544
 20
2333.850048071484
 30
0.0
 40
10.8
  1
　六角フランジナット（セレート）　M4　×8
 41
0.8
  7
y-4
100
AcDbText
  0
LINE
  5
912B
330
19
100
AcDbEntity
  8
0
100
AcDbLine
 10
1196.018183260726
 20
2420.63206825599
 30
0.0
 11
1196.018183260726
 21
2362.814548866317
 31
0.0
  0
LINE
  5
912C
330
19
100
AcDbEntity
  8
0
100
AcDbLine
 10
1237.218183260726
 20
2420.63206825599
 30
0.0
 11
1237.218183260726
 21
2362.814548866317
 31
0.0
  0
LINE
  5
912D
330
19
100
AcDbEntity
  8
0
100
AcDbLine
 10
1206.018183260726
 20
2370.814548866317
 30
0.0
 11
1227.218183260726
 21
2370.814548866317
 31
0.0
  0
LINE
  5
9131
330
19
100
AcDbEntity
  8
0
100
AcDbLine
 10
1199.118183260726
 20
2569.132068255991
 30
0.0
 11
1199.118183260726
 21
2577.790806393564
 31
0.0
  0
LINE
  5
9132
330
19
100
AcDbEntity
  8
0
100
AcDbLine
 10
1234.118183260726
 20
2569.132068255991
 30
0.0
 11
1234.118183260726
 21
2577.790806393564
 31
0.0
  0
LINE
  5
9133
330
19
100
AcDbEntity
  8
0
100
AcDbLine
 10
1209.118183260726
 20
2569.790806393564
 30
0.0
 11
1224.118183260726
 21
2569.790806393564
 31
0.0
  0
LINE
  5
9134
330
19
100
AcDbEntity
  8
0
100
AcDbLine
 10
1234.118183260726
 20
2569.790806393564
 30
0.0
 11
1266.518183260726
 21
2569.790806393564
 31
0.0
  0
TEXT
  5
9138
330
19
100
AcDbEntity
  8
0
100
AcDbText
 10
1325.644309433046
 20
2562.018809795338
 30
0.0
 40
10.8
  1
小判穴5×35
 41
0.8
  7
y-4
100
AcDbText
  0
LINE
  5
913B
330
19
100
AcDbEntity
  8
0
100
AcDbLine
 10
1193.518183260726
 20
2729.63206825599
 30
0.0
 11
1163.854122195373
 21
2729.63206825599
 31
0.0
  0
LINE
  5
913C
330
19
100
AcDbEntity
  8
0
100
AcDbLine
 10
1193.518183260726
 20
2434.63206825599
 30
0.0
 11
1163.854122195373
 21
2434.63206825599
 31
0.0
  0
LINE
  5
913D
330
19
100
AcDbEntity
  8
0
100
AcDbLine
 10
1171.854122195373
 20
2719.63206825599
 30
0.0
 11
1171.854122195373
 21
2444.63206825599
 31
0.0
  0
LINE
  5
9141
330
19
100
AcDbEntity
  8
0
100
AcDbLine
 10
1187.118183260726
 20
2432.13206825599
 30
0.0
 11
1090.284267612478
 21
2432.13206825599
 31
0.0
  0
LINE
  5
9142
330
19
100
AcDbEntity
  8
0
100
AcDbLine
 10
1187.118183260726
 20
2732.13206825599
 30
0.0
 11
1090.284267612478
 21
2732.13206825599
 31
0.0
  0
LINE
  5
9143
330
19
100
AcDbEntity
  8
0
100
AcDbLine
 10
1098.284267612478
 20
2442.13206825599
 30
0.0
 11
1098.284267612478
 21
2722.13206825599
 31
0.0
  0
LINE
  5
9147
330
19
100
AcDbEntity
  8
0
100
AcDbLine
 10
1184.018183260726
 20
2731.63206825599
 30
0.0
 11
1126.330304815732
 21
2731.63206825599
 31
0.0
  0
LINE
  5
9148
330
19
100
AcDbEntity
  8
0
100
AcDbLine
 10
1184.018183260726
 20
2432.63206825599
 30
0.0
 11
1126.330304815732
 21
2432.63206825599
 31
0.0
  0
LINE
  5
9149
330
19
100
AcDbEntity
  8
0
100
AcDbLine
 10
1134.330304815732
 20
2721.63206825599
 30
0.0
 11
1134.330304815732
 21
2442.63206825599
 31
0.0
  0
LINE
  5
914D
330
19
100
AcDbEntity
  8
0
100
AcDbLine
 10
1228.618183260726
 20
2457.13206825599
 30
0.0
 11
1307.815614525345
 21
2457.13206825599
 31
0.0
  0
LINE
  5
914E
330
19
100
AcDbEntity
  8
0
100
AcDbLine
 10
1228.680570489159
 20
2557.13206825599
 30
0.0
 11
1307.815614525345
 21
2557.13206825599
 31
0.0
  0
LINE
  5
914F
330
19
100
AcDbEntity
  8
0
100
AcDbLine
 10
1299.815614525345
 20
2467.13206825599
 30
0.0
 11
1299.815614525345
 21
2547.13206825599
 31
0.0
  0
LINE
  5
9153
330
19
100
AcDbEntity
  8
0
100
AcDbLine
 10
1246.118183260726
 20
2432.13206825599
 30
0.0
 11
1307.815614525345
 21
2432.13206825599
 31
0.0
  0
LINE
  5
9154
330
19
100
AcDbEntity
  8
0
100
AcDbLine
 10
1228.618183260726
 20
2457.13206825599
 30
0.0
 11
1307.815614525345
 21
2457.13206825599
 31
0.0
  0
LINE
  5
9155
330
19
100
AcDbEntity
  8
0
100
AcDbLine
 10
1299.815614525345
 20
2422.13206825599
 30
0.0
 11
1299.815614525345
 21
2412.13206825599
 31
0.0
  0
LINE
  5
9156
330
19
100
AcDbEntity
  8
0
100
AcDbLine
 10
1299.815614525345
 20
2467.13206825599
 30
0.0
 11
1299.815614525345
 21
2477.13206825599
 31
0.0
  0
LINE
  5
9157
330
19
100
AcDbEntity
  8
0
100
AcDbLine
 10
1299.815614525345
 20
2432.13206825599
 30
0.0
 11
1299.815614525345
 21
2457.13206825599
 31
0.0
  0
LINE
  5
915B
330
19
100
AcDbEntity
  8
0
100
AcDbLine
 10
1228.618183260726
 20
2707.13206825599
 30
0.0
 11
1307.815614525345
 21
2707.13206825599
 31
0.0
  0
LINE
  5
915C
330
19
100
AcDbEntity
  8
0
100
AcDbLine
 10
1228.618183260726
 20
2607.13206825599
 30
0.0
 11
1307.815614525345
 21
2607.13206825599
 31
0.0
  0
LINE
  5
915D
330
19
100
AcDbEntity
  8
0
100
AcDbLine
 10
1299.815614525345
 20
2697.13206825599
 30
0.0
 11
1299.815614525345
 21
2617.13206825599
 31
0.0
  0
LINE
  5
9161
330
19
100
AcDbEntity
  8
0
100
AcDbLine
 10
1246.118183260726
 20
2732.13206825599
 30
0.0
 11
1307.815614525345
 21
2732.13206825599
 31
0.0
  0
LINE
  5
9162
330
19
100
AcDbEntity
  8
0
100
AcDbLine
 10
1228.618183260726
 20
2707.13206825599
 30
0.0
 11
1307.815614525345
 21
2707.13206825599
 31
0.0
  0
LINE
  5
9163
330
19
100
AcDbEntity
  8
0
100
AcDbLine
 10
1299.815614525345
 20
2742.13206825599
 30
0.0
 11
1299.815614525345
 21
2752.13206825599
 31
0.0
  0
LINE
  5
9164
330
19
100
AcDbEntity
  8
0
100
AcDbLine
 10
1299.815614525345
 20
2697.13206825599
 30
0.0
 11
1299.815614525345
 21
2687.13206825599
 31
0.0
  0
LINE
  5
9165
330
19
100
AcDbEntity
  8
0
100
AcDbLine
 10
1299.815614525345
 20
2732.13206825599
 30
0.0
 11
1299.815614525345
 21
2707.13206825599
 31
0.0
  0
LINE
  5
9169
330
19
100
AcDbEntity
  8
0
100
AcDbLine
 10
526.7481276214255
 20
2717.13206825599
 30
0.0
 11
459.1161464653048
 21
2717.13206825599
 31
0.0
  0
LINE
  5
916A
330
19
100
AcDbEntity
  8
0
100
AcDbLine
 10
526.7481276214257
 20
2447.13206825599
 30
0.0
 11
459.1161464653048
 21
2447.13206825599
 31
0.0
  0
LINE
  5
916B
330
19
100
AcDbEntity
  8
0
100
AcDbLine
 10
467.1161464653048
 20
2707.13206825599
 30
0.0
 11
467.1161464653048
 21
2457.13206825599
 31
0.0
  0
LINE
  5
916F
330
19
100
AcDbEntity
  8
0
100
AcDbLine
 10
538.7481276214257
 20
2729.13206825599
 30
0.0
 11
538.7481276214257
 21
2752.903105220154
 31
0.0
  0
LINE
  5
9170
330
19
100
AcDbEntity
  8
0
100
AcDbLine
 10
938.7481276214257
 20
2729.13206825599
 30
0.0
 11
938.7481276214257
 21
2752.903105220154
 31
0.0
  0
LINE
  5
9171
330
19
100
AcDbEntity
  8
0
100
AcDbLine
 10
548.7481276214257
 20
2744.903105220154
 30
0.0
 11
928.7481276214258
 21
2744.903105220154
 31
0.0
  0
LINE
  5
9175
330
19
100
AcDbEntity
  8
0
100
AcDbLine
 10
523.7481276214257
 20
2744.13206825599
 30
0.0
 11
523.7481276214257
 21
2776.827777152855
 31
0.0
  0
LINE
  5
9176
330
19
100
AcDbEntity
  8
0
100
AcDbLine
 10
953.7481276214258
 20
2744.13206825599
 30
0.0
 11
953.7481276214258
 21
2776.827777152855
 31
0.0
  0
LINE
  5
9177
330
19
100
AcDbEntity
  8
0
100
AcDbLine
 10
533.7481276214257
 20
2768.827777152855
 30
0.0
 11
943.7481276214256
 21
2768.827777152855
 31
0.0
  0
LINE
  5
917B
330
19
100
AcDbEntity
  8
0
100
AcDbLine
 10
511.7481276214258
 20
2732.13206825599
 30
0.0
 11
396.7931512672968
 21
2732.13206825599
 31
0.0
  0
LINE
  5
917C
330
19
100
AcDbEntity
  8
0
100
AcDbLine
 10
511.7481276214257
 20
2432.13206825599
 30
0.0
 11
396.7931512672967
 21
2432.13206825599
 31
0.0
  0
LINE
  5
917D
330
19
100
AcDbEntity
  8
0
100
AcDbLine
 10
404.7931512672967
 20
2722.13206825599
 30
0.0
 11
404.7931512672967
 21
2442.13206825599
 31
0.0
  0
TEXT
  5
9181
330
19
100
AcDbEntity
  8
0
100
AcDbText
 10
1457.809961566665
 20
2126.892359656291
 30
0.0
 40
10.8
  1
\U+203B　添付品：M5取付化粧ビス・ケージナット　各4個
 41
0.8
  7
y-4
100
AcDbText
  0
TEXT
  5
9182
330
19
100
AcDbEntity
  8
0
100
AcDbText
 10
1439.252669842251
 20
2095.015848200201
 30
0.0
 40
8.4
  1
投
 41
0.8
100
AcDbText
  0
TEXT
  5
9183
330
19
100
AcDbEntity
  8
0
100
AcDbText
 10
1439.252669842251
 20
2081.015848200201
 30
0.0
 40
8.4
  1
影
 41
0.8
100
AcDbText
  0
TEXT
  5
9184
330
19
100
AcDbEntity
  8
0
100
AcDbText
 10
1439.252669842251
 20
2067.015848200201
 30
0.0
 40
8.4
  1
法
 41
0.8
100
AcDbText
  0
TEXT
  5
9185
330
19
100
AcDbEntity
  8
0
100
AcDbText
 10
1287.305617542813
 20
2069.327754762353
 30
0.0
 40
10.8
  1
製図
 41
0.8
100
AcDbText
  0
TEXT
  5
9186
330
19
100
AcDbEntity
  8
0
100
AcDbText
 10
1287.305617542813
 20
2089.327754762353
 30
0.0
 40
10.8
  1
尺度
 41
0.8
100
AcDbText
  0
TEXT
  5
9187
330
19
100
AcDbEntity
  8
0
100
AcDbText
 10
1328.457667042782
 20
2089.327754762353
 30
0.0
 40
10.8
  1
１／４　　（Ａ３）
 41
0.8
100
AcDbText
  0
TEXT
  5
9188
330
19
100
AcDbEntity
  8
0
100
AcDbText
 10
1526.761601042804
 20
2092.327756412366
 30
0.0
 40
10.8
  1
(SHSI)マウントアングル取付固定棚（トレイ）
 41
0.8
100
AcDbText
  0
TEXT
  5
9189
330
19
100
AcDbEntity
  8
0
100
AcDbText
 10
1607.401601042803
 20
2074.327756412365
 30
0.0
 40
10.8
  1
（スリット付）
 41
0.8
100
AcDbText
  0
TEXT
  5
918A
330
19
100
AcDbEntity
  8
0
100
AcDbText
 10
1577.449601042803
 20
2051.327758062378
 30
0.0
 40
10.8
  1
D300　FRS-MS63TM
 41
0.8
100
AcDbText
  0
TEXT
  5
918B
330
19
100
AcDbEntity
  8
0
100
AcDbText
 10
1626.121601042803
 20
2019.327758062378
 30
0.0
 40
10.8
  1
外観図
 41
0.8
100
AcDbText
  0
TEXT
  5
918C
330
19
100
AcDbEntity
  8
0
100
AcDbText
 10
400.7931512672962
 20
2572.05206825599
 30
0.0
 40
10.8
  1
300
 50
90.0
 41
0.8
  7
y-4
100
AcDbText
  0
LINE
  5
918D
330
19
100
AcDbEntity
  8
0
100
AcDbLine
 10
406.4598179339633
 20
2442.13206825599
 30
0.0
 11
404.7931512672967
 21
2432.13206825599
 31
0.0
  0
LINE
  5
918E
330
19
100
AcDbEntity
  8
0
100
AcDbLine
 10
404.7931512672967
 20
2432.13206825599
 30
0.0
 11
403.1264846006299
 21
2442.13206825599
 31
0.0
  0
LINE
  5
918F
330
19
100
AcDbEntity
  8
0
100
AcDbLine
 10
404.7931512672967
 20
2432.13206825599
 30
0.0
 11
404.7931512672967
 21
2442.13206825599
 31
0.0
  0
LINE
  5
9190
330
19
100
AcDbEntity
  8
0
100
AcDbLine
 10
403.12648460063
 20
2722.13206825599
 30
0.0
 11
404.7931512672967
 21
2732.13206825599
 31
0.0
  0
LINE
  5
9191
330
19
100
AcDbEntity
  8
0
100
AcDbLine
 10
404.7931512672967
 20
2732.13206825599
 30
0.0
 11
406.4598179339634
 21
2722.13206825599
 31
0.0
  0
LINE
  5
9192
330
19
100
AcDbEntity
  8
0
100
AcDbLine
 10
404.7931512672967
 20
2732.13206825599
 30
0.0
 11
404.7931512672967
 21
2722.13206825599
 31
0.0
  0
TEXT
  5
9193
330
19
100
AcDbEntity
  8
0
100
AcDbText
 10
727.9481276214258
 20
2772.827777152855
 30
0.0
 40
10.8
  1
430
 41
0.8
  7
y-4
100
AcDbText
  0
LINE
  5
9194
330
19
100
AcDbEntity
  8
0
100
AcDbLine
 10
943.7481276214256
 20
2770.494443819521
 30
0.0
 11
953.7481276214258
 21
2768.827777152855
 31
0.0
  0
LINE
  5
9195
330
19
100
AcDbEntity
  8
0
100
AcDbLine
 10
953.7481276214258
 20
2768.827777152855
 30
0.0
 11
943.7481276214256
 21
2767.161110486188
 31
0.0
  0
LINE
  5
9196
330
19
100
AcDbEntity
  8
0
100
AcDbLine
 10
953.7481276214258
 20
2768.827777152855
 30
0.0
 11
943.7481276214256
 21
2768.827777152855
 31
0.0
  0
LINE
  5
9197
330
19
100
AcDbEntity
  8
0
100
AcDbLine
 10
533.7481276214257
 20
2767.161110486188
 30
0.0
 11
523.7481276214257
 21
2768.827777152855
 31
0.0
  0
LINE
  5
9198
330
19
100
AcDbEntity
  8
0
100
AcDbLine
 10
523.7481276214257
 20
2768.827777152855
 30
0.0
 11
533.7481276214257
 21
2770.494443819521
 31
0.0
  0
LINE
  5
9199
330
19
100
AcDbEntity
  8
0
100
AcDbLine
 10
523.7481276214257
 20
2768.827777152855
 30
0.0
 11
533.7481276214257
 21
2768.827777152855
 31
0.0
  0
TEXT
  5
919A
330
19
100
AcDbEntity
  8
0
100
AcDbText
 10
728.6681276214257
 20
2748.903105220154
 30
0.0
 40
10.8
  1
400
 41
0.8
  7
y-4
100
AcDbText
  0
LINE
  5
919B
330
19
100
AcDbEntity
  8
0
100
AcDbLine
 10
928.7481276214258
 20
2746.56977188682
 30
0.0
 11
938.7481276214257
 21
2744.903105220154
 31
0.0
  0
LINE
  5
919C
330
19
100
AcDbEntity
  8
0
100
AcDbLine
 10
938.7481276214257
 20
2744.903105220154
 30
0.0
 11
928.7481276214258
 21
2743.236438553487
 31
0.0
  0
LINE
  5
919D
330
19
100
AcDbEntity
  8
0
100
AcDbLine
 10
938.7481276214257
 20
2744.903105220154
 30
0.0
 11
928.7481276214258
 21
2744.903105220154
 31
0.0
  0
LINE
  5
919E
330
19
100
AcDbEntity
  8
0
100
AcDbLine
 10
548.7481276214257
 20
2743.236438553487
 30
0.0
 11
538.7481276214257
 21
2744.903105220154
 31
0.0
  0
LINE
  5
919F
330
19
100
AcDbEntity
  8
0
100
AcDbLine
 10
538.7481276214257
 20
2744.903105220154
 30
0.0
 11
548.7481276214257
 21
2746.56977188682
 31
0.0
  0
LINE
  5
91A0
330
19
100
AcDbEntity
  8
0
100
AcDbLine
 10
538.7481276214257
 20
2744.903105220154
 30
0.0
 11
548.7481276214257
 21
2744.903105220154
 31
0.0
  0
TEXT
  5
91A1
330
19
100
AcDbEntity
  8
0
100
AcDbText
 10
463.1161464653043
 20
2571.33206825599
 30
0.0
 40
10.8
  1
270
 50
90.0
 41
0.8
  7
y-4
100
AcDbText
  0
LINE
  5
91A2
330
19
100
AcDbEntity
  8
0
100
AcDbLine
 10
468.7828131319714
 20
2457.13206825599
 30
0.0
 11
467.1161464653048
 21
2447.13206825599
 31
0.0
  0
LINE
  5
91A3
330
19
100
AcDbEntity
  8
0
100
AcDbLine
 10
467.1161464653048
 20
2447.13206825599
 30
0.0
 11
465.449479798638
 21
2457.13206825599
 31
0.0
  0
LINE
  5
91A4
330
19
100
AcDbEntity
  8
0
100
AcDbLine
 10
467.1161464653048
 20
2447.13206825599
 30
0.0
 11
467.1161464653048
 21
2457.13206825599
 31
0.0
  0
LINE
  5
91A5
330
19
100
AcDbEntity
  8
0
100
AcDbLine
 10
465.4494797986381
 20
2707.13206825599
 30
0.0
 11
467.1161464653048
 21
2717.13206825599
 31
0.0
  0
LINE
  5
91A6
330
19
100
AcDbEntity
  8
0
100
AcDbLine
 10
467.1161464653048
 20
2717.13206825599
 30
0.0
 11
468.7828131319715
 21
2707.13206825599
 31
0.0
  0
LINE
  5
91A7
330
19
100
AcDbEntity
  8
0
100
AcDbLine
 10
467.1161464653048
 20
2717.13206825599
 30
0.0
 11
467.1161464653048
 21
2707.13206825599
 31
0.0
  0
TEXT
  5
91A8
330
19
100
AcDbEntity
  8
0
100
AcDbText
 10
1295.815614525344
 20
2712.432068255991
 30
0.0
 40
10.8
  1
25
 50
90.0
 41
0.8
  7
y-4
100
AcDbText
  0
LINE
  5
91A9
330
19
100
AcDbEntity
  8
0
100
AcDbLine
 10
1298.148947858678
 20
2697.13206825599
 30
0.0
 11
1299.815614525345
 21
2707.13206825599
 31
0.0
  0
LINE
  5
91AA
330
19
100
AcDbEntity
  8
0
100
AcDbLine
 10
1299.815614525345
 20
2707.13206825599
 30
0.0
 11
1301.482281192012
 21
2697.13206825599
 31
0.0
  0
LINE
  5
91AB
330
19
100
AcDbEntity
  8
0
100
AcDbLine
 10
1299.815614525345
 20
2707.13206825599
 30
0.0
 11
1299.815614525345
 21
2697.13206825599
 31
0.0
  0
LINE
  5
91AC
330
19
100
AcDbEntity
  8
0
100
AcDbLine
 10
1301.482281192012
 20
2742.13206825599
 30
0.0
 11
1299.815614525345
 21
2732.13206825599
 31
0.0
  0
LINE
  5
91AD
330
19
100
AcDbEntity
  8
0
100
AcDbLine
 10
1299.815614525345
 20
2732.13206825599
 30
0.0
 11
1298.148947858678
 21
2742.13206825599
 31
0.0
  0
LINE
  5
91AE
330
19
100
AcDbEntity
  8
0
100
AcDbLine
 10
1299.815614525345
 20
2732.13206825599
 30
0.0
 11
1299.815614525345
 21
2742.13206825599
 31
0.0
  0
TEXT
  5
91AF
330
19
100
AcDbEntity
  8
0
100
AcDbText
 10
1292.215614525344
 20
2613.068068255991
 30
0.0
 40
10.8
  1
25mmp×4=100
 50
90.0
 41
0.8
  7
y-4
100
AcDbText
  0
LINE
  5
91B0
330
19
100
AcDbEntity
  8
0
100
AcDbLine
 10
1301.482281192012
 20
2617.13206825599
 30
0.0
 11
1299.815614525345
 21
2607.13206825599
 31
0.0
  0
LINE
  5
91B1
330
19
100
AcDbEntity
  8
0
100
AcDbLine
 10
1299.815614525345
 20
2607.13206825599
 30
0.0
 11
1298.148947858678
 21
2617.13206825599
 31
0.0
  0
LINE
  5
91B2
330
19
100
AcDbEntity
  8
0
100
AcDbLine
 10
1299.815614525345
 20
2607.13206825599
 30
0.0
 11
1299.815614525345
 21
2617.13206825599
 31
0.0
  0
LINE
  5
91B3
330
19
100
AcDbEntity
  8
0
100
AcDbLine
 10
1298.148947858678
 20
2697.13206825599
 30
0.0
 11
1299.815614525345
 21
2707.13206825599
 31
0.0
  0
LINE
  5
91B4
330
19
100
AcDbEntity
  8
0
100
AcDbLine
 10
1299.815614525345
 20
2707.13206825599
 30
0.0
 11
1301.482281192012
 21
2697.13206825599
 31
0.0
  0
LINE
  5
91B5
330
19
100
AcDbEntity
  8
0
100
AcDbLine
 10
1299.815614525345
 20
2707.13206825599
 30
0.0
 11
1299.815614525345
 21
2697.13206825599
 31
0.0
  0
TEXT
  5
91B6
330
19
100
AcDbEntity
  8
0
100
AcDbText
 10
1295.815614525344
 20
2437.43206825599
 30
0.0
 40
10.8
  1
25
 50
90.0
 41
0.8
  7
y-4
100
AcDbText
  0
LINE
  5
91B7
330
19
100
AcDbEntity
  8
0
100
AcDbLine
 10
1301.482281192012
 20
2467.13206825599
 30
0.0
 11
1299.815614525345
 21
2457.13206825599
 31
0.0
  0
LINE
  5
91B8
330
19
100
AcDbEntity
  8
0
100
AcDbLine
 10
1299.815614525345
 20
2457.13206825599
 30
0.0
 11
1298.148947858678
 21
2467.13206825599
 31
0.0
  0
LINE
  5
91B9
330
19
100
AcDbEntity
  8
0
100
AcDbLine
 10
1299.815614525345
 20
2457.13206825599
 30
0.0
 11
1299.815614525345
 21
2467.13206825599
 31
0.0
  0
LINE
  5
91BA
330
19
100
AcDbEntity
  8
0
100
AcDbLine
 10
1298.148947858678
 20
2422.13206825599
 30
0.0
 11
1299.815614525345
 21
2432.13206825599
 31
0.0
  0
LINE
  5
91BB
330
19
100
AcDbEntity
  8
0
100
AcDbLine
 10
1299.815614525345
 20
2432.13206825599
 30
0.0
 11
1301.482281192012
 21
2422.13206825599
 31
0.0
  0
LINE
  5
91BC
330
19
100
AcDbEntity
  8
0
100
AcDbLine
 10
1299.815614525345
 20
2432.13206825599
 30
0.0
 11
1299.815614525345
 21
2422.13206825599
 31
0.0
  0
TEXT
  5
91BD
330
19
100
AcDbEntity
  8
0
100
AcDbText
 10
1292.215614525344
 20
2463.068068255991
 30
0.0
 40
10.8
  1
25mmp×4=100
 50
90.0
 41
0.8
  7
y-4
100
AcDbText
  0
LINE
  5
91BE
330
19
100
AcDbEntity
  8
0
100
AcDbLine
 10
1298.148947858678
 20
2547.13206825599
 30
0.0
 11
1299.815614525345
 21
2557.13206825599
 31
0.0
  0
LINE
  5
91BF
330
19
100
AcDbEntity
  8
0
100
AcDbLine
 10
1299.815614525345
 20
2557.13206825599
 30
0.0
 11
1301.482281192012
 21
2547.13206825599
 31
0.0
  0
LINE
  5
91C0
330
19
100
AcDbEntity
  8
0
100
AcDbLine
 10
1299.815614525345
 20
2557.13206825599
 30
0.0
 11
1299.815614525345
 21
2547.13206825599
 31
0.0
  0
LINE
  5
91C1
330
19
100
AcDbEntity
  8
0
100
AcDbLine
 10
1301.482281192012
 20
2467.13206825599
 30
0.0
 11
1299.815614525345
 21
2457.13206825599
 31
0.0
  0
LINE
  5
91C2
330
19
100
AcDbEntity
  8
0
100
AcDbLine
 10
1299.815614525345
 20
2457.13206825599
 30
0.0
 11
1298.148947858678
 21
2467.13206825599
 31
0.0
  0
LINE
  5
91C3
330
19
100
AcDbEntity
  8
0
100
AcDbLine
 10
1299.815614525345
 20
2457.13206825599
 30
0.0
 11
1299.815614525345
 21
2467.13206825599
 31
0.0
  0
TEXT
  5
91C4
330
19
100
AcDbEntity
  8
0
100
AcDbText
 10
1130.330304815732
 20
2570.612068255991
 30
0.0
 40
10.8
  1
299
 50
90.0
 41
0.8
  7
y-4
100
AcDbText
  0
LINE
  5
91C5
330
19
100
AcDbEntity
  8
0
100
AcDbLine
 10
1135.996971482399
 20
2442.63206825599
 30
0.0
 11
1134.330304815732
 21
2432.63206825599
 31
0.0
  0
LINE
  5
91C6
330
19
100
AcDbEntity
  8
0
100
AcDbLine
 10
1134.330304815732
 20
2432.63206825599
 30
0.0
 11
1132.663638149065
 21
2442.63206825599
 31
0.0
  0
LINE
  5
91C7
330
19
100
AcDbEntity
  8
0
100
AcDbLine
 10
1134.330304815732
 20
2432.63206825599
 30
0.0
 11
1134.330304815732
 21
2442.63206825599
 31
0.0
  0
LINE
  5
91C8
330
19
100
AcDbEntity
  8
0
100
AcDbLine
 10
1132.663638149066
 20
2721.63206825599
 30
0.0
 11
1134.330304815732
 21
2731.63206825599
 31
0.0
  0
LINE
  5
91C9
330
19
100
AcDbEntity
  8
0
100
AcDbLine
 10
1134.330304815732
 20
2731.63206825599
 30
0.0
 11
1135.996971482399
 21
2721.63206825599
 31
0.0
  0
LINE
  5
91CA
330
19
100
AcDbEntity
  8
0
100
AcDbLine
 10
1134.330304815732
 20
2731.63206825599
 30
0.0
 11
1134.330304815732
 21
2721.63206825599
 31
0.0
  0
TEXT
  5
91CB
330
19
100
AcDbEntity
  8
0
100
AcDbText
 10
1094.284267612477
 20
2572.05206825599
 30
0.0
 40
10.8
  1
300
 50
90.0
 41
0.8
  7
y-4
100
AcDbText
  0
LINE
  5
91CC
330
19
100
AcDbEntity
  8
0
100
AcDbLine
 10
1096.617600945811
 20
2722.13206825599
 30
0.0
 11
1098.284267612478
 21
2732.13206825599
 31
0.0
  0
LINE
  5
91CD
330
19
100
AcDbEntity
  8
0
100
AcDbLine
 10
1098.284267612478
 20
2732.13206825599
 30
0.0
 11
1099.950934279145
 21
2722.13206825599
 31
0.0
  0
LINE
  5
91CE
330
19
100
AcDbEntity
  8
0
100
AcDbLine
 10
1098.284267612478
 20
2732.13206825599
 30
0.0
 11
1098.284267612478
 21
2722.13206825599
 31
0.0
  0
LINE
  5
91CF
330
19
100
AcDbEntity
  8
0
100
AcDbLine
 10
1099.950934279144
 20
2442.13206825599
 30
0.0
 11
1098.284267612478
 21
2432.13206825599
 31
0.0
  0
LINE
  5
91D0
330
19
100
AcDbEntity
  8
0
100
AcDbLine
 10
1098.284267612478
 20
2432.13206825599
 30
0.0
 11
1096.617600945811
 21
2442.13206825599
 31
0.0
  0
LINE
  5
91D1
330
19
100
AcDbEntity
  8
0
100
AcDbLine
 10
1098.284267612478
 20
2432.13206825599
 30
0.0
 11
1098.284267612478
 21
2442.13206825599
 31
0.0
  0
TEXT
  5
91D2
330
19
100
AcDbEntity
  8
0
100
AcDbText
 10
1167.854122195372
 20
2570.612068255991
 30
0.0
 40
10.8
  1
295
 50
90.0
 41
0.8
  7
y-4
100
AcDbText
  0
LINE
  5
91D3
330
19
100
AcDbEntity
  8
0
100
AcDbLine
 10
1173.520788862039
 20
2444.63206825599
 30
0.0
 11
1171.854122195373
 21
2434.63206825599
 31
0.0
  0
LINE
  5
91D4
330
19
100
AcDbEntity
  8
0
100
AcDbLine
 10
1171.854122195373
 20
2434.63206825599
 30
0.0
 11
1170.187455528706
 21
2444.63206825599
 31
0.0
  0
LINE
  5
91D5
330
19
100
AcDbEntity
  8
0
100
AcDbLine
 10
1171.854122195373
 20
2434.63206825599
 30
0.0
 11
1171.854122195373
 21
2444.63206825599
 31
0.0
  0
LINE
  5
91D6
330
19
100
AcDbEntity
  8
0
100
AcDbLine
 10
1170.187455528706
 20
2719.63206825599
 30
0.0
 11
1171.854122195373
 21
2729.63206825599
 31
0.0
  0
LINE
  5
91D7
330
19
100
AcDbEntity
  8
0
100
AcDbLine
 10
1171.854122195373
 20
2729.63206825599
 30
0.0
 11
1173.52078886204
 21
2719.63206825599
 31
0.0
  0
LINE
  5
91D8
330
19
100
AcDbEntity
  8
0
100
AcDbLine
 10
1171.854122195373
 20
2729.63206825599
 30
0.0
 11
1171.854122195373
 21
2719.63206825599
 31
0.0
  0
LINE
  5
91D9
330
19
100
AcDbEntity
  8
0
100
AcDbLine
 10
1225.863442576931
 20
2603.320876818115
 30
0.0
 11
1312.955346781675
 21
2567.418809795338
 31
0.0
1001
ACAD
1000
DSTYLE
1002
{
1070
   147
1040
1.0
1070
    77
1070
     0
1002
}
  0
LINE
  5
91DA
330
19
100
AcDbEntity
  8
0
100
AcDbLine
 10
1312.955346781675
 20
2567.418809795338
 30
0.0
 11
1321.644309433046
 21
2567.418809795338
 31
0.0
1001
ACAD
1000
DSTYLE
1002
{
1070
   147
1040
1.0
1070
    77
1070
     0
1002
}
  0
LINE
  5
91DB
330
19
100
AcDbEntity
  8
0
100
AcDbLine
 10
1225.228244003952
 20
2601.780000265415
 30
0.0
 11
1216.618183260726
 21
2607.13206825599
 31
0.0
  0
LINE
  5
91DC
330
19
100
AcDbEntity
  8
0
100
AcDbLine
 10
1216.618183260726
 20
2607.13206825599
 30
0.0
 11
1226.49864114991
 21
2604.861753370816
 31
0.0
  0
LINE
  5
91DD
330
19
100
AcDbEntity
  8
0
100
AcDbLine
 10
1216.618183260726
 20
2607.13206825599
 30
0.0
 11
1225.863442576931
 21
2603.320876818115
 31
0.0
  0
TEXT
  5
91DE
330
19
100
AcDbEntity
  8
0
100
AcDbText
 10
1248.118183260726
 20
2573.790806393564
 30
0.0
 40
10.8
  1
35
 41
0.8
  7
y-4
100
AcDbText
  0
LINE
  5
91DF
330
19
100
AcDbEntity
  8
0
100
AcDbLine
 10
1224.118183260726
 20
2571.457473060231
 30
0.0
 11
1234.118183260726
 21
2569.790806393564
 31
0.0
  0
LINE
  5
91E0
330
19
100
AcDbEntity
  8
0
100
AcDbLine
 10
1234.118183260726
 20
2569.790806393564
 30
0.0
 11
1224.118183260726
 21
2568.124139726898
 31
0.0
  0
LINE
  5
91E1
330
19
100
AcDbEntity
  8
0
100
AcDbLine
 10
1234.118183260726
 20
2569.790806393564
 30
0.0
 11
1224.118183260726
 21
2569.790806393564
 31
0.0
  0
LINE
  5
91E2
330
19
100
AcDbEntity
  8
0
100
AcDbLine
 10
1209.118183260726
 20
2568.124139726898
 30
0.0
 11
1199.118183260726
 21
2569.790806393564
 31
0.0
  0
LINE
  5
91E3
330
19
100
AcDbEntity
  8
0
100
AcDbLine
 10
1199.118183260726
 20
2569.790806393564
 30
0.0
 11
1209.118183260726
 21
2571.457473060231
 31
0.0
  0
LINE
  5
91E4
330
19
100
AcDbEntity
  8
0
100
AcDbLine
 10
1199.118183260726
 20
2569.790806393564
 30
0.0
 11
1209.118183260726
 21
2569.790806393564
 31
0.0
  0
TEXT
  5
91E5
330
19
100
AcDbEntity
  8
0
100
AcDbText
 10
1205.098183260726
 20
2374.814548866317
 30
0.0
 40
10.8
  1
41.2
 41
0.8
  7
y-4
100
AcDbText
  0
LINE
  5
91E6
330
19
100
AcDbEntity
  8
0
100
AcDbLine
 10
1227.218183260726
 20
2372.481215532983
 30
0.0
 11
1237.218183260726
 21
2370.814548866317
 31
0.0
  0
LINE
  5
91E7
330
19
100
AcDbEntity
  8
0
100
AcDbLine
 10
1237.218183260726
 20
2370.814548866317
 30
0.0
 11
1227.218183260726
 21
2369.14788219965
 31
0.0
  0
LINE
  5
91E8
330
19
100
AcDbEntity
  8
0
100
AcDbLine
 10
1237.218183260726
 20
2370.814548866317
 30
0.0
 11
1227.218183260726
 21
2370.814548866317
 31
0.0
  0
LINE
  5
91E9
330
19
100
AcDbEntity
  8
0
100
AcDbLine
 10
1206.018183260726
 20
2369.14788219965
 30
0.0
 11
1196.018183260726
 21
2370.814548866317
 31
0.0
  0
LINE
  5
91EA
330
19
100
AcDbEntity
  8
0
100
AcDbLine
 10
1196.018183260726
 20
2370.814548866317
 30
0.0
 11
1206.018183260726
 21
2372.481215532983
 31
0.0
  0
LINE
  5
91EB
330
19
100
AcDbEntity
  8
0
100
AcDbLine
 10
1196.018183260726
 20
2370.814548866317
 30
0.0
 11
1206.018183260726
 21
2370.814548866317
 31
0.0
  0
LINE
  5
91EC
330
19
100
AcDbEntity
  8
0
100
AcDbLine
 10
1224.505034627834
 20
2458.722462103926
 30
0.0
 11
1277.875914567639
 21
2375.250048071483
 31
0.0
1001
ACAD
1000
DSTYLE
1002
{
1070
   147
1040
1.0
1070
    77
1070
     0
1002
}
  0
LINE
  5
91ED
330
19
100
AcDbEntity
  8
0
100
AcDbLine
 10
1277.875914567639
 20
2375.250048071483
 30
0.0
 11
1286.766665620544
 21
2375.250048071483
 31
0.0
1001
ACAD
1000
DSTYLE
1002
{
1070
   147
1040
1.0
1070
    77
1070
     0
1002
}
  0
LINE
  5
91EE
330
19
100
AcDbEntity
  8
0
100
AcDbLine
 10
1223.100856019095
 20
2457.824653542742
 30
0.0
 11
1219.118183260726
 21
2467.147533756362
 31
0.0
  0
LINE
  5
91EF
330
19
100
AcDbEntity
  8
0
100
AcDbLine
 10
1219.118183260726
 20
2467.147533756362
 30
0.0
 11
1225.909213236574
 21
2459.620270665111
 31
0.0
  0
LINE
  5
91F0
330
19
100
AcDbEntity
  8
0
100
AcDbLine
 10
1219.118183260726
 20
2467.147533756362
 30
0.0
 11
1224.505034627834
 21
2458.722462103926
 31
0.0
  0
TEXT
  5
91F1
330
19
100
AcDbEntity
  8
0
100
AcDbText
 10
727.9481276214258
 20
2350.310363221584
 30
0.0
 40
10.8
  1
480
 41
0.8
  7
y-4
100
AcDbText
  0
LINE
  5
91F2
330
19
100
AcDbEntity
  8
0
100
AcDbLine
 10
968.7481276214256
 20
2347.97702988825
 30
0.0
 11
978.7481276214258
 21
2346.310363221583
 31
0.0
  0
LINE
  5
91F3
330
19
100
AcDbEntity
  8
0
100
AcDbLine
 10
978.7481276214258
 20
2346.310363221583
 30
0.0
 11
968.7481276214256
 21
2344.643696554917
 31
0.0
  0
LINE
  5
91F4
330
19
100
AcDbEntity
  8
0
100
AcDbLine
 10
978.7481276214258
 20
2346.310363221583
 30
0.0
 11
968.7481276214256
 21
2346.310363221583
 31
0.0
  0
LINE
  5
91F5
330
19
100
AcDbEntity
  8
0
100
AcDbLine
 10
508.7481276214257
 20
2344.643696554917
 30
0.0
 11
498.7481276214257
 21
2346.310363221583
 31
0.0
  0
LINE
  5
91F6
330
19
100
AcDbEntity
  8
0
100
AcDbLine
 10
498.7481276214257
 20
2346.310363221583
 30
0.0
 11
508.7481276214257
 21
2347.97702988825
 31
0.0
  0
LINE
  5
91F7
330
19
100
AcDbEntity
  8
0
100
AcDbLine
 10
498.7481276214257
 20
2346.310363221583
 30
0.0
 11
508.7481276214257
 21
2346.310363221583
 31
0.0
  0
TEXT
  5
91F8
330
19
100
AcDbEntity
  8
0
100
AcDbText
 10
727.2281276214258
 20
2321.743236618893
 30
0.0
 40
10.8
  1
465
 41
0.8
  7
y-4
100
AcDbText
  0
LINE
  5
91F9
330
19
100
AcDbEntity
  8
0
100
AcDbLine
 10
961.2481276214257
 20
2319.40990328556
 30
0.0
 11
971.2481276214257
 21
2317.743236618893
 31
0.0
  0
LINE
  5
91FA
330
19
100
AcDbEntity
  8
0
100
AcDbLine
 10
971.2481276214257
 20
2317.743236618893
 30
0.0
 11
961.2481276214257
 21
2316.076569952227
 31
0.0
  0
LINE
  5
91FB
330
19
100
AcDbEntity
  8
0
100
AcDbLine
 10
971.2481276214257
 20
2317.743236618893
 30
0.0
 11
961.2481276214257
 21
2317.743236618893
 31
0.0
  0
LINE
  5
91FC
330
19
100
AcDbEntity
  8
0
100
AcDbLine
 10
516.2481276214257
 20
2316.076569952227
 30
0.0
 11
506.2481276214257
 21
2317.743236618893
 31
0.0
  0
LINE
  5
91FD
330
19
100
AcDbEntity
  8
0
100
AcDbLine
 10
506.2481276214257
 20
2317.743236618893
 30
0.0
 11
516.2481276214257
 21
2319.40990328556
 31
0.0
  0
LINE
  5
91FE
330
19
100
AcDbEntity
  8
0
100
AcDbLine
 10
506.2481276214257
 20
2317.743236618893
 30
0.0
 11
516.2481276214257
 21
2317.743236618893
 31
0.0
  0
TEXT
  5
91FF
330
19
100
AcDbEntity
  8
0
100
AcDbText
 10
727.9481276214258
 20
2129.315354286249
 30
0.0
 40
10.8
  1
430
 41
0.8
  7
y-4
100
AcDbText
  0
LINE
  5
9200
330
19
100
AcDbEntity
  8
0
100
AcDbLine
 10
943.7481276214258
 20
2126.982020952916
 30
0.0
 11
953.7481276214258
 21
2125.315354286249
 31
0.0
  0
LINE
  5
9201
330
19
100
AcDbEntity
  8
0
100
AcDbLine
 10
953.7481276214258
 20
2125.315354286249
 30
0.0
 11
943.7481276214258
 21
2123.648687619583
 31
0.0
  0
LINE
  5
9202
330
19
100
AcDbEntity
  8
0
100
AcDbLine
 10
953.7481276214258
 20
2125.315354286249
 30
0.0
 11
943.7481276214258
 21
2125.315354286249
 31
0.0
  0
LINE
  5
9203
330
19
100
AcDbEntity
  8
0
100
AcDbLine
 10
533.7481276214257
 20
2123.648687619583
 30
0.0
 11
523.7481276214257
 21
2125.315354286249
 31
0.0
  0
LINE
  5
9204
330
19
100
AcDbEntity
  8
0
100
AcDbLine
 10
523.7481276214257
 20
2125.315354286249
 30
0.0
 11
533.7481276214257
 21
2126.982020952916
 31
0.0
  0
LINE
  5
9205
330
19
100
AcDbEntity
  8
0
100
AcDbLine
 10
523.7481276214257
 20
2125.315354286249
 30
0.0
 11
533.7481276214257
 21
2125.315354286249
 31
0.0
  0
TEXT
  5
9206
330
19
100
AcDbEntity
  8
0
100
AcDbText
 10
488.2281276214257
 20
2155.259039991153
 30
0.0
 40
10.8
  1
15
 41
0.8
  7
y-4
100
AcDbText
  0
LINE
  5
9207
330
19
100
AcDbEntity
  8
0
100
AcDbLine
 10
513.7481276214257
 20
2152.92570665782
 30
0.0
 11
523.7481276214257
 21
2151.259039991153
 31
0.0
  0
LINE
  5
9208
330
19
100
AcDbEntity
  8
0
100
AcDbLine
 10
523.7481276214257
 20
2151.259039991153
 30
0.0
 11
513.7481276214257
 21
2149.592373324487
 31
0.0
  0
LINE
  5
9209
330
19
100
AcDbEntity
  8
0
100
AcDbLine
 10
523.7481276214257
 20
2151.259039991153
 30
0.0
 11
513.7481276214257
 21
2151.259039991153
 31
0.0
  0
LINE
  5
920A
330
19
100
AcDbEntity
  8
0
100
AcDbLine
 10
548.7481276214257
 20
2149.592373324487
 30
0.0
 11
538.7481276214257
 21
2151.259039991153
 31
0.0
  0
LINE
  5
920B
330
19
100
AcDbEntity
  8
0
100
AcDbLine
 10
538.7481276214257
 20
2151.259039991153
 30
0.0
 11
548.7481276214257
 21
2152.92570665782
 31
0.0
  0
LINE
  5
920C
330
19
100
AcDbEntity
  8
0
100
AcDbLine
 10
538.7481276214257
 20
2151.259039991153
 30
0.0
 11
548.7481276214257
 21
2151.259039991153
 31
0.0
  0
TEXT
  5
920D
330
19
100
AcDbEntity
  8
0
100
AcDbText
 10
557.2681276214257
 20
2155.259039991153
 30
0.0
 40
10.8
  1
50
 41
0.8
  7
y-4
100
AcDbText
  0
LINE
  5
920E
330
19
100
AcDbEntity
  8
0
100
AcDbLine
 10
578.7481276214257
 20
2152.92570665782
 30
0.0
 11
588.7481276214257
 21
2151.259039991153
 31
0.0
  0
LINE
  5
920F
330
19
100
AcDbEntity
  8
0
100
AcDbLine
 10
588.7481276214257
 20
2151.259039991153
 30
0.0
 11
578.7481276214257
 21
2149.592373324487
 31
0.0
  0
LINE
  5
9210
330
19
100
AcDbEntity
  8
0
100
AcDbLine
 10
588.7481276214257
 20
2151.259039991153
 30
0.0
 11
578.7481276214257
 21
2151.259039991153
 31
0.0
  0
LINE
  5
9211
330
19
100
AcDbEntity
  8
0
100
AcDbLine
 10
548.7481276214257
 20
2149.592373324487
 30
0.0
 11
538.7481276214257
 21
2151.259039991153
 31
0.0
  0
LINE
  5
9212
330
19
100
AcDbEntity
  8
0
100
AcDbLine
 10
538.7481276214257
 20
2151.259039991153
 30
0.0
 11
548.7481276214257
 21
2152.92570665782
 31
0.0
  0
LINE
  5
9213
330
19
100
AcDbEntity
  8
0
100
AcDbLine
 10
538.7481276214257
 20
2151.259039991153
 30
0.0
 11
548.7481276214257
 21
2151.259039991153
 31
0.0
  0
TEXT
  5
9214
330
19
100
AcDbEntity
  8
0
100
AcDbText
 10
607.2681276214257
 20
2155.259039991153
 30
0.0
 40
10.8
  1
50
 41
0.8
  7
y-4
100
AcDbText
  0
LINE
  5
9215
330
19
100
AcDbEntity
  8
0
100
AcDbLine
 10
628.7481276214257
 20
2152.92570665782
 30
0.0
 11
638.7481276214257
 21
2151.259039991153
 31
0.0
  0
LINE
  5
9216
330
19
100
AcDbEntity
  8
0
100
AcDbLine
 10
638.7481276214257
 20
2151.259039991153
 30
0.0
 11
628.7481276214257
 21
2149.592373324487
 31
0.0
  0
LINE
  5
9217
330
19
100
AcDbEntity
  8
0
100
AcDbLine
 10
638.7481276214257
 20
2151.259039991153
 30
0.0
 11
628.7481276214257
 21
2151.259039991153
 31
0.0
  0
LINE
  5
9218
330
19
100
AcDbEntity
  8
0
100
AcDbLine
 10
598.7481276214257
 20
2149.592373324487
 30
0.0
 11
588.7481276214257
 21
2151.259039991153
 31
0.0
  0
LINE
  5
9219
330
19
100
AcDbEntity
  8
0
100
AcDbLine
 10
588.7481276214257
 20
2151.259039991153
 30
0.0
 11
598.7481276214257
 21
2152.92570665782
 31
0.0
  0
LINE
  5
921A
330
19
100
AcDbEntity
  8
0
100
AcDbLine
 10
588.7481276214257
 20
2151.259039991153
 30
0.0
 11
598.7481276214257
 21
2151.259039991153
 31
0.0
  0
LINE
  5
921B
330
19
100
AcDbEntity
  8
0
100
AcDbLine
 10
592.245785007958
 20
2227.422572413993
 30
0.0
 11
611.7131156383329
 21
2279.565242169703
 31
0.0
1001
ACAD
1000
DSTYLE
1002
{
1070
   147
1040
1.0
1070
    77
1070
     0
1002
}
  0
LINE
  5
921C
330
19
100
AcDbEntity
  8
0
100
AcDbLine
 10
611.7131156383329
 20
2279.565242169703
 30
0.0
 11
614.8440382888257
 21
2279.565242169703
 31
0.0
1001
ACAD
1000
DSTYLE
1002
{
1070
   147
1040
1.0
1070
    77
1070
     0
1002
}
  0
LINE
  5
921D
330
19
100
AcDbEntity
  8
0
100
AcDbLine
 10
593.8071803312936
 20
2226.839629516238
 30
0.0
 11
588.7481276214257
 21
2218.054200473979
 31
0.0
  0
LINE
  5
921E
330
19
100
AcDbEntity
  8
0
100
AcDbLine
 10
588.7481276214257
 20
2218.054200473979
 30
0.0
 11
590.6843896846224
 21
2228.005515311748
 31
0.0
  0
LINE
  5
921F
330
19
100
AcDbEntity
  8
0
100
AcDbLine
 10
588.7481276214257
 20
2218.054200473979
 30
0.0
 11
592.245785007958
 21
2227.422572413993
 31
0.0
  0
TEXT
  5
9220
330
19
100
AcDbEntity
  8
0
100
AcDbText
 10
977.7481276214258
 20
2155.259039991153
 30
0.0
 40
10.8
  1
15
 41
0.8
  7
y-4
100
AcDbText
  0
LINE
  5
9221
330
19
100
AcDbEntity
  8
0
100
AcDbLine
 10
963.7481276214257
 20
2149.592373324487
 30
0.0
 11
953.7481276214258
 21
2151.259039991153
 31
0.0
  0
LINE
  5
9222
330
19
100
AcDbEntity
  8
0
100
AcDbLine
 10
953.7481276214258
 20
2151.259039991153
 30
0.0
 11
963.7481276214257
 21
2152.92570665782
 31
0.0
  0
LINE
  5
9223
330
19
100
AcDbEntity
  8
0
100
AcDbLine
 10
953.7481276214258
 20
2151.259039991153
 30
0.0
 11
963.7481276214257
 21
2151.259039991153
 31
0.0
  0
LINE
  5
9224
330
19
100
AcDbEntity
  8
0
100
AcDbLine
 10
928.7481276214258
 20
2152.92570665782
 30
0.0
 11
938.7481276214257
 21
2151.259039991153
 31
0.0
  0
LINE
  5
9225
330
19
100
AcDbEntity
  8
0
100
AcDbLine
 10
938.7481276214257
 20
2151.259039991153
 30
0.0
 11
928.7481276214258
 21
2149.592373324487
 31
0.0
  0
LINE
  5
9226
330
19
100
AcDbEntity
  8
0
100
AcDbLine
 10
938.7481276214257
 20
2151.259039991153
 30
0.0
 11
928.7481276214258
 21
2151.259039991153
 31
0.0
  0
TEXT
  5
9227
330
19
100
AcDbEntity
  8
0
100
AcDbText
 10
907.2681276214257
 20
2155.259039991153
 30
0.0
 40
10.8
  1
50
 41
0.8
  7
y-4
100
AcDbText
  0
LINE
  5
9228
330
19
100
AcDbEntity
  8
0
100
AcDbLine
 10
928.7481276214258
 20
2152.92570665782
 30
0.0
 11
938.7481276214257
 21
2151.259039991153
 31
0.0
  0
LINE
  5
9229
330
19
100
AcDbEntity
  8
0
100
AcDbLine
 10
938.7481276214257
 20
2151.259039991153
 30
0.0
 11
928.7481276214258
 21
2149.592373324487
 31
0.0
  0
LINE
  5
922A
330
19
100
AcDbEntity
  8
0
100
AcDbLine
 10
938.7481276214257
 20
2151.259039991153
 30
0.0
 11
928.7481276214258
 21
2151.259039991153
 31
0.0
  0
LINE
  5
922B
330
19
100
AcDbEntity
  8
0
100
AcDbLine
 10
898.7481276214257
 20
2149.592373324487
 30
0.0
 11
888.7481276214257
 21
2151.259039991153
 31
0.0
  0
LINE
  5
922C
330
19
100
AcDbEntity
  8
0
100
AcDbLine
 10
888.7481276214257
 20
2151.259039991153
 30
0.0
 11
898.7481276214257
 21
2152.92570665782
 31
0.0
  0
LINE
  5
922D
330
19
100
AcDbEntity
  8
0
100
AcDbLine
 10
888.7481276214257
 20
2151.259039991153
 30
0.0
 11
898.7481276214257
 21
2151.259039991153
 31
0.0
  0
TEXT
  5
922E
330
19
100
AcDbEntity
  8
0
100
AcDbText
 10
857.2681276214257
 20
2155.259039991153
 30
0.0
 40
10.8
  1
50
 41
0.8
  7
y-4
100
AcDbText
  0
LINE
  5
922F
330
19
100
AcDbEntity
  8
0
100
AcDbLine
 10
878.7481276214258
 20
2152.92570665782
 30
0.0
 11
888.7481276214257
 21
2151.259039991153
 31
0.0
  0
LINE
  5
9230
330
19
100
AcDbEntity
  8
0
100
AcDbLine
 10
888.7481276214257
 20
2151.259039991153
 30
0.0
 11
878.7481276214258
 21
2149.592373324487
 31
0.0
  0
LINE
  5
9231
330
19
100
AcDbEntity
  8
0
100
AcDbLine
 10
888.7481276214257
 20
2151.259039991153
 30
0.0
 11
878.7481276214258
 21
2151.259039991153
 31
0.0
  0
LINE
  5
9232
330
19
100
AcDbEntity
  8
0
100
AcDbLine
 10
848.7481276214257
 20
2149.592373324487
 30
0.0
 11
838.7481276214257
 21
2151.259039991153
 31
0.0
  0
LINE
  5
9233
330
19
100
AcDbEntity
  8
0
100
AcDbLine
 10
838.7481276214257
 20
2151.259039991153
 30
0.0
 11
848.7481276214257
 21
2152.92570665782
 31
0.0
  0
LINE
  5
9234
330
19
100
AcDbEntity
  8
0
100
AcDbLine
 10
838.7481276214257
 20
2151.259039991153
 30
0.0
 11
848.7481276214257
 21
2151.259039991153
 31
0.0
  0
LINE
  5
9235
330
19
100
AcDbEntity
  8
0
100
AcDbLine
 10
508.6972512939734
 20
2227.749652667486
 30
0.0
 11
524.4383842861334
 21
2290.064759130995
 31
0.0
1001
ACAD
1000
DSTYLE
1002
{
1070
   147
1040
1.0
1070
    77
1070
     0
1002
}
  0
LINE
  5
9236
330
19
100
AcDbEntity
  8
0
100
AcDbLine
 10
524.4383842861334
 20
2290.064759130995
 30
0.0
 11
528.6712017825229
 21
2290.064759130995
 31
0.0
1001
ACAD
1000
DSTYLE
1002
{
1070
   147
1040
1.0
1070
    77
1070
     0
1002
}
  0
LINE
  5
9237
330
19
100
AcDbEntity
  8
0
100
AcDbLine
 10
510.3131599928911
 20
2227.341465388728
 30
0.0
 11
506.2481276214257
 21
2218.054200473979
 31
0.0
  0
LINE
  5
9238
330
19
100
AcDbEntity
  8
0
100
AcDbLine
 10
506.2481276214257
 20
2218.054200473979
 30
0.0
 11
507.0813425950557
 21
2228.157839946243
 31
0.0
  0
LINE
  5
9239
330
19
100
AcDbEntity
  8
0
100
AcDbLine
 10
506.2481276214257
 20
2218.054200473979
 30
0.0
 11
508.6972512939734
 21
2227.749652667486
 31
0.0
  0
TEXT
  5
923A
330
19
100
AcDbEntity
  8
0
100
AcDbText
 10
737.5848544109449
 20
2172.15420047398
 30
0.0
 40
10.8
  1
35
 50
90.0
 41
0.8
  7
y-4
100
AcDbText
  0
LINE
  5
923B
330
19
100
AcDbEntity
  8
0
100
AcDbLine
 10
743.2515210776118
 20
2210.554200473979
 30
0.0
 11
741.5848544109452
 21
2200.554200473979
 31
0.0
  0
LINE
  5
923C
330
19
100
AcDbEntity
  8
0
100
AcDbLine
 10
741.5848544109452
 20
2200.554200473979
 30
0.0
 11
739.9181877442786
 21
2210.554200473979
 31
0.0
  0
LINE
  5
923D
330
19
100
AcDbEntity
  8
0
100
AcDbLine
 10
741.5848544109452
 20
2200.554200473979
 30
0.0
 11
741.5848544109452
 21
2210.554200473979
 31
0.0
  0
LINE
  5
923E
330
19
100
AcDbEntity
  8
0
100
AcDbLine
 10
739.9181877442786
 20
2225.554200473979
 30
0.0
 11
741.5848544109452
 21
2235.554200473979
 31
0.0
  0
LINE
  5
923F
330
19
100
AcDbEntity
  8
0
100
AcDbLine
 10
741.5848544109452
 20
2235.554200473979
 30
0.0
 11
743.2515210776118
 21
2225.554200473979
 31
0.0
  0
LINE
  5
9240
330
19
100
AcDbEntity
  8
0
100
AcDbLine
 10
741.5848544109452
 20
2235.554200473979
 30
0.0
 11
741.5848544109452
 21
2225.554200473979
 31
0.0
  0
TEXT
  5
9241
330
19
100
AcDbEntity
  8
0
100
AcDbText
 10
1020.405037809334
 20
2206.534200473979
 30
0.0
 40
10.8
  1
41.2
 50
90.0
 41
0.8
  7
y-4
100
AcDbText
  0
LINE
  5
9242
330
19
100
AcDbEntity
  8
0
100
AcDbLine
 10
1026.071704476001
 20
2207.454200473979
 30
0.0
 11
1024.405037809334
 21
2197.454200473979
 31
0.0
  0
LINE
  5
9243
330
19
100
AcDbEntity
  8
0
100
AcDbLine
 10
1024.405037809334
 20
2197.454200473979
 30
0.0
 11
1022.738371142668
 21
2207.454200473979
 31
0.0
  0
LINE
  5
9244
330
19
100
AcDbEntity
  8
0
100
AcDbLine
 10
1024.405037809334
 20
2197.454200473979
 30
0.0
 11
1024.405037809334
 21
2207.454200473979
 31
0.0
  0
LINE
  5
9245
330
19
100
AcDbEntity
  8
0
100
AcDbLine
 10
1022.738371142668
 20
2228.654200473979
 30
0.0
 11
1024.405037809334
 21
2238.654200473979
 31
0.0
  0
LINE
  5
9246
330
19
100
AcDbEntity
  8
0
100
AcDbLine
 10
1024.405037809334
 20
2238.654200473979
 30
0.0
 11
1026.071704476001
 21
2228.654200473979
 31
0.0
  0
LINE
  5
9247
330
19
100
AcDbEntity
  8
0
100
AcDbLine
 10
1024.405037809334
 20
2238.654200473979
 30
0.0
 11
1024.405037809334
 21
2228.654200473979
 31
0.0
  0
LINE
  5
9248
330
19
100
AcDbEntity
  8
0
100
AcDbLine
 10
924.3083777116456
 20
2472.787303984213
 30
0.0
 11
951.4342154252863
 21
2401.588777845616
 31
0.0
1001
ACAD
1000
DSTYLE
1002
{
1070
   147
1040
1.0
1070
    77
1070
     0
1002
}
  0
LINE
  5
9249
330
19
100
AcDbEntity
  8
0
100
AcDbLine
 10
951.4342154252863
 20
2401.588777845616
 30
0.0
 11
966.8791564737439
 21
2401.588777845616
 31
0.0
1001
ACAD
1000
DSTYLE
1002
{
1070
   147
1040
1.0
1070
    77
1070
     0
1002
}
  0
LINE
  5
924A
330
19
100
AcDbEntity
  8
0
100
AcDbLine
 10
922.7509169996828
 20
2472.193928969176
 30
0.0
 11
920.7481276214258
 21
2482.13206825599
 31
0.0
  0
LINE
  5
924B
330
19
100
AcDbEntity
  8
0
100
AcDbLine
 10
920.7481276214258
 20
2482.13206825599
 30
0.0
 11
925.8658384236085
 21
2473.380678999249
 31
0.0
  0
LINE
  5
924C
330
19
100
AcDbEntity
  8
0
100
AcDbLine
 10
920.7481276214258
 20
2482.13206825599
 30
0.0
 11
924.3083777116456
 21
2472.787303984213
 31
0.0
  0
ENDSEC
  0
SECTION
  2
OBJECTS
  0
DICTIONARY
  5
C
330
0
100
AcDbDictionary
281
     1
  3
ACAD_COLOR
350
55A0
  3
ACAD_GROUP
350
D
  3
ACAD_LAYOUT
350
4423
  3
ACAD_MATERIAL
350
559F
  3
ACAD_MLINESTYLE
350
E
  3
ACAD_PLOTSETTINGS
350
4424
  3
ACAD_PLOTSTYLENAME
350
4421
  3
AcadDim
350
857C
  3
ACDBHEADERROUNDTRIPXREC
350
9258
  3
AcDbVariableDictionary
350
90C9
  3
DWGPROPS
350
9257
  0
DICTIONARY
  5
5CEB
330
2
100
AcDbDictionary
280
     1
281
     1
  3
ACAD_LAYERSTATES
360
5CEC
  0
DICTIONARY
  5
55A0
102
{ACAD_REACTORS
330
C
102
}
330
C
100
AcDbDictionary
281
     1
  0
DICTIONARY
  5
D
102
{ACAD_REACTORS
330
C
102
}
330
C
100
AcDbDictionary
281
     1
  3
*A1
350
562A
  0
DICTIONARY
  5
4423
102
{ACAD_REACTORS
330
C
102
}
330
C
100
AcDbDictionary
281
     1
  3
Model
350
4425
  3
ﾚｲｱｳﾄ1
350
4426
  0
DICTIONARY
  5
559F
102
{ACAD_REACTORS
330
C
102
}
330
C
100
AcDbDictionary
281
     1
  0
DICTIONARY
  5
E
102
{ACAD_REACTORS
330
C
102
}
330
C
100
AcDbDictionary
281
     1
  3
STANDARD
350
1C
  0
DICTIONARY
  5
4424
102
{ACAD_REACTORS
330
C
102
}
330
C
100
AcDbDictionary
281
     1
  0
ACDBDICTIONARYWDFLT
  5
4421
102
{ACAD_REACTORS
330
C
102
}
330
C
100
AcDbDictionary
281
     1
  3
Normal
350
4422
100
AcDbDictionaryWithDefault
340
4422
  0
XRECORD
  5
857C
102
{ACAD_REACTORS
330
C
102
}
330
C
100
AcDbXrecord
280
     1
 90
   990106
  3

 60
     0
 61
     0
 62
     1
 63
     3
 64
     0
 65
     0
 66
     0
 67
     3
 68
     1
 69
     0
 70
     0
 71
     0
 72
     0
 40
0.0
170
     0
340
8D6E
  0
DICTIONARY
  5
9258
102
{ACAD_REACTORS
330
C
102
}
330
C
100
AcDbDictionary
281
     1
  3
COLORDICT
350
925A
  3
MATERIALDICT
350
9259
  0
DICTIONARY
  5
90C9
102
{ACAD_REACTORS
330
C
102
}
330
C
100
AcDbDictionary
281
     1
  3
DIMASSOC
350
90CA
  3
PROJECTNAME
350
90CB
  0
XRECORD
  5
9257
102
{ACAD_REACTORS
330
C
102
}
330
C
100
AcDbXrecord
280
     1
  1
DWGPROPS COOKIE
  2

  3

  4

  6

  7

  8

  9

300
=
301
=
302
=
303
=
304
=
305
=
306
=
307
=
308
=
309
=
 40
2.175425983796296
 41
2450571.401945833
 42
2458456.701972292
  1

 90
        0
  0
DICTIONARY
  5
5CEC
102
{ACAD_REACTORS
330
5CEB
102
}
330
5CEB
100
AcDbDictionary
281
     1
  0
GROUP
  5
562A
102
{ACAD_REACTORS
330
D
102
}
330
D
100
AcDbGroup
300

 70
     1
 71
     1
  0
LAYOUT
  5
4425
102
{ACAD_XDICTIONARY
360
925B
102
}
102
{ACAD_REACTORS
330
4423
102
}
330
4423
100
AcDbPlotSettings
  1

  2
HONSYAPRT41.pc3
  4
A3
  6
OLE1
 40
5.873749732971191
 41
5.873747825622558
 42
5.70440673828125
 43
5.873748779296875
 44
296.9259948730469
 45
420.1159973144531
 46
1.959999999999999
 47
2.169999999999999
 48
0.0
 49
0.0
140
0.0
141
0.0
142
1.0
143
5.0
 70
 11940
 72
     1
 73
     1
 74
     1
  7
aclt.ctb
 75
     0
147
0.2
148
0.0924438080628534
149
0.064392711135497
100
AcDbLayout
  1
Model
 70
     1
 71
     0
 10
0.0
 20
0.0
 11
12.0
 21
9.0
 12
0.0
 22
0.0
 32
0.0
 14
0.0
 24
0.0
 34
0.0
 15
0.0
 25
0.0
 35
0.0
146
0.0
 13
0.0
 23
0.0
 33
0.0
 16
1.0
 26
0.0
 36
0.0
 17
0.0
 27
1.0
 37
0.0
 76
     0
330
19
  0
LAYOUT
  5
4426
102
{ACAD_XDICTIONARY
360
925D
102
}
102
{ACAD_REACTORS
330
4423
102
}
330
4423
100
AcDbPlotSettings
  1

  2
FUJITSU XL-5310
  4

  6

 40
0.0
 41
0.0
 42
0.0
 43
0.0
 44
0.0
 45
0.0
 46
0.0
 47
0.0
 48
0.0
 49
0.0
140
0.0
141
0.0
142
1.0
143
1.0
 70
   688
 72
     0
 73
     0
 74
     5
  7
aclt.ctb
 75
    16
147
1.0
148
0.0
149
0.0
100
AcDbLayout
  1
ﾚｲｱｳﾄ1
 70
     1
 71
     1
 10
0.0
 20
0.0
 11
12.0
 21
9.0
 12
0.0
 22
0.0
 32
0.0
 14
1.000000000000000E+20
 24
1.000000000000000E+20
 34
1.000000000000000E+20
 15
-1.000000000000000E+20
 25
-1.000000000000000E+20
 35
-1.000000000000000E+20
146
0.0
 13
0.0
 23
0.0
 33
0.0
 16
1.0
 26
0.0
 36
0.0
 17
0.0
 27
1.0
 37
0.0
 76
     0
330
16
  0
MLINESTYLE
  5
1C
102
{ACAD_REACTORS
330
E
102
}
330
E
100
AcDbMlineStyle
  2
STANDARD
 70
     0
  3

 62
     0
 51
90.0
 52
90.0
 71
     2
 49
0.5
 62
   256
  6
BYLAYER
 49
-0.5
 62
   256
  6
BYLAYER
  0
ACDBPLACEHOLDER
  5
4422
102
{ACAD_REACTORS
330
4421
102
}
330
4421
  0
XRECORD
  5
925A
102
{ACAD_REACTORS
330
9258
102
}
330
9258
100
AcDbXrecord
280
     1
340
55A0
  0
XRECORD
  5
9259
102
{ACAD_REACTORS
330
9258
102
}
330
9258
100
AcDbXrecord
280
     1
340
559F
  0
DICTIONARYVAR
  5
90CA
102
{ACAD_REACTORS
330
90C9
102
}
330
90C9
100
DictionaryVariables
280
     0
  1
1
  0
DICTIONARYVAR
  5
90CB
102
{ACAD_REACTORS
330
90C9
102
}
330
90C9
100
DictionaryVariables
280
     0
  1

  0
DICTIONARY
  5
925B
330
4425
100
AcDbDictionary
280
     1
281
     1
  3
ACAD_XREC_ROUNDTRIP
360
925C
  0
DICTIONARY
  5
925D
330
4426
100
AcDbDictionary
280
     1
281
     1
  3
ACAD_XREC_ROUNDTRIP
360
925E
  0
XRECORD
  5
925C
102
{ACAD_REACTORS
330
925B
102
}
330
925B
100
AcDbXrecord
280
     1
102
SHADEPLOT
 70
     0
102
SHADEPLOTRESLEVEL
 70
     2
102
SHADEPLOTCUSTOMDPI
 70
   300
  0
XRECORD
  5
925E
102
{ACAD_REACTORS
330
925D
102
}
330
925D
100
AcDbXrecord
280
     1
102
SHADEPLOT
 70
     0
102
SHADEPLOTRESLEVEL
 70
     2
102
SHADEPLOTCUSTOMDPI
 70
   300
  0
ENDSEC
  0
EOF
