  0
SECTION
  2
HEADER
  9
$ACADVER
  1
AC1018
  9
$ACADMAINTVER
 70
   104
  9
$DWGCODEPAGE
  3
ANSI_932
  9
$LASTSAVEDBY
  1
設計　金田
  9
$INSBASE
 10
0.0
 20
0.0
 30
0.0
  9
$EXTMIN
 10
9765.834311945212
 20
16879.29564893371
 30
-0.0000000000000058
  9
$EXTMAX
 10
13967.51080789268
 20
19850.61865666525
 30
0.0000000000000104
  9
$LIMMIN
 10
0.0
 20
0.0
  9
$LIMMAX
 10
420.0
 20
297.0
  9
$ORTHOMODE
 70
     1
  9
$REGENMODE
 70
     1
  9
$FILLMODE
 70
     1
  9
$QTEXTMODE
 70
     0
  9
$MIRRTEXT
 70
     0
  9
$LTSCALE
 40
0.1
  9
$ATTMODE
 70
     1
  9
$TEXTSIZE
 40
2.5
  9
$TRACEWID
 40
1.0
  9
$TEXTSTYLE
  7
Standard
  9
$CLAYER
  8
0
  9
$CELTYPE
  6
ByLayer
  9
$CECOLOR
 62
   256
  9
$CELTSCALE
 40
1.0
  9
$DISPSILH
 70
     0
  9
$DIMSCALE
 40
10.0
  9
$DIMASZ
 40
1.0
  9
$DIMEXO
 40
3.0
  9
$DIMDLI
 40
7.0
  9
$DIMRND
 40
0.0
  9
$DIMDLE
 40
0.0
  9
$DIMEXE
 40
2.0
  9
$DIMTP
 40
0.0
  9
$DIMTM
 40
0.0
  9
$DIMTXT
 40
2.7
  9
$DIMCEN
 40
0.0
  9
$DIMTSZ
 40
0.0
  9
$DIMTOL
 70
     0
  9
$DIMLIM
 70
     0
  9
$DIMTIH
 70
     0
  9
$DIMTOH
 70
     0
  9
$DIMSE1
 70
     0
  9
$DIMSE2
 70
     0
  9
$DIMTAD
 70
     1
  9
$DIMZIN
 70
     8
  9
$DIMBLK
  1
OPEN
  9
$DIMASO
 70
     1
  9
$DIMSHO
 70
     1
  9
$DIMPOST
  1

  9
$DIMAPOST
  1

  9
$DIMALT
 70
     0
  9
$DIMALTD
 70
     2
  9
$DIMALTF
 40
25.4
  9
$DIMLFAC
 40
1.0
  9
$DIMTOFL
 70
     1
  9
$DIMTVP
 40
0.0
  9
$DIMTIX
 70
     1
  9
$DIMSOXD
 70
     0
  9
$DIMSAH
 70
     0
  9
$DIMBLK1
  1

  9
$DIMBLK2
  1

  9
$DIMSTYLE
  2
y-10
  9
$DIMCLRD
 70
     4
  9
$DIMCLRE
 70
     4
  9
$DIMCLRT
 70
     3
  9
$DIMTFAC
 40
1.0
  9
$DIMGAP
 40
1.0
  9
$DIMJUST
 70
     0
  9
$DIMSD1
 70
     0
  9
$DIMSD2
 70
     0
  9
$DIMTOLJ
 70
     1
  9
$DIMTZIN
 70
     0
  9
$DIMALTZ
 70
     0
  9
$DIMALTTZ
 70
     0
  9
$DIMUPT
 70
     0
  9
$DIMDEC
 70
     3
  9
$DIMTDEC
 70
     3
  9
$DIMALTU
 70
     2
  9
$DIMALTTD
 70
     2
  9
$DIMTXSTY
  7
Standard
  9
$DIMAUNIT
 70
     0
  9
$DIMADEC
 70
     3
  9
$DIMALTRND
 40
0.0
  9
$DIMAZIN
 70
     2
  9
$DIMDSEP
 70
    46
  9
$DIMATFIT
 70
     0
  9
$DIMFRAC
 70
     0
  9
$DIMLDRBLK
  1
OPEN
  9
$DIMLUNIT
 70
     2
  9
$DIMLWD
 70
    -2
  9
$DIMLWE
 70
    -2
  9
$DIMTMOVE
 70
     0
  9
$LUNITS
 70
     2
  9
$LUPREC
 70
     4
  9
$SKETCHINC
 40
1.0
  9
$FILLETRAD
 40
4.0
  9
$AUNITS
 70
     0
  9
$AUPREC
 70
     0
  9
$MENU
  1
.
  9
$ELEVATION
 40
0.0
  9
$PELEVATION
 40
0.0
  9
$THICKNESS
 40
0.0
  9
$LIMCHECK
 70
     0
  9
$CHAMFERA
 40
0.0
  9
$CHAMFERB
 40
0.0
  9
$CHAMFERC
 40
0.0
  9
$CHAMFERD
 40
0.0
  9
$SKPOLY
 70
     0
  9
$TDCREATE
 40
2456364.451757442
  9
$TDUCREATE
 40
2456364.076757442
  9
$TDUPDATE
 40
2458457.732076053
  9
$TDUUPDATE
 40
2458457.357076053
  9
$TDINDWG
 40
0.6668815625
  9
$TDUSRTIMER
 40
0.6668815625
  9
$USRTIMER
 70
     1
  9
$ANGBASE
 50
0.0
  9
$ANGDIR
 70
     0
  9
$PDMODE
 70
     0
  9
$PDSIZE
 40
0.0
  9
$PLINEWID
 40
0.0
  9
$SPLFRAME
 70
     0
  9
$SPLINETYPE
 70
     6
  9
$SPLINESEGS
 70
     8
  9
$HANDSEED
  5
3459D
  9
$SURFTAB1
 70
     6
  9
$SURFTAB2
 70
     6
  9
$SURFTYPE
 70
     6
  9
$SURFU
 70
     6
  9
$SURFV
 70
     6
  9
$UCSBASE
  2

  9
$UCSNAME
  2

  9
$UCSORG
 10
0.0
 20
0.0
 30
0.0
  9
$UCSXDIR
 10
1.0
 20
0.0
 30
0.0
  9
$UCSYDIR
 10
0.0
 20
1.0
 30
0.0
  9
$UCSORTHOREF
  2

  9
$UCSORTHOVIEW
 70
     0
  9
$UCSORGTOP
 10
0.0
 20
0.0
 30
0.0
  9
$UCSORGBOTTOM
 10
0.0
 20
0.0
 30
0.0
  9
$UCSORGLEFT
 10
0.0
 20
0.0
 30
0.0
  9
$UCSORGRIGHT
 10
0.0
 20
0.0
 30
0.0
  9
$UCSORGFRONT
 10
0.0
 20
0.0
 30
0.0
  9
$UCSORGBACK
 10
0.0
 20
0.0
 30
0.0
  9
$PUCSBASE
  2

  9
$PUCSNAME
  2

  9
$PUCSORG
 10
0.0
 20
0.0
 30
0.0
  9
$PUCSXDIR
 10
1.0
 20
0.0
 30
0.0
  9
$PUCSYDIR
 10
0.0
 20
1.0
 30
0.0
  9
$PUCSORTHOREF
  2

  9
$PUCSORTHOVIEW
 70
     0
  9
$PUCSORGTOP
 10
0.0
 20
0.0
 30
0.0
  9
$PUCSORGBOTTOM
 10
0.0
 20
0.0
 30
0.0
  9
$PUCSORGLEFT
 10
0.0
 20
0.0
 30
0.0
  9
$PUCSORGRIGHT
 10
0.0
 20
0.0
 30
0.0
  9
$PUCSORGFRONT
 10
0.0
 20
0.0
 30
0.0
  9
$PUCSORGBACK
 10
0.0
 20
0.0
 30
0.0
  9
$USERI1
 70
     0
  9
$USERI2
 70
     0
  9
$USERI3
 70
     0
  9
$USERI4
 70
     0
  9
$USERI5
 70
     0
  9
$USERR1
 40
0.0
  9
$USERR2
 40
0.0
  9
$USERR3
 40
0.0
  9
$USERR4
 40
0.0
  9
$USERR5
 40
0.0
  9
$WORLDVIEW
 70
     1
  9
$SHADEDGE
 70
     3
  9
$SHADEDIF
 70
    70
  9
$TILEMODE
 70
     1
  9
$MAXACTVP
 70
    64
  9
$PINSBASE
 10
0.0
 20
0.0
 30
0.0
  9
$PLIMCHECK
 70
     0
  9
$PEXTMIN
 10
0.0
 20
0.0
 30
0.0
  9
$PEXTMAX
 10
0.0
 20
0.0
 30
0.0
  9
$PLIMMIN
 10
0.0
 20
0.0
  9
$PLIMMAX
 10
12.0
 20
9.0
  9
$UNITMODE
 70
     0
  9
$VISRETAIN
 70
     1
  9
$PLINEGEN
 70
     0
  9
$PSLTSCALE
 70
     1
  9
$TREEDEPTH
 70
  3020
  9
$CMLSTYLE
  2
Standard
  9
$CMLJUST
 70
     0
  9
$CMLSCALE
 40
20.0
  9
$PROXYGRAPHICS
 70
     1
  9
$MEASUREMENT
 70
     1
  9
$CELWEIGHT
370
    -1
  9
$ENDCAPS
280
     0
  9
$JOINSTYLE
280
     0
  9
$LWDISPLAY
290
     0
  9
$INSUNITS
 70
     4
  9
$HYPERLINKBASE
  1

  9
$STYLESHEET
  1

  9
$XEDIT
290
     1
  9
$CEPSNTYPE
380
     0
  9
$PSTYLEMODE
290
     1
  9
$FINGERPRINTGUID
  2
{048D7377-A980-11D2-9A39-0060089B3A3F}
  9
$VERSIONGUID
  2
{813F6529-7146-4587-BD7D-86F0D5C2FD24}
  9
$EXTNAMES
290
     1
  9
$PSVPSCALE
 40
0.0
  9
$OLESTARTUP
290
     0
  9
$SORTENTS
280
   127
  9
$INDEXCTL
280
     0
  9
$HIDETEXT
280
     0
  9
$XCLIPFRAME
290
     0
  9
$HALOGAP
280
     0
  9
$OBSCOLOR
 70
   257
  9
$OBSLTYPE
280
     0
  9
$INTERSECTIONDISPLAY
280
     0
  9
$INTERSECTIONCOLOR
 70
   257
  9
$DIMASSOC
280
     1
  9
$PROJECTNAME
  1

  0
ENDSEC
  0
SECTION
  2
CLASSES
  0
CLASS
  1
ACDBDICTIONARYWDFLT
  2
AcDbDictionaryWithDefault
  3
ObjectDBX Classes
 90
        0
 91
        1
280
     0
281
     0
  0
CLASS
  1
PLOTSETTINGS
  2
AcDbPlotSettings
  3
ObjectDBX Classes
 90
        0
 91
        0
280
     0
281
     0
  0
CLASS
  1
DICTIONARYVAR
  2
AcDbDictionaryVar
  3
ObjectDBX Classes
 90
        0
 91
        9
280
     0
281
     0
  0
CLASS
  1
SORTENTSTABLE
  2
AcDbSortentsTable
  3
ObjectDBX Classes
 90
        0
 91
        2
280
     0
281
     0
  0
CLASS
  1
DIMASSOC
  2
AcDbDimAssoc
  3
"AcDbDimAssoc|Product Desc:     AcDim ARX App For Dimension|Company:          Autodesk, Inc.|WEB Address:      www.autodesk.com"
 90
        0
 91
        0
280
     0
281
     0
  0
CLASS
  1
MATERIAL
  2
AcDbMaterial
  3
ObjectDBX Classes
 90
     1153
 91
        3
280
     0
281
     0
  0
CLASS
  1
VISUALSTYLE
  2
AcDbVisualStyle
  3
ObjectDBX Classes
 90
     4095
 91
       24
280
     0
281
     0
  0
CLASS
  1
TABLESTYLE
  2
AcDbTableStyle
  3
ObjectDBX Classes
 90
     4095
 91
        1
280
     0
281
     0
  0
CLASS
  1
SCALE
  2
AcDbScale
  3
ObjectDBX Classes
 90
     1153
 91
       17
280
     0
281
     0
  0
CLASS
  1
MLEADERSTYLE
  2
AcDbMLeaderStyle
  3
ACDB_MLEADERSTYLE_CLASS
 90
     4095
 91
        1
280
     0
281
     0
  0
CLASS
  1
ACDBSECTIONVIEWSTYLE
  2
AcDbSectionViewStyle
  3
ObjectDBX Classes
 90
     1025
 91
        1
280
     0
281
     0
  0
CLASS
  1
ACDBDETAILVIEWSTYLE
  2
AcDbDetailViewStyle
  3
ObjectDBX Classes
 90
     1025
 91
        1
280
     0
281
     0
  0
CLASS
  1
CELLSTYLEMAP
  2
AcDbCellStyleMap
  3
ObjectDBX Classes
 90
     1152
 91
        2
280
     0
281
     0
  0
ENDSEC
  0
SECTION
  2
TABLES
  0
TABLE
  2
VPORT
  5
19
102
{ACAD_XDICTIONARY
360
2E535
102
}
330
0
100
AcDbSymbolTable
 70
     1
  0
VPORT
  5
344AD
330
19
100
AcDbSymbolTableRecord
100
AcDbViewportTableRecord
  2
*Active
 70
     0
 10
0.0
 20
0.0
 11
1.0
 21
1.0
 12
11866.67255991895
 22
18364.95715279948
 13
0.0
 23
0.0
 14
10.0
 24
10.0
 15
10.0
 25
10.0
 16
0.0
 26
0.0
 36
1.0
 17
0.0
 27
0.0
 37
0.0
 40
2990.309097237819
 41
1.866737739872068
 42
50.0
 43
0.0
 44
0.0
 50
0.0
 51
0.0
 71
     0
 72
  1000
 73
     1
 74
     3
 75
     0
 76
     0
 77
     0
 78
     1
281
     0
 65
     1
110
0.0
120
0.0
130
0.0
111
1.0
121
0.0
131
0.0
112
0.0
122
1.0
132
0.0
 79
     0
146
0.0
1001
ACAD_NAV_VCDISPLAY
1070
     3
  0
ENDTAB
  0
TABLE
  2
LTYPE
  5
14
330
0
100
AcDbSymbolTable
 70
    14
  0
LTYPE
  5
15
330
14
100
AcDbSymbolTableRecord
100
AcDbLinetypeTableRecord
  2
ByBlock
 70
     0
  3

 72
    65
 73
     0
 40
0.0
  0
LTYPE
  5
16
330
14
100
AcDbSymbolTableRecord
100
AcDbLinetypeTableRecord
  2
ByLayer
 70
     0
  3

 72
    65
 73
     0
 40
0.0
  0
LTYPE
  5
8
330
14
100
AcDbSymbolTableRecord
100
AcDbLinetypeTableRecord
  2
Continuous
 70
     0
  3
Solid line
 72
    65
 73
     0
 40
0.0
  0
LTYPE
  5
186
330
14
100
AcDbSymbolTableRecord
100
AcDbLinetypeTableRecord
  2
PHANTOM
 70
     0
  3
Phantom ______  __  __  ______  __  __  ______
 72
    65
 73
     6
 40
63.5
 49
31.75
 74
     0
 49
-6.349999999999999
 74
     0
 49
6.349999999999999
 74
     0
 49
-6.349999999999999
 74
     0
 49
6.349999999999999
 74
     0
 49
-6.349999999999999
 74
     0
  0
ENDTAB
  0
TABLE
  2
LAYER
  5
10
102
{ACAD_XDICTIONARY
360
988
102
}
330
0
100
AcDbSymbolTable
 70
    15
  0
LAYER
  5
4
102
{ACAD_XDICTIONARY
360
2E50F
102
}
330
10
100
AcDbSymbolTableRecord
100
AcDbLayerTableRecord
  2
0
 70
     0
 62
     7
  6
Continuous
370
    -3
390
5
  0
LAYER
  5
188
330
10
100
AcDbSymbolTableRecord
100
AcDbLayerTableRecord
  2
DEFPOINTS
 70
     0
 62
     7
  6
Continuous
290
     0
370
    -3
390
5
  0
ENDTAB
  0
TABLE
  2
STYLE
  5
11
330
0
100
AcDbSymbolTable
 70
     2
  0
STYLE
  5
12
330
11
100
AcDbSymbolTableRecord
100
AcDbTextStyleTableRecord
  2
Standard
 70
     0
 40
0.0
 41
0.8
 50
0.0
 71
     0
 42
2.5
  3
isocp.shx
  4
bigfont.shx
  0
ENDTAB
  0
TABLE
  2
VIEW
  5
17
330
0
100
AcDbSymbolTable
 70
     0
  0
ENDTAB
  0
TABLE
  2
UCS
  5
18
330
0
100
AcDbSymbolTable
 70
     0
  0
ENDTAB
  0
TABLE
  2
APPID
  5
1B
330
0
100
AcDbSymbolTable
 70
    10
  0
APPID
  5
1C
330
1B
100
AcDbSymbolTableRecord
100
AcDbRegAppTableRecord
  2
ACAD
 70
     0
  0
APPID
  5
AB6A
330
1B
100
AcDbSymbolTableRecord
100
AcDbRegAppTableRecord
  2
ACAD_PSEXT
 70
     0
  0
APPID
  5
AB6B
330
1B
100
AcDbSymbolTableRecord
100
AcDbRegAppTableRecord
  2
AcadAnnotative
 70
     0
  0
APPID
  5
2DB3C
330
1B
100
AcDbSymbolTableRecord
100
AcDbRegAppTableRecord
  2
ACAD_NAV_VCDISPLAY
 70
     0
  0
APPID
  5
2DB3D
330
1B
100
AcDbSymbolTableRecord
100
AcDbRegAppTableRecord
  2
ACAD_EXEMPT_FROM_CAD_STANDARDS
 70
     0
  0
APPID
  5
2E5E2
330
1B
100
AcDbSymbolTableRecord
100
AcDbRegAppTableRecord
  2
ACAD_MLEADERVER
 70
     0
  0
APPID
  5
2E5FC
330
1B
100
AcDbSymbolTableRecord
100
AcDbRegAppTableRecord
  2
ACAD_DSTYLE_DIMJAG
 70
     0
  0
APPID
  5
2E5FD
330
1B
100
AcDbSymbolTableRecord
100
AcDbRegAppTableRecord
  2
ACAD_DSTYLE_DIMTALN
 70
     0
  0
APPID
  5
2FE22
330
1B
100
AcDbSymbolTableRecord
100
AcDbRegAppTableRecord
  2
AcAecLayerStandard
 70
     0
  0
APPID
  5
2FE23
330
1B
100
AcDbSymbolTableRecord
100
AcDbRegAppTableRecord
  2
AcCmTransparency
 70
     0
  0
ENDTAB
  0
TABLE
  2
DIMSTYLE
  5
1D
330
0
100
AcDbSymbolTable
 70
    12
100
AcDbDimStyleTable
 71
     1
340
196
  0
DIMSTYLE
105
196
330
1D
100
AcDbSymbolTableRecord
100
AcDbDimStyleTableRecord
  2
y-10
 70
     0
 40
10.0
 41
1.0
 42
3.0
 43
7.0
 44
2.0
 73
     0
 74
     0
 77
     1
 78
     8
 79
     2
140
2.7
141
0.0
147
1.0
172
     1
174
     1
176
     4
177
     4
178
     3
179
     3
271
     3
272
     3
289
     0
340
12
341
105
342
105
  0
DIMSTYLE
105
31EE
330
1D
100
AcDbSymbolTableRecord
100
AcDbDimStyleTableRecord
  2
STANDARD
 70
     0
 41
2.5
 42
0.5
 43
8.0
 44
1.0
 77
     2
 78
     8
140
3.2
141
2.5
143
0.0394
147
0.625
279
     2
340
12
  0
ENDTAB
  0
TABLE
  2
BLOCK_RECORD
  5
1
330
0
100
AcDbSymbolTable
 70
    35
  0
BLOCK_RECORD
  5
2
102
{ACAD_XDICTIONARY
360
2DD28
102
}
330
1
100
AcDbSymbolTableRecord
100
AcDbBlockTableRecord
  2
*Model_Space
340
A
  0
BLOCK_RECORD
  5
2F49B
330
1
100
AcDbSymbolTableRecord
100
AcDbBlockTableRecord
  2
*Paper_Space
340
2F49C
  0
BLOCK_RECORD
  5
105
330
1
100
AcDbSymbolTableRecord
100
AcDbBlockTableRecord
  2
_OPEN
340
0
102
{BLKREFS
102
}
  0
ENDTAB
  0
ENDSEC
  0
SECTION
  2
BLOCKS
  0
BLOCK
  5
3
330
2
100
AcDbEntity
  8
0
100
AcDbBlockBegin
  2
*Model_Space
 70
     2
 10
0.0
 20
0.0
 30
0.0
  3
*Model_Space
  1

  0
ENDBLK
  5
9
330
2
100
AcDbEntity
  8
0
100
AcDbBlockEnd
  0
BLOCK
  5
2F49D
330
2F49B
100
AcDbEntity
 67
     1
  8
0
100
AcDbBlockBegin
  2
*Paper_Space
 70
     0
 10
0.0
 20
0.0
 30
0.0
  3
*Paper_Space
  1

  0
ENDBLK
  5
2F49E
330
2F49B
100
AcDbEntity
 67
     1
  8
0
100
AcDbBlockEnd
  0
BLOCK
  5
106
330
105
100
AcDbEntity
  8
0
100
AcDbBlockBegin
  2
_OPEN
 70
     0
 10
0.0
 20
0.0
 30
0.0
  3
_OPEN
  1

  0
LINE
  5
107
330
105
100
AcDbEntity
  8
0
  6
ByBlock
 62
     0
100
AcDbLine
 10
-1.0
 20
0.1666666666666666
 30
0.0
 11
0.0
 21
0.0
 31
0.0
  0
LINE
  5
108
330
105
100
AcDbEntity
  8
0
  6
ByBlock
 62
     0
100
AcDbLine
 10
0.0
 20
0.0
 30
0.0
 11
-1.0
 21
-0.1666666666666666
 31
0.0
  0
LINE
  5
109
330
105
100
AcDbEntity
  8
0
  6
ByBlock
 62
     0
100
AcDbLine
 10
0.0
 20
0.0
 30
0.0
 11
-1.0
 21
0.0
 31
0.0
  0
ENDBLK
  5
10A
330
105
100
AcDbEntity
  8
0
100
AcDbBlockEnd
  0
ENDSEC
  0
SECTION
  2
ENTITIES
  0
LINE
  5
3022F
330
2
100
AcDbEntity
  8
0
100
AcDbLine
 10
13966.87134469259
 20
19849.70985191796
 30
0.0
 11
13766.87134469259
 21
19849.70985191796
 31
0.0
  0
LINE
  5
30230
330
2
100
AcDbEntity
  8
0
100
AcDbLine
 10
13966.87134469259
 20
19849.70985191796
 30
0.0
 11
13966.87134469259
 21
19649.70985191796
 31
0.0
  0
LINE
  5
30232
330
2
100
AcDbEntity
  8
0
100
AcDbLine
 10
9766.871344692596
 20
19849.70985191796
 30
0.0
 11
9766.871344692596
 21
19649.70985191796
 31
0.0
  0
LINE
  5
30233
330
2
100
AcDbEntity
  8
0
100
AcDbLine
 10
9766.871344692596
 20
19849.70985191796
 30
0.0
 11
9966.871344692595
 21
19849.70985191796
 31
0.0
  0
LINE
  5
30234
330
2
100
AcDbEntity
  8
0
100
AcDbLine
 10
10016.87133469266
 20
19749.7096519179
 30
0.0
 11
13866.87134469259
 21
19749.7096519179
 31
0.0
  0
LINE
  5
3023B
330
2
100
AcDbEntity
  8
0
100
AcDbLine
 10
10016.87133469266
 20
17159.70984191788
 30
0.0
 11
10016.87133469266
 21
16979.70984191788
 31
0.0
  0
LINE
  5
3023C
330
2
100
AcDbEntity
  8
0
100
AcDbLine
 10
12706.87142719264
 20
17259.70984191788
 30
0.0
 11
12706.87142719264
 21
17159.70984191788
 31
0.0
  0
LINE
  5
3023D
330
2
100
AcDbEntity
  8
0
100
AcDbLine
 10
13196.87134469259
 20
17179.70985016795
 30
0.0
 11
13866.87134469259
 21
17179.70985016795
 31
0.0
  0
LINE
  5
3023E
330
2
100
AcDbEntity
  8
0
100
AcDbLine
 10
13196.87134469259
 20
17099.70985016795
 30
0.0
 11
13866.87134469259
 21
17099.70985016795
 31
0.0
  0
LINE
  5
30240
330
2
100
AcDbEntity
  8
0
100
AcDbLine
 10
12636.87134469259
 20
17209.70984191789
 30
0.0
 11
13016.87159219258
 21
17209.70984191789
 31
0.0
  0
LINE
  5
30241
330
2
100
AcDbEntity
  8
0
100
AcDbLine
 10
13311.87134469259
 20
16999.70984604292
 30
0.0
 11
13341.87134469259
 21
16999.70984604292
 31
0.0
  0
LINE
  5
30242
330
2
100
AcDbEntity
  8
0
100
AcDbLine
 10
13471.87134469259
 20
16999.70984604292
 30
0.0
 11
13501.87134469259
 21
16999.70984604292
 31
0.0
  0
LINE
  5
30243
330
2
100
AcDbEntity
  8
0
100
AcDbLine
 10
13065.06115839027
 20
17209.77663884574
 30
0.0
 11
13189.44115839036
 21
17209.77663884574
 31
0.0
  0
LINE
  5
30244
330
2
100
AcDbEntity
  8
0
100
AcDbLine
 10
13179.72115839028
 20
17190.87663884575
 30
0.0
 11
13179.72115839028
 21
17228.67663884574
 31
0.0
  0
LINE
  5
30245
330
2
100
AcDbEntity
  8
0
100
AcDbLine
 10
13130.58115839038
 20
17198.43663884569
 30
0.0
 11
13130.58115839038
 21
17221.1166388458
 31
0.0
  0
CIRCLE
  5
30246
330
2
100
AcDbEntity
  8
0
100
AcDbCircle
 10
13087.74115839038
 20
17209.77663884574
 30
0.0
 40
11.34
  0
CIRCLE
  5
30247
330
2
100
AcDbEntity
  8
0
100
AcDbCircle
 10
13087.74115839038
 20
17209.77663884574
 30
0.0
 40
18.89999999999997
  0
LINE
  5
30248
330
2
100
AcDbEntity
  8
0
100
AcDbLine
 10
13087.74115839038
 20
17232.45663884571
 30
0.0
 11
13087.74115839038
 21
17187.09663884578
 31
0.0
  0
LINE
  5
30249
330
2
100
AcDbEntity
  8
0
100
AcDbLine
 10
13130.58115839038
 20
17221.1166388458
 30
0.0
 11
13179.72115839028
 21
17228.67663884574
 31
0.0
  0
LINE
  5
3024A
330
2
100
AcDbEntity
  8
0
100
AcDbLine
 10
13130.58115839038
 20
17198.43663884569
 30
0.0
 11
13179.72115839028
 21
17190.87663884575
 31
0.0
  0
LINE
  5
3024B
330
2
100
AcDbEntity
  8
0
100
AcDbLine
 10
12636.87134469259
 20
17159.70984191788
 30
0.0
 11
12636.87134469259
 21
16979.70984191788
 31
0.0
  0
LINE
  5
3024C
330
2
100
AcDbEntity
  8
0
100
AcDbLine
 10
13196.87134469259
 20
17159.70984191788
 30
0.0
 11
12636.87134469259
 21
17159.70984191788
 31
0.0
  0
TEXT
  5
3024D
330
2
100
AcDbEntity
  8
0
100
AcDbText
 10
13177.31180435552
 20
16939.00870878128
 30
0.0
 40
22.0
  1
Ｄｒａｗｉｎｇ　Ｓｈｅｅｔ　Ａ３（２９７ｍｍ\U+00D7４２０ｍｍ）
 41
0.8
100
AcDbText
  0
LINE
  5
3024E
330
2
100
AcDbEntity
  8
0
100
AcDbLine
 10
13966.87134469259
 20
16879.70985191796
 30
0.0
 11
13766.87134469259
 21
16879.70985191796
 31
0.0
  0
LINE
  5
3024F
330
2
100
AcDbEntity
  8
0
100
AcDbLine
 10
13966.87134469259
 20
16879.70985191796
 30
0.0
 11
13966.87134469259
 21
17079.70985191796
 31
0.0
  0
LINE
  5
30250
330
2
100
AcDbEntity
  8
0
100
AcDbLine
 10
9766.871344692596
 20
16879.70985191796
 30
0.0
 11
9966.871344692595
 21
16879.70985191796
 31
0.0
  0
LINE
  5
30251
330
2
100
AcDbEntity
  8
0
100
AcDbLine
 10
9766.871344692596
 20
16879.70985191796
 30
0.0
 11
9766.871344692596
 21
17079.70985191796
 31
0.0
  0
LINE
  5
30252
330
2
100
AcDbEntity
  8
0
100
AcDbLine
 10
10016.87133469266
 20
16979.70984191788
 30
0.0
 11
13866.87134469259
 21
16979.70984191788
 31
0.0
  0
TEXT
  5
30253
330
2
100
AcDbEntity
  8
0
100
AcDbText
 10
12786.78159051178
 20
16993.52185166799
 30
0.0
 40
24.75
  1
日本フォームサービス株式会社
 41
0.9200000000000001
100
AcDbText
  0
LINE
  5
30254
330
2
100
AcDbEntity
  8
0
100
AcDbLine
 10
13110.69407680854
 20
17032.37673574835
 30
0.0
 11
13113.56301430842
 21
17033.88291349833
 31
0.0
  0
LINE
  5
30255
330
2
100
AcDbEntity
  8
0
100
AcDbLine
 10
13104.70465930845
 20
17030.13066499838
 30
0.0
 11
13110.69407680854
 21
17032.37673574835
 31
0.0
  0
LINE
  5
30256
330
2
100
AcDbEntity
  8
0
100
AcDbLine
 10
13098.38070430848
 20
17028.87203674845
 30
0.0
 11
13104.70465930845
 21
17030.13066499838
 31
0.0
  0
LINE
  5
30257
330
2
100
AcDbEntity
  8
0
100
AcDbLine
 10
13091.91443680855
 20
17028.63908974841
 30
0.0
 11
13098.38070430848
 21
17028.87203674845
 31
0.0
  0
LINE
  5
30258
330
2
100
AcDbEntity
  8
0
100
AcDbLine
 10
13085.50220680842
 20
17029.4388942484
 30
0.0
 11
13091.91443680855
 21
17028.63908974841
 31
0.0
  0
LINE
  5
30259
330
2
100
AcDbEntity
  8
0
100
AcDbLine
 10
13079.33887930845
 20
17031.24715399836
 30
0.0
 11
13085.50220680842
 21
17029.4388942484
 31
0.0
  0
LINE
  5
3025A
330
2
100
AcDbEntity
  8
0
100
AcDbLine
 10
13073.61181180848
 20
17034.00892399843
 30
0.0
 11
13079.33887930845
 21
17031.24715399836
 31
0.0
  0
LINE
  5
3025B
330
2
100
AcDbEntity
  8
0
100
AcDbLine
 10
13068.49499680855
 20
17037.64030174842
 30
0.0
 11
13073.61181180848
 21
17034.00892399843
 31
0.0
  0
LINE
  5
3025C
330
2
100
AcDbEntity
  8
0
100
AcDbLine
 10
13064.14386430854
 20
17042.03092699836
 30
0.0
 11
13068.49499680855
 21
17037.64030174842
 31
0.0
  0
LINE
  5
3025D
330
2
100
AcDbEntity
  8
0
100
AcDbLine
 10
13060.69057930854
 20
17047.04741374846
 30
0.0
 11
13064.14386430854
 21
17042.03092699836
 31
0.0
  0
LINE
  5
3025E
330
2
100
AcDbEntity
  8
0
100
AcDbLine
 10
13058.24016430848
 20
17052.53732674837
 30
0.0
 11
13060.69057930854
 21
17047.04741374846
 31
0.0
  0
LINE
  5
3025F
330
2
100
AcDbEntity
  8
0
100
AcDbLine
 10
13056.86695180844
 20
17058.33385924847
 30
0.0
 11
13058.24016430848
 21
17052.53732674837
 31
0.0
  0
LINE
  5
30260
330
2
100
AcDbEntity
  8
0
100
AcDbLine
 10
13056.61285180842
 20
17064.26089024835
 30
0.0
 11
13056.86695180844
 21
17058.33385924847
 31
0.0
  0
LINE
  5
30261
330
2
100
AcDbEntity
  8
0
100
AcDbLine
 10
13057.48545430845
 20
17070.1383304984
 30
0.0
 11
13056.61285180842
 21
17064.26089024835
 31
0.0
  0
LINE
  5
30262
330
2
100
AcDbEntity
  8
0
100
AcDbLine
 10
13059.4581943085
 20
17075.78758399841
 30
0.0
 11
13057.48545430845
 21
17070.1383304984
 31
0.0
  0
LINE
  5
30263
330
2
100
AcDbEntity
  8
0
100
AcDbLine
 10
13062.47125930848
 20
17081.03702599847
 30
0.0
 11
13059.4581943085
 21
17075.78758399841
 31
0.0
  0
LINE
  5
30264
330
2
100
AcDbEntity
  8
0
100
AcDbLine
 10
13066.43307430841
 20
17085.72712624833
 30
0.0
 11
13062.47125930848
 21
17081.03702599847
 31
0.0
  0
LINE
  5
30265
330
2
100
AcDbEntity
  8
0
100
AcDbLine
 10
13071.22318930848
 20
17089.71539899847
 30
0.0
 11
13066.43307430841
 21
17085.72712624833
 31
0.0
  0
LINE
  5
30266
330
2
100
AcDbEntity
  8
0
100
AcDbLine
 10
13076.69607430853
 20
17092.88065999843
 30
0.0
 11
13071.22318930848
 21
17089.71539899847
 31
0.0
  0
LINE
  5
30267
330
2
100
AcDbEntity
  8
0
100
AcDbLine
 10
13082.68557430853
 20
17095.12672249834
 30
0.0
 11
13076.69607430853
 21
17092.88065999843
 31
0.0
  0
LINE
  5
30268
330
2
100
AcDbEntity
  8
0
100
AcDbLine
 10
13089.0095293085
 20
17096.38535074841
 30
0.0
 11
13082.68557430853
 21
17095.12672249834
 31
0.0
  0
LINE
  5
30269
330
2
100
AcDbEntity
  8
0
100
AcDbLine
 10
13095.47579680842
 20
17096.61830599837
 30
0.0
 11
13089.0095293085
 21
17096.38535074841
 31
0.0
  0
LINE
  5
3026A
330
2
100
AcDbEntity
  8
0
100
AcDbLine
 10
13101.88802680841
 20
17095.81850149838
 30
0.0
 11
13095.47579680842
 21
17096.61830599837
 31
0.0
  0
LINE
  5
3026B
330
2
100
AcDbEntity
  8
0
100
AcDbLine
 10
13108.05127180847
 20
17094.01024174842
 30
0.0
 11
13101.88802680841
 21
17095.81850149838
 31
0.0
  0
LINE
  5
3026C
330
2
100
AcDbEntity
  8
0
100
AcDbLine
 10
13113.77833930845
 20
17091.24846349843
 30
0.0
 11
13108.05127180847
 21
17094.01024174842
 31
0.0
  0
ARC
  5
3026D
330
2
100
AcDbEntity
  8
0
100
AcDbCircle
 10
12955.00857430841
 20
17080.15994374839
 30
0.0
 40
17.53125
100
AcDbArc
 50
270.0
 51
90.0
  0
LINE
  5
3026E
330
2
100
AcDbEntity
  8
0
100
AcDbLine
 10
12870.62452180846
 20
17028.09887149846
 30
0.0
 11
12876.35447680845
 21
17027.56619374845
 31
0.0
  0
LINE
  5
3026F
330
2
100
AcDbEntity
  8
0
100
AcDbLine
 10
12865.06872430848
 20
17029.68072649843
 30
0.0
 11
12870.62452180846
 21
17028.09887149846
 31
0.0
  0
LINE
  5
30270
330
2
100
AcDbEntity
  8
0
100
AcDbLine
 10
12859.85579680852
 20
17032.26367774836
 30
0.0
 11
12865.06872430848
 21
17029.68072649843
 31
0.0
  0
LINE
  5
30271
330
2
100
AcDbEntity
  8
0
100
AcDbLine
 10
12855.1441393085
 20
17035.76925949843
 30
0.0
 11
12859.85579680852
 21
17032.26367774836
 31
0.0
  0
LINE
  5
30272
330
2
100
AcDbEntity
  8
0
100
AcDbLine
 10
12851.07705430852
 20
17040.09095599841
 30
0.0
 11
12855.1441393085
 21
17035.76925949843
 31
0.0
  0
LINE
  5
30273
330
2
100
AcDbEntity
  8
0
100
AcDbLine
 10
12847.77787930853
 20
17045.09744374833
 30
0.0
 11
12851.07705430852
 21
17040.09095599841
 31
0.0
  0
LINE
  5
30274
330
2
100
AcDbEntity
  8
0
100
AcDbLine
 10
12845.34709930853
 20
17050.63661749833
 30
0.0
 11
12847.77787930853
 21
17045.09744374833
 31
0.0
  0
LINE
  5
30275
330
2
100
AcDbEntity
  8
0
100
AcDbLine
 10
12843.85838680853
 20
17056.54016074836
 30
0.0
 11
12845.34709930853
 21
17050.63661749833
 31
0.0
  0
LINE
  5
30276
330
2
100
AcDbEntity
  8
0
100
AcDbLine
 10
12843.35711680844
 20
17062.62869374836
 30
0.0
 11
12843.85838680853
 21
17056.54016074836
 31
0.0
  0
LINE
  5
30277
330
2
100
AcDbEntity
  8
0
100
AcDbLine
 10
12843.85838680853
 20
17068.71723499842
 30
0.0
 11
12843.35711680844
 21
17062.62869374836
 31
0.0
  0
LINE
  5
30278
330
2
100
AcDbEntity
  8
0
100
AcDbLine
 10
12845.34709930853
 20
17074.62077824845
 30
0.0
 11
12843.85838680853
 21
17068.71723499842
 31
0.0
  0
LINE
  5
30279
330
2
100
AcDbEntity
  8
0
100
AcDbLine
 10
12847.77787930853
 20
17080.15994374839
 30
0.0
 11
12845.34709930853
 21
17074.62077824845
 31
0.0
  0
LINE
  5
3027A
330
2
100
AcDbEntity
  8
0
100
AcDbLine
 10
12851.07705430852
 20
17085.16643974838
 30
0.0
 11
12847.77787930853
 21
17080.15994374839
 31
0.0
  0
LINE
  5
3027B
330
2
100
AcDbEntity
  8
0
100
AcDbLine
 10
12855.1441393085
 20
17089.48812799843
 30
0.0
 11
12851.07705430852
 21
17085.16643974838
 31
0.0
  0
LINE
  5
3027C
330
2
100
AcDbEntity
  8
0
100
AcDbLine
 10
12859.85579680852
 20
17092.99370974835
 30
0.0
 11
12855.1441393085
 21
17089.48812799843
 31
0.0
  0
LINE
  5
3027D
330
2
100
AcDbEntity
  8
0
100
AcDbLine
 10
12865.06872430848
 20
17095.57666924835
 30
0.0
 11
12859.85579680852
 21
17092.99370974835
 31
0.0
  0
LINE
  5
3027E
330
2
100
AcDbEntity
  8
0
100
AcDbLine
 10
12870.62452180846
 20
17097.1585159984
 30
0.0
 11
12865.06872430848
 21
17095.57666924835
 31
0.0
  0
LINE
  5
3027F
330
2
100
AcDbEntity
  8
0
100
AcDbLine
 10
12876.35447680845
 20
17097.69119374842
 30
0.0
 11
12870.62452180846
 21
17097.1585159984
 31
0.0
  0
LINE
  5
30280
330
2
100
AcDbEntity
  8
0
100
AcDbLine
 10
12882.08434930854
 20
17097.1585159984
 30
0.0
 11
12876.35447680845
 21
17097.69119374842
 31
0.0
  0
LINE
  5
30281
330
2
100
AcDbEntity
  8
0
100
AcDbLine
 10
12887.64014680852
 20
17095.57666924835
 30
0.0
 11
12882.08434930854
 21
17097.1585159984
 31
0.0
  0
LINE
  5
30282
330
2
100
AcDbEntity
  8
0
100
AcDbLine
 10
12892.85307430848
 20
17092.99370974835
 30
0.0
 11
12887.64014680852
 21
17095.57666924835
 31
0.0
  0
LINE
  5
30283
330
2
100
AcDbEntity
  8
0
100
AcDbLine
 10
12897.56473180849
 20
17089.48812799843
 30
0.0
 11
12892.85307430848
 21
17092.99370974835
 31
0.0
  0
LINE
  5
30284
330
2
100
AcDbEntity
  8
0
100
AcDbLine
 10
12901.63181680848
 20
17085.16643974838
 30
0.0
 11
12897.56473180849
 21
17089.48812799843
 31
0.0
  0
LINE
  5
30285
330
2
100
AcDbEntity
  8
0
100
AcDbLine
 10
12904.93099180847
 20
17080.15994374839
 30
0.0
 11
12901.63181680848
 21
17085.16643974838
 31
0.0
  0
LINE
  5
30286
330
2
100
AcDbEntity
  8
0
100
AcDbLine
 10
12907.36177180846
 20
17074.62077824845
 30
0.0
 11
12904.93099180847
 21
17080.15994374839
 31
0.0
  0
LINE
  5
30287
330
2
100
AcDbEntity
  8
0
100
AcDbLine
 10
12908.85048430846
 20
17068.71723499842
 30
0.0
 11
12907.36177180846
 21
17074.62077824845
 31
0.0
  0
LINE
  5
30288
330
2
100
AcDbEntity
  8
0
100
AcDbLine
 10
12909.35175430841
 20
17062.62869374836
 30
0.0
 11
12908.85048430846
 21
17068.71723499842
 31
0.0
  0
LINE
  5
30289
330
2
100
AcDbEntity
  8
0
100
AcDbLine
 10
12908.85048430846
 20
17056.54016074836
 30
0.0
 11
12909.35175430841
 21
17062.62869374836
 31
0.0
  0
LINE
  5
3028A
330
2
100
AcDbEntity
  8
0
100
AcDbLine
 10
12907.36177180846
 20
17050.63661749833
 30
0.0
 11
12908.85048430846
 21
17056.54016074836
 31
0.0
  0
LINE
  5
3028B
330
2
100
AcDbEntity
  8
0
100
AcDbLine
 10
12904.93099180847
 20
17045.09744374833
 30
0.0
 11
12907.36177180846
 21
17050.63661749833
 31
0.0
  0
LINE
  5
3028C
330
2
100
AcDbEntity
  8
0
100
AcDbLine
 10
12901.63181680848
 20
17040.09095599841
 30
0.0
 11
12904.93099180847
 21
17045.09744374833
 31
0.0
  0
LINE
  5
3028D
330
2
100
AcDbEntity
  8
0
100
AcDbLine
 10
12897.56473180849
 20
17035.76925949843
 30
0.0
 11
12901.63181680848
 21
17040.09095599841
 31
0.0
  0
LINE
  5
3028E
330
2
100
AcDbEntity
  8
0
100
AcDbLine
 10
12892.85307430848
 20
17032.26367774836
 30
0.0
 11
12897.56473180849
 21
17035.76925949843
 31
0.0
  0
LINE
  5
3028F
330
2
100
AcDbEntity
  8
0
100
AcDbLine
 10
12887.64014680852
 20
17029.68072649843
 30
0.0
 11
12892.85307430848
 21
17032.26367774836
 31
0.0
  0
LINE
  5
30290
330
2
100
AcDbEntity
  8
0
100
AcDbLine
 10
12882.08434930854
 20
17028.09887149846
 30
0.0
 11
12887.64014680852
 21
17029.68072649843
 31
0.0
  0
LINE
  5
30291
330
2
100
AcDbEntity
  8
0
100
AcDbLine
 10
12876.35447680845
 20
17027.56619374845
 30
0.0
 11
12882.08434930854
 21
17028.09887149846
 31
0.0
  0
ARC
  5
30292
330
2
100
AcDbEntity
  8
0
100
AcDbCircle
 10
12724.30002915946
 20
17095.13332847835
 30
0.0
 40
52.27200980100001
100
AcDbArc
 50
90.0
 51
180.0
  0
LINE
  5
30293
330
2
100
AcDbEntity
  8
0
100
AcDbLine
 10
12636.87134469259
 20
17259.70984191788
 30
0.0
 11
12636.87134469259
 21
16979.70986666793
 31
0.0
  0
LINE
  5
30294
330
2
100
AcDbEntity
  8
0
100
AcDbLine
 10
12683.90161395942
 20
17128.30453855024
 30
0.0
 11
12691.12887135951
 21
17135.53176981435
 31
0.0
  0
LINE
  5
30295
330
2
100
AcDbEntity
  8
0
100
AcDbLine
 10
12681.13355019941
 20
17124.61229276227
 30
0.0
 11
12694.82110407942
 21
17138.29992505033
 31
0.0
  0
LINE
  5
30296
330
2
100
AcDbEntity
  8
0
100
AcDbLine
 10
12679.48443393947
 20
17122.03913822226
 30
0.0
 11
12697.39419327943
 21
17139.94894983431
 31
0.0
  0
LINE
  5
30297
330
2
100
AcDbEntity
  8
0
100
AcDbLine
 10
12678.2658429394
 20
17119.89653507824
 30
0.0
 11
12699.53675721943
 21
17141.16750816431
 31
0.0
  0
LINE
  5
30298
330
2
100
AcDbEntity
  8
0
100
AcDbLine
 10
12677.29645869938
 20
17118.00298841228
 30
0.0
 11
12701.43031041949
 21
17142.13694467626
 31
0.0
  0
LINE
  5
30299
330
2
100
AcDbEntity
  8
0
100
AcDbLine
 10
12676.49565165946
 20
17116.27824110236
 30
0.0
 11
12703.15509039949
 21
17142.93767330828
 31
0.0
  0
LINE
  5
3029A
330
2
100
AcDbEntity
  8
0
100
AcDbLine
 10
12675.8193826595
 20
17114.67779660825
 30
0.0
 11
12704.75552835949
 21
17143.61400764823
 31
0.0
  0
LINE
  5
3029B
330
2
100
AcDbEntity
  8
0
100
AcDbLine
 10
12675.24007821947
 20
17113.17438201435
 30
0.0
 11
12706.25900175943
 21
17144.19333822423
 31
0.0
  0
LINE
  5
3029C
330
2
100
AcDbEntity
  8
0
100
AcDbLine
 10
12674.73937779953
 20
17111.74968251837
 30
0.0
 11
12707.68367511944
 21
17144.69399290634
 31
0.0
  0
LINE
  5
3029D
330
2
100
AcDbEntity
  8
0
100
AcDbLine
 10
12674.3042787394
 20
17110.39047983834
 30
0.0
 11
12709.04287779948
 21
17145.12915077236
 31
0.0
  0
LINE
  5
3029E
330
2
100
AcDbEntity
  8
0
100
AcDbLine
 10
12673.92484935943
 20
17109.08703831427
 30
0.0
 11
12710.34634545951
 21
17145.50850174428
 31
0.0
  0
LINE
  5
3029F
330
2
100
AcDbEntity
  8
0
100
AcDbLine
 10
12673.5940329394
 20
17107.83202026427
 30
0.0
 11
12711.60146151942
 21
17145.83941617437
 31
0.0
  0
LINE
  5
302A0
330
2
100
AcDbEntity
  8
0
100
AcDbLine
 10
12673.30562217943
 20
17106.61968230235
 30
0.0
 11
12712.81371453948
 21
17146.12770932227
 31
0.0
  0
LINE
  5
302A1
330
2
100
AcDbEntity
  8
0
100
AcDbLine
 10
12673.0551739594
 20
17105.44516313234
 30
0.0
 11
12713.98813569944
 21
17146.37812487223
 31
0.0
  0
LINE
  5
302A2
330
2
100
AcDbEntity
  8
0
100
AcDbLine
 10
12672.83883321939
 20
17104.30482985024
 30
0.0
 11
12715.1285800595
 21
17146.59444601037
 31
0.0
  0
LINE
  5
302A3
330
2
100
AcDbEntity
  8
0
100
AcDbLine
 10
12672.65339829941
 20
17103.19523903827
 30
0.0
 11
12716.23818393939
 21
17146.77991360028
 31
0.0
  0
LINE
  5
302A4
330
2
100
AcDbEntity
  8
0
100
AcDbLine
 10
12672.49625559951
 20
17102.11398618436
 30
0.0
 11
12717.31929957951
 21
17146.93712164032
 31
0.0
  0
LINE
  5
302A5
330
2
100
AcDbEntity
  8
0
100
AcDbLine
 10
12672.36498753944
 20
17101.05857530036
 30
0.0
 11
12718.37473659947
 21
17147.0684223703
 31
0.0
  0
LINE
  5
302A6
330
2
100
AcDbEntity
  8
0
100
AcDbLine
 10
12672.25763391947
 20
17100.02723567226
 30
0.0
 11
12719.40606315951
 21
17147.17573678625
 31
0.0
  0
LINE
  5
302A7
330
2
100
AcDbEntity
  8
0
100
AcDbLine
 10
12672.17256123939
 20
17099.01808550823
 30
0.0
 11
12720.41523945951
 21
17147.26078333037
 31
0.0
  0
LINE
  5
302A8
330
2
100
AcDbEntity
  8
0
100
AcDbLine
 10
12672.10839735952
 20
17098.02971346429
 30
0.0
 11
12721.40357229943
 21
17147.32502561829
 31
0.0
  0
LINE
  5
302A9
330
2
100
AcDbEntity
  8
0
100
AcDbLine
 10
12672.06357411949
 20
17097.06094342031
 30
0.0
 11
12722.37236847952
 21
17147.36979005227
 31
0.0
  0
LINE
  5
302AA
330
2
100
AcDbEntity
  8
0
100
AcDbLine
 10
12672.03711141945
 20
17096.11050778034
 30
0.0
 11
12723.32286945948
 21
17147.39620701434
 31
0.0
  0
LINE
  5
302AB
330
2
100
AcDbEntity
  8
0
100
AcDbLine
 10
12672.02802915952
 20
17095.17728269633
 30
0.0
 11
12724.25605533947
 21
17147.40532194434
 31
0.0
  0
LINE
  5
302AC
330
2
100
AcDbEntity
  8
0
100
AcDbLine
 10
12672.02802915952
 20
17094.25313987225
 30
0.0
 11
12725.18022429951
 21
17147.40534154635
 31
0.0
  0
LINE
  5
302AD
330
2
100
AcDbEntity
  8
0
100
AcDbLine
 10
12672.02802915952
 20
17093.32911466025
 30
0.0
 11
12726.10419723944
 21
17147.40534154635
 31
0.0
  0
LINE
  5
302AE
330
2
100
AcDbEntity
  8
0
100
AcDbLine
 10
12672.02802915952
 20
17092.40498490423
 30
0.0
 11
12727.02836619949
 21
17147.40534154635
 31
0.0
  0
LINE
  5
302AF
330
2
100
AcDbEntity
  8
0
100
AcDbLine
 10
12672.02802915952
 20
17091.48097929423
 30
0.0
 11
12727.95246981939
 21
17147.40534154635
 31
0.0
  0
LINE
  5
302B0
330
2
100
AcDbEntity
  8
0
100
AcDbLine
 10
12672.02802915952
 20
17090.55687567432
 30
0.0
 11
12728.87650809946
 21
17147.40534154635
 31
0.0
  0
LINE
  5
302B1
330
2
100
AcDbEntity
  8
0
100
AcDbLine
 10
12672.02802915952
 20
17089.63277205427
 30
0.0
 11
12729.80061171951
 21
17147.40534154635
 31
0.0
  0
LINE
  5
302B2
330
2
100
AcDbEntity
  8
0
100
AcDbLine
 10
12672.02802915952
 20
17088.70872070629
 30
0.0
 11
12730.72458465944
 21
17147.40534154635
 31
0.0
  0
LINE
  5
302B3
330
2
100
AcDbEntity
  8
0
100
AcDbLine
 10
12672.02802915952
 20
17087.7847150963
 30
0.0
 11
12731.6486229395
 21
17147.40534154635
 31
0.0
  0
LINE
  5
302B4
330
2
100
AcDbEntity
  8
0
100
AcDbLine
 10
12672.02802915952
 20
17086.86059187423
 30
0.0
 11
12732.57272655941
 21
17147.40534154635
 31
0.0
  0
LINE
  5
302B5
330
2
100
AcDbEntity
  8
0
100
AcDbLine
 10
12672.02802915952
 20
17085.93648825432
 30
0.0
 11
12733.49689551946
 21
17147.40534154635
 31
0.0
  0
LINE
  5
302B6
330
2
100
AcDbEntity
  8
0
100
AcDbLine
 10
12672.02802915952
 20
17085.01243690635
 30
0.0
 11
12734.42086845939
 21
17147.40534154635
 31
0.0
  0
LINE
  5
302B7
330
2
100
AcDbEntity
  8
0
100
AcDbLine
 10
12672.02802915952
 20
17084.08843129635
 30
0.0
 11
12735.34503741943
 21
17147.40534154635
 31
0.0
  0
LINE
  5
302B8
330
2
100
AcDbEntity
  8
0
100
AcDbLine
 10
12672.02802915952
 20
17083.1643276763
 30
0.0
 11
12736.2690103595
 21
17147.40534154635
 31
0.0
  0
LINE
  5
302B9
330
2
100
AcDbEntity
  8
0
100
AcDbLine
 10
12672.02802915952
 20
17082.24019792027
 30
0.0
 11
12737.1931793194
 21
17147.40534154635
 31
0.0
  0
LINE
  5
302BA
330
2
100
AcDbEntity
  8
0
100
AcDbLine
 10
12672.02802915952
 20
17081.31615310626
 30
0.0
 11
12738.11715225948
 21
17147.40534154635
 31
0.0
  0
LINE
  5
302BB
330
2
100
AcDbEntity
  8
0
100
AcDbLine
 10
12672.02802915952
 20
17080.39204948635
 30
0.0
 11
12739.04125587938
 21
17147.40534154635
 31
0.0
  0
LINE
  5
302BC
330
2
100
AcDbEntity
  8
0
100
AcDbLine
 10
12672.02802915952
 20
17079.46804387635
 30
0.0
 11
12739.96542483943
 21
17147.40534154635
 31
0.0
  0
LINE
  5
302BD
330
2
100
AcDbEntity
  8
0
100
AcDbLine
 10
12672.02802915952
 20
17078.5439402563
 30
0.0
 11
12740.8893977795
 21
17147.40534154635
 31
0.0
  0
LINE
  5
302BE
330
2
100
AcDbEntity
  8
0
100
AcDbLine
 10
12672.02802915952
 20
17077.61983010229
 30
0.0
 11
12741.8135667394
 21
17147.40534154635
 31
0.0
  0
LINE
  5
302BF
330
2
100
AcDbEntity
  8
0
100
AcDbLine
 10
12672.02802915952
 20
17076.69576568626
 30
0.0
 11
12742.73753967948
 21
17147.40534154635
 31
0.0
  0
LINE
  5
302C0
330
2
100
AcDbEntity
  8
0
100
AcDbLine
 10
12672.02802915952
 20
17075.77176007626
 30
0.0
 11
12743.66170863952
 21
17147.40534154635
 31
0.0
  0
LINE
  5
302C1
330
2
100
AcDbEntity
  8
0
100
AcDbLine
 10
12672.02802915952
 20
17074.84765645635
 30
0.0
 11
12744.58568157945
 21
17147.40534154635
 31
0.0
  0
LINE
  5
302C2
330
2
100
AcDbEntity
  8
0
100
AcDbLine
 10
12672.02802915952
 20
17073.92354630234
 30
0.0
 11
12745.50985053949
 21
17147.40534154635
 31
0.0
  0
LINE
  5
302C3
330
2
100
AcDbEntity
  8
0
100
AcDbLine
 10
12672.02802915952
 20
17072.99950148832
 30
0.0
 11
12746.43382347942
 21
17147.40534154635
 31
0.0
  0
LINE
  5
302C4
330
2
100
AcDbEntity
  8
0
100
AcDbLine
 10
12672.02802915952
 20
17072.07539786827
 30
0.0
 11
12747.35799243947
 21
17147.40534154635
 31
0.0
  0
LINE
  5
302C5
330
2
100
AcDbEntity
  8
0
100
AcDbLine
 10
12672.02802915952
 20
17071.15137265626
 30
0.0
 11
12748.28209605952
 21
17147.40534154635
 31
0.0
  0
LINE
  5
302C6
330
2
100
AcDbEntity
  8
0
100
AcDbLine
 10
12672.02802915952
 20
17070.22726250225
 30
0.0
 11
12749.20606899945
 21
17147.40534154635
 31
0.0
  0
LINE
  5
302C7
330
2
100
AcDbEntity
  8
0
100
AcDbLine
 10
12672.02802915952
 20
17069.30321768823
 30
0.0
 11
12750.13010727951
 21
17147.40534154635
 31
0.0
  0
LINE
  5
302C8
330
2
100
AcDbEntity
  8
0
100
AcDbLine
 10
12711.85027623938
 20
17108.20133501236
 30
0.0
 11
12751.05421089942
 21
17147.40534154635
 31
0.0
  0
LINE
  5
302C9
330
2
100
AcDbEntity
  8
0
100
AcDbLine
 10
12672.6462762395
 20
17068.99732194428
 30
0.0
 11
12711.2320291594
 21
17107.58310100029
 31
0.0
  0
LINE
  5
302CA
330
2
100
AcDbEntity
  8
0
100
AcDbLine
 10
12712.77424917946
 20
17108.20133501236
 30
0.0
 11
12751.97818383949
 21
17147.40534154635
 31
0.0
  0
LINE
  5
302CB
330
2
100
AcDbEntity
  8
0
100
AcDbLine
 10
12673.57024917943
 20
17068.99732194428
 30
0.0
 11
12711.2320291594
 21
17106.65905618627
 31
0.0
  0
LINE
  5
302CC
330
2
100
AcDbEntity
  8
0
100
AcDbLine
 10
12713.6984181395
 20
17108.20133501236
 30
0.0
 11
12752.90254881951
 21
17147.40534154635
 31
0.0
  0
LINE
  5
302CD
330
2
100
AcDbEntity
  8
0
100
AcDbLine
 10
12674.49441813948
 20
17068.99732194428
 30
0.0
 11
12711.2320291594
 21
17105.73492643025
 31
0.0
  0
LINE
  5
302CE
330
2
100
AcDbEntity
  8
0
100
AcDbLine
 10
12714.62252175941
 20
17108.20133501236
 30
0.0
 11
12753.82652175944
 21
17147.40534154635
 31
0.0
  0
LINE
  5
302CF
330
2
100
AcDbEntity
  8
0
100
AcDbLine
 10
12675.41858709952
 20
17068.99732194428
 30
0.0
 11
12711.2320291594
 21
17104.81082281034
 31
0.0
  0
LINE
  5
302D0
330
2
100
AcDbEntity
  8
0
100
AcDbLine
 10
12715.54649469949
 20
17108.20133501236
 30
0.0
 11
12754.75049469951
 21
17147.40534154635
 31
0.0
  0
LINE
  5
302D1
330
2
100
AcDbEntity
  8
0
100
AcDbLine
 10
12676.34256003945
 20
17068.99732194428
 30
0.0
 11
12711.2320291594
 21
17103.88681720035
 31
0.0
  0
LINE
  5
302D2
330
2
100
AcDbEntity
  8
0
100
AcDbLine
 10
12716.4705329794
 20
17108.20133501236
 30
0.0
 11
12755.67466365941
 21
17147.40534154635
 31
0.0
  0
LINE
  5
302D3
330
2
100
AcDbEntity
  8
0
100
AcDbLine
 10
12677.26653297952
 20
17068.99732194428
 30
0.0
 11
12711.2320291594
 21
17102.96279198834
 31
0.0
  0
LINE
  5
302D4
330
2
100
AcDbEntity
  8
0
100
AcDbLine
 10
12717.39463659946
 20
17108.20133501236
 30
0.0
 11
12756.59863659948
 21
17147.40534154635
 31
0.0
  0
LINE
  5
302D5
330
2
100
AcDbEntity
  8
0
100
AcDbLine
 10
12678.19070193942
 20
17068.99732194428
 30
0.0
 11
12711.2320291594
 21
17102.03868183433
 31
0.0
  0
LINE
  5
302D6
330
2
100
AcDbEntity
  8
0
100
AcDbLine
 10
12718.3188055595
 20
17108.20133501236
 30
0.0
 11
12757.52274021939
 21
17147.40534154635
 31
0.0
  0
LINE
  5
302D7
330
2
100
AcDbEntity
  8
0
100
AcDbLine
 10
12679.11480555948
 20
17068.99732194428
 30
0.0
 11
12711.2320291594
 21
17101.11455861226
 31
0.0
  0
LINE
  5
302D8
330
2
100
AcDbEntity
  8
0
100
AcDbLine
 10
12719.24277849943
 20
17108.20133501236
 30
0.0
 11
12758.44677849946
 21
17147.40534154635
 31
0.0
  0
LINE
  5
302D9
330
2
100
AcDbEntity
  8
0
100
AcDbLine
 10
12680.03884383939
 20
17068.99732194428
 30
0.0
 11
12711.2320291594
 21
17100.19053340026
 31
0.0
  0
LINE
  5
302DA
330
2
100
AcDbEntity
  8
0
100
AcDbLine
 10
12720.16694745948
 20
17108.20133501236
 30
0.0
 11
12759.37088211951
 21
17147.40534154635
 31
0.0
  0
LINE
  5
302DB
330
2
100
AcDbEntity
  8
0
100
AcDbLine
 10
12680.96294745945
 20
17068.99732194428
 30
0.0
 11
12711.2320291594
 21
17099.26642324625
 31
0.0
  0
LINE
  5
302DC
330
2
100
AcDbEntity
  8
0
100
AcDbLine
 10
12721.0909203994
 20
17108.20133501236
 30
0.0
 11
12760.29505107941
 21
17147.40534154635
 31
0.0
  0
LINE
  5
302DD
330
2
100
AcDbEntity
  8
0
100
AcDbLine
 10
12681.88692039952
 20
17068.99732194428
 30
0.0
 11
12711.2320291594
 21
17098.34239803424
 31
0.0
  0
LINE
  5
302DE
330
2
100
AcDbEntity
  8
0
100
AcDbLine
 10
12722.01508935945
 20
17108.20133501236
 30
0.0
 11
12761.21902401949
 21
17147.40534154635
 31
0.0
  0
LINE
  5
302DF
330
2
100
AcDbEntity
  8
0
100
AcDbLine
 10
12682.81108935942
 20
17068.99732194428
 30
0.0
 11
12711.2320291594
 21
17097.41827481232
 31
0.0
  0
LINE
  5
302E0
330
2
100
AcDbEntity
  8
0
100
AcDbLine
 10
12722.9391929795
 20
17108.20133501236
 30
0.0
 11
12762.14319297938
 21
17147.40534154635
 31
0.0
  0
LINE
  5
302E1
330
2
100
AcDbEntity
  8
0
100
AcDbLine
 10
12683.73506229949
 20
17068.99732194428
 30
0.0
 11
12711.2320291594
 21
17096.49418426032
 31
0.0
  0
LINE
  5
302E2
330
2
100
AcDbEntity
  8
0
100
AcDbLine
 10
12723.86316591943
 20
17108.20133501236
 30
0.0
 11
12763.06716591946
 21
17147.40534154635
 31
0.0
  0
LINE
  5
302E3
330
2
100
AcDbEntity
  8
0
100
AcDbLine
 10
12684.65923125939
 20
17068.99732194428
 30
0.0
 11
12711.2320291594
 21
17095.57015904831
 31
0.0
  0
LINE
  5
302E4
330
2
100
AcDbEntity
  8
0
100
AcDbLine
 10
12724.78720419949
 20
17108.20133501236
 30
0.0
 11
12763.50402915949
 21
17146.91810770028
 31
0.0
  0
LINE
  5
302E5
330
2
100
AcDbEntity
  8
0
100
AcDbLine
 10
12685.58320419947
 20
17068.99732194428
 30
0.0
 11
12711.2320291594
 21
17094.64609463228
 31
0.0
  0
LINE
  5
302E6
330
2
100
AcDbEntity
  8
0
100
AcDbLine
 10
12725.7113078194
 20
17108.20133501236
 30
0.0
 11
12763.50402915949
 21
17145.99399754627
 31
0.0
  0
LINE
  5
302E7
330
2
100
AcDbEntity
  8
0
100
AcDbLine
 10
12686.50737315951
 20
17068.99732194428
 30
0.0
 11
12711.2320291594
 21
17093.72201061424
 31
0.0
  0
LINE
  5
302E8
330
2
100
AcDbEntity
  8
0
100
AcDbLine
 10
12726.63547677945
 20
17108.20133501236
 30
0.0
 11
12763.50402915949
 21
17145.06989392636
 31
0.0
  0
LINE
  5
302E9
330
2
100
AcDbEntity
  8
0
100
AcDbLine
 10
12687.43147677942
 20
17068.99732194428
 30
0.0
 11
12711.2320291594
 21
17092.79788085836
 31
0.0
  0
LINE
  5
302EA
330
2
100
AcDbEntity
  8
0
100
AcDbLine
 10
12727.55944971952
 20
17108.20133501236
 30
0.0
 11
12763.50402915949
 21
17144.14590791823
 31
0.0
  0
LINE
  5
302EB
330
2
100
AcDbEntity
  8
0
100
AcDbLine
 10
12688.35551505949
 20
17068.99732194428
 30
0.0
 11
12711.2320291594
 21
17091.87387524837
 31
0.0
  0
LINE
  5
302EC
330
2
100
AcDbEntity
  8
0
100
AcDbLine
 10
12728.48361867942
 20
17108.20133501236
 30
0.0
 11
12763.50402915949
 21
17143.22180429832
 31
0.0
  0
LINE
  5
302ED
330
2
100
AcDbEntity
  8
0
100
AcDbLine
 10
12689.27961867939
 20
17068.99732194428
 30
0.0
 11
12711.2320291594
 21
17090.94977162831
 31
0.0
  0
LINE
  5
302EE
330
2
100
AcDbEntity
  8
0
100
AcDbLine
 10
12729.40759161949
 20
17108.20133501236
 30
0.0
 11
12763.50402915949
 21
17142.29769414431
 31
0.0
  0
LINE
  5
302EF
330
2
100
AcDbEntity
  8
0
100
AcDbLine
 10
12690.20359161947
 20
17068.99732194428
 30
0.0
 11
12711.2320291594
 21
17090.0257268143
 31
0.0
  0
LINE
  5
302F0
330
2
100
AcDbEntity
  8
0
100
AcDbLine
 10
12730.33176057939
 20
17108.20133501236
 30
0.0
 11
12763.50402915949
 21
17141.37359052426
 31
0.0
  0
LINE
  5
302F1
330
2
100
AcDbEntity
  8
0
100
AcDbLine
 10
12691.12776057951
 20
17068.99732194428
 30
0.0
 11
12711.2320291594
 21
17089.10161666028
 31
0.0
  0
LINE
  5
302F2
330
2
100
AcDbEntity
  8
0
100
AcDbLine
 10
12731.25573351947
 20
17108.20133501236
 30
0.0
 11
12763.50402915949
 21
17140.44962411828
 31
0.0
  0
LINE
  5
302F3
330
2
100
AcDbEntity
  8
0
100
AcDbLine
 10
12692.05173351944
 20
17068.99732194428
 30
0.0
 11
12711.2320291594
 21
17088.17759144828
 31
0.0
  0
LINE
  5
302F4
330
2
100
AcDbEntity
  8
0
100
AcDbLine
 10
12732.17983713952
 20
17108.20133501236
 30
0.0
 11
12763.50402915949
 21
17139.52552049823
 31
0.0
  0
LINE
  5
302F5
330
2
100
AcDbEntity
  8
0
100
AcDbLine
 10
12692.97590247949
 20
17068.99732194428
 30
0.0
 11
12711.2320291594
 21
17087.25348782837
 31
0.0
  0
LINE
  5
302F6
330
2
100
AcDbEntity
  8
0
100
AcDbLine
 10
12733.10387541944
 20
17108.20133501236
 30
0.0
 11
12763.50402915949
 21
17138.60144954824
 31
0.0
  0
LINE
  5
302F7
330
2
100
AcDbEntity
  8
0
100
AcDbLine
 10
12693.89987541941
 20
17068.99732194428
 30
0.0
 11
12711.2320291594
 21
17086.32946261636
 31
0.0
  0
LINE
  5
302F8
330
2
100
AcDbEntity
  8
0
100
AcDbLine
 10
12734.02797903949
 20
17108.20133501236
 30
0.0
 11
12763.50402915949
 21
17137.67734592833
 31
0.0
  0
LINE
  5
302F9
330
2
100
AcDbEntity
  8
0
100
AcDbLine
 10
12694.82404437946
 20
17068.99732194428
 30
0.0
 11
12711.2320291594
 21
17085.40535246235
 31
0.0
  0
LINE
  5
302FA
330
2
100
AcDbEntity
  8
0
100
AcDbLine
 10
12734.95214799939
 20
17108.20133501236
 30
0.0
 11
12763.50402915949
 21
17136.7531965703
 31
0.0
  0
LINE
  5
302FB
330
2
100
AcDbEntity
  8
0
100
AcDbLine
 10
12695.74814799951
 20
17068.99732194428
 30
0.0
 11
12711.2320291594
 21
17084.48122924028
 31
0.0
  0
LINE
  5
302FC
330
2
100
AcDbEntity
  8
0
100
AcDbLine
 10
12735.87612093947
 20
17108.20133501236
 30
0.0
 11
12763.50402915949
 21
17135.82923669829
 31
0.0
  0
LINE
  5
302FD
330
2
100
AcDbEntity
  8
0
100
AcDbLine
 10
12696.67218627943
 20
17068.99732194428
 30
0.0
 11
12711.2320291594
 21
17083.55720402828
 31
0.0
  0
LINE
  5
302FE
330
2
100
AcDbEntity
  8
0
100
AcDbLine
 10
12736.80009387939
 20
17108.20133501236
 30
0.0
 11
12763.50402915949
 21
17134.9051657483
 31
0.0
  0
LINE
  5
302FF
330
2
100
AcDbEntity
  8
0
100
AcDbLine
 10
12697.5961592195
 20
17068.99732194428
 30
0.0
 11
12711.2320291594
 21
17082.63315921426
 31
0.0
  0
LINE
  5
30300
330
2
100
AcDbEntity
  8
0
100
AcDbLine
 10
12737.72426283944
 20
17108.20133501236
 30
0.0
 11
12763.50402915949
 21
17133.98106212824
 31
0.0
  0
LINE
  5
30301
330
2
100
AcDbEntity
  8
0
100
AcDbLine
 10
12698.5203281794
 20
17068.99732194428
 30
0.0
 11
12711.2320291594
 21
17081.70904906025
 31
0.0
  0
LINE
  5
30302
330
2
100
AcDbEntity
  8
0
100
AcDbLine
 10
12738.64843179949
 20
17108.20133501236
 30
0.0
 11
12763.50402915949
 21
17133.05695850833
 31
0.0
  0
LINE
  5
30303
330
2
100
AcDbEntity
  8
0
100
AcDbLine
 10
12699.44443179946
 20
17068.99732194428
 30
0.0
 11
12711.2320291594
 21
17080.78496504235
 31
0.0
  0
LINE
  5
30304
330
2
100
AcDbEntity
  8
0
100
AcDbLine
 10
12739.57240473941
 20
17108.20133501236
 30
0.0
 11
12763.50402915949
 21
17132.13297250035
 31
0.0
  0
LINE
  5
30305
330
2
100
AcDbEntity
  8
0
100
AcDbLine
 10
12700.36840473939
 20
17068.99732194428
 30
0.0
 11
12711.2320291594
 21
17079.86093983034
 31
0.0
  0
LINE
  5
30306
330
2
100
AcDbEntity
  8
0
100
AcDbLine
 10
12740.49657369946
 20
17108.20133501236
 30
0.0
 11
12763.50402915949
 21
17131.20884274433
 31
0.0
  0
LINE
  5
30307
330
2
100
AcDbEntity
  8
0
100
AcDbLine
 10
12701.29257369943
 20
17068.99732194428
 30
0.0
 11
12711.2320291594
 21
17078.93681007432
 31
0.0
  0
LINE
  5
30308
330
2
100
AcDbEntity
  8
0
100
AcDbLine
 10
12741.42054663939
 20
17108.20133501236
 30
0.0
 11
12763.50402915949
 21
17130.28475872629
 31
0.0
  0
LINE
  5
30309
330
2
100
AcDbEntity
  8
0
100
AcDbLine
 10
12702.2165466395
 20
17068.99732194428
 30
0.0
 11
12711.2320291594
 21
17078.0127652603
 31
0.0
  0
LINE
  5
3030A
330
2
100
AcDbEntity
  8
0
100
AcDbLine
 10
12742.34465025944
 20
17108.20133501236
 30
0.0
 11
12763.50402915949
 21
17129.36064857228
 31
0.0
  0
LINE
  5
3030B
330
2
100
AcDbEntity
  8
0
100
AcDbLine
 10
12703.1407155994
 20
17068.99732194428
 30
0.0
 11
12711.2320291594
 21
17077.08868124226
 31
0.0
  0
LINE
  5
3030C
330
2
100
AcDbEntity
  8
0
100
AcDbLine
 10
12743.26881921949
 20
17108.20133501236
 30
0.0
 11
12763.50402915949
 21
17128.43656455423
 31
0.0
  0
LINE
  5
3030D
330
2
100
AcDbEntity
  8
0
100
AcDbLine
 10
12704.06468853948
 20
17068.99732194428
 30
0.0
 11
12711.2320291594
 21
17076.16457762235
 31
0.0
  0
LINE
  5
3030E
330
2
100
AcDbEntity
  8
0
100
AcDbLine
 10
12744.19279215941
 20
17108.20133501236
 30
0.0
 11
12763.50402915949
 21
17127.51257854625
 31
0.0
  0
LINE
  5
3030F
330
2
100
AcDbEntity
  8
0
100
AcDbLine
 10
12704.98885749952
 20
17068.99732194428
 30
0.0
 11
12711.2320291594
 21
17075.24052627423
 31
0.0
  0
LINE
  5
30310
330
2
100
AcDbEntity
  8
0
100
AcDbLine
 10
12745.11676509948
 20
17108.20133501236
 30
0.0
 11
12763.50402915949
 21
17126.58849452835
 31
0.0
  0
LINE
  5
30311
330
2
100
AcDbEntity
  8
0
100
AcDbLine
 10
12705.91283043945
 20
17068.99732194428
 30
0.0
 11
12711.2320291594
 21
17074.31650106237
 31
0.0
  0
LINE
  5
30312
330
2
100
AcDbEntity
  8
0
100
AcDbLine
 10
12746.04093405939
 20
17108.20133501236
 30
0.0
 11
12763.50402915949
 21
17125.66438437434
 31
0.0
  0
LINE
  5
30313
330
2
100
AcDbEntity
  8
0
100
AcDbLine
 10
12706.8369993995
 20
17068.99732194428
 30
0.0
 11
12711.2320291594
 21
17073.3923778403
 31
0.0
  0
LINE
  5
30314
330
2
100
AcDbEntity
  8
0
100
AcDbLine
 10
12746.96510301943
 20
17108.20133501236
 30
0.0
 11
12763.50402915949
 21
17124.74026115228
 31
0.0
  0
LINE
  5
30315
330
2
100
AcDbEntity
  8
0
100
AcDbLine
 10
12707.7611030194
 20
17068.99732194428
 30
0.0
 11
12711.2320291594
 21
17072.46826768629
 31
0.0
  0
LINE
  5
30316
330
2
100
AcDbEntity
  8
0
100
AcDbLine
 10
12747.8890759595
 20
17108.20133501236
 30
0.0
 11
12763.50402915949
 21
17123.81629474631
 31
0.0
  0
LINE
  5
30317
330
2
100
AcDbEntity
  8
0
100
AcDbLine
 10
12708.68507595948
 20
17068.99732194428
 30
0.0
 11
12711.2320291594
 21
17071.54426861025
 31
0.0
  0
LINE
  5
30318
330
2
100
AcDbEntity
  8
0
100
AcDbLine
 10
12748.81304889943
 20
17108.20133501236
 30
0.0
 11
12763.50402915949
 21
17122.89223033027
 31
0.0
  0
LINE
  5
30319
330
2
100
AcDbEntity
  8
0
100
AcDbLine
 10
12709.60911423939
 20
17068.99732194428
 30
0.0
 11
12711.2320291594
 21
17070.62021726228
 31
0.0
  0
LINE
  5
3031A
330
2
100
AcDbEntity
  8
0
100
AcDbLine
 10
12749.73721785948
 20
17108.20133501236
 30
0.0
 11
12763.50402915949
 21
17121.96812671036
 31
0.0
  0
LINE
  5
3031B
330
2
100
AcDbEntity
  8
0
100
AcDbLine
 10
12710.53321785945
 20
17068.99732194428
 30
0.0
 11
12711.2320291594
 21
17069.69611364237
 31
0.0
  0
LINE
  5
3031C
330
2
100
AcDbEntity
  8
0
100
AcDbLine
 10
12750.66132147939
 20
17108.20133501236
 30
0.0
 11
12763.50402915949
 21
17121.04399695434
 31
0.0
  0
LINE
  5
3031D
330
2
100
AcDbEntity
  8
0
100
AcDbLine
 10
12711.2320291594
 20
17068.77201002231
 30
0.0
 11
12711.4573868195
 21
17068.99732194428
 31
0.0
  0
LINE
  5
3031E
330
2
100
AcDbEntity
  8
0
100
AcDbLine
 10
12672.02802915952
 20
17029.56804922631
 30
0.0
 11
12672.25325613948
 21
17029.7933154103
 31
0.0
  0
LINE
  5
3031F
330
2
100
AcDbEntity
  8
0
100
AcDbLine
 10
12751.58535975945
 20
17108.20133501236
 30
0.0
 11
12763.50402915949
 21
17120.11999134435
 31
0.0
  0
LINE
  5
30320
330
2
100
AcDbEntity
  8
0
100
AcDbLine
 10
12711.2320291594
 20
17067.84795867434
 30
0.0
 11
12712.38135975942
 21
17068.99732194428
 31
0.0
  0
LINE
  5
30321
330
2
100
AcDbEntity
  8
0
100
AcDbLine
 10
12672.02802915952
 20
17028.64398481028
 30
0.0
 11
12673.17742509939
 21
17029.7933154103
 31
0.0
  0
LINE
  5
30322
330
2
100
AcDbEntity
  8
0
100
AcDbLine
 10
12752.5094633795
 20
17108.20133501236
 30
0.0
 11
12763.50402915949
 21
17119.1959073263
 31
0.0
  0
LINE
  5
30323
330
2
100
AcDbEntity
  8
0
100
AcDbLine
 10
12711.2320291594
 20
17066.92385505428
 30
0.0
 11
12713.30552871947
 21
17068.99732194428
 31
0.0
  0
LINE
  5
30324
330
2
100
AcDbEntity
  8
0
100
AcDbLine
 10
12672.02802915952
 20
17027.71987465627
 30
0.0
 11
12674.10152871944
 21
17029.7933154103
 31
0.0
  0
LINE
  5
30325
330
2
100
AcDbEntity
  8
0
100
AcDbLine
 10
12753.43343631943
 20
17108.20133501236
 30
0.0
 11
12763.50402915949
 21
17118.27181677431
 31
0.0
  0
LINE
  5
30326
330
2
100
AcDbEntity
  8
0
100
AcDbLine
 10
12711.2320291594
 20
17065.99982984228
 30
0.0
 11
12714.22950165939
 21
17068.99732194428
 31
0.0
  0
LINE
  5
30327
330
2
100
AcDbEntity
  8
0
100
AcDbLine
 10
12672.02802915952
 20
17026.79588211433
 30
0.0
 11
12675.02550165951
 21
17029.7933154103
 31
0.0
  0
LINE
  5
30328
330
2
100
AcDbEntity
  8
0
100
AcDbLine
 10
12754.35760527948
 20
17108.20133501236
 30
0.0
 11
12763.50402915949
 21
17117.34773275626
 31
0.0
  0
LINE
  5
30329
330
2
100
AcDbEntity
  8
0
100
AcDbLine
 10
12711.2320291594
 20
17065.07574582424
 30
0.0
 11
12715.15367061944
 21
17068.99732194428
 31
0.0
  0
LINE
  5
3032A
330
2
100
AcDbEntity
  8
0
100
AcDbLine
 10
12672.02802915952
 20
17025.87177849428
 30
0.0
 11
12675.94953993943
 21
17029.7933154103
 31
0.0
  0
LINE
  5
3032B
330
2
100
AcDbEntity
  8
0
100
AcDbLine
 10
12755.28177423952
 20
17108.20133501236
 30
0.0
 11
12763.50402915949
 21
17116.42362913635
 31
0.0
  0
LINE
  5
3032C
330
2
100
AcDbEntity
  8
0
100
AcDbLine
 10
12711.2320291594
 20
17064.15163567037
 30
0.0
 11
12716.07764355951
 21
17068.99732194428
 31
0.0
  0
LINE
  5
3032D
330
2
100
AcDbEntity
  8
0
100
AcDbLine
 10
12672.02802915952
 20
17024.94766834027
 30
0.0
 11
12676.87364355948
 21
17029.7933154103
 31
0.0
  0
LINE
  5
3032E
330
2
100
AcDbEntity
  8
0
100
AcDbLine
 10
12756.20574717945
 20
17108.20133501236
 30
0.0
 11
12763.50402915949
 21
17115.49960392435
 31
0.0
  0
LINE
  5
3032F
330
2
100
AcDbEntity
  8
0
100
AcDbLine
 10
12711.2320291594
 20
17063.22757125434
 30
0.0
 11
12717.00174717942
 21
17068.99732194428
 31
0.0
  0
LINE
  5
30330
330
2
100
AcDbEntity
  8
0
100
AcDbLine
 10
12672.02802915952
 20
17024.02359085632
 30
0.0
 11
12677.79781251939
 21
17029.7933154103
 31
0.0
  0
LINE
  5
30331
330
2
100
AcDbEntity
  8
0
100
AcDbLine
 10
12757.12972011952
 20
17108.20133501236
 30
0.0
 11
12763.50402915949
 21
17114.57553297436
 31
0.0
  0
LINE
  5
30332
330
2
100
AcDbEntity
  8
0
100
AcDbLine
 10
12711.2320291594
 20
17062.30356564435
 30
0.0
 11
12717.92578545948
 21
17068.99732194428
 31
0.0
  0
LINE
  5
30333
330
2
100
AcDbEntity
  8
0
100
AcDbLine
 10
12672.02802915952
 20
17023.0996113823
 30
0.0
 11
12678.72178545946
 21
17029.7933154103
 31
0.0
  0
LINE
  5
30334
330
2
100
AcDbEntity
  8
0
100
AcDbLine
 10
12758.05388907942
 20
17108.20133501236
 30
0.0
 11
12763.50402915949
 21
17113.65144895632
 31
0.0
  0
LINE
  5
30335
330
2
100
AcDbEntity
  8
0
100
AcDbLine
 10
12711.2320291594
 20
17061.37946202429
 30
0.0
 11
12718.84988907939
 21
17068.99732194428
 31
0.0
  0
LINE
  5
30336
330
2
100
AcDbEntity
  8
0
100
AcDbLine
 10
12672.02802915952
 20
17022.17549469433
 30
0.0
 11
12679.64575839938
 21
17029.7933154103
 31
0.0
  0
LINE
  5
30337
330
2
100
AcDbEntity
  8
0
100
AcDbLine
 10
12758.97799269948
 20
17108.20133501236
 30
0.0
 11
12763.50402915949
 21
17112.72734533626
 31
0.0
  0
LINE
  5
30338
330
2
100
AcDbEntity
  8
0
100
AcDbLine
 10
12711.2320291594
 20
17060.45533226827
 30
0.0
 11
12719.77405803944
 21
17068.99732194428
 31
0.0
  0
LINE
  5
30339
330
2
100
AcDbEntity
  8
0
100
AcDbLine
 10
12672.02802915952
 20
17021.25138454032
 30
0.0
 11
12680.56992735943
 21
17029.7933154103
 31
0.0
  0
LINE
  5
3033A
330
2
100
AcDbEntity
  8
0
100
AcDbLine
 10
12759.90203097939
 20
17108.20133501236
 30
0.0
 11
12763.50402915949
 21
17111.80335932828
 31
0.0
  0
LINE
  5
3033B
330
2
100
AcDbEntity
  8
0
100
AcDbLine
 10
12711.2320291594
 20
17059.53130705626
 30
0.0
 11
12720.69803097951
 21
17068.99732194428
 31
0.0
  0
LINE
  5
3033C
330
2
100
AcDbEntity
  8
0
100
AcDbLine
 10
12672.02802915952
 20
17020.32732012429
 30
0.0
 11
12681.49409631948
 21
17029.7933154103
 31
0.0
  0
LINE
  5
3033D
330
2
100
AcDbEntity
  8
0
100
AcDbLine
 10
12760.82613459945
 20
17108.20133501236
 30
0.0
 11
12763.50402915949
 21
17110.87922957226
 31
0.0
  0
LINE
  5
3033E
330
2
100
AcDbEntity
  8
0
100
AcDbLine
 10
12711.2320291594
 20
17058.60720343635
 30
0.0
 11
12721.62219993941
 21
17068.99732194428
 31
0.0
  0
LINE
  5
3033F
330
2
100
AcDbEntity
  8
0
100
AcDbLine
 10
12672.02802915952
 20
17019.40320343632
 30
0.0
 11
12682.41819993939
 21
17029.7933154103
 31
0.0
  0
LINE
  5
30340
330
2
100
AcDbEntity
  8
0
100
AcDbLine
 10
12761.75010753952
 20
17108.20133501236
 30
0.0
 11
12763.50402915949
 21
17109.95516515623
 31
0.0
  0
LINE
  5
30341
330
2
100
AcDbEntity
  8
0
100
AcDbLine
 10
12711.2320291594
 20
17057.68317822434
 30
0.0
 11
12722.54617287948
 21
17068.99732194428
 31
0.0
  0
LINE
  5
30342
330
2
100
AcDbEntity
  8
0
100
AcDbLine
 10
12672.02802915952
 20
17018.47921742834
 30
0.0
 11
12683.34217287946
 21
17029.7933154103
 31
0.0
  0
LINE
  5
30343
330
2
100
AcDbEntity
  8
0
100
AcDbLine
 10
12762.67427649942
 20
17108.20133501236
 30
0.0
 11
12763.50402915949
 21
17109.03106153632
 31
0.0
  0
LINE
  5
30344
330
2
100
AcDbEntity
  8
0
100
AcDbLine
 10
12711.2320291594
 20
17056.75906153623
 30
0.0
 11
12723.47034183939
 21
17068.99732194428
 31
0.0
  0
LINE
  5
30345
330
2
100
AcDbEntity
  8
0
100
AcDbLine
 10
12672.02802915952
 20
17017.55510074023
 30
0.0
 11
12684.26621115952
 21
17029.7933154103
 31
0.0
  0
LINE
  5
30346
330
2
100
AcDbEntity
  8
0
100
AcDbLine
 10
12711.2320291594
 20
17055.83502325632
 30
0.0
 11
12724.39431477946
 21
17068.99732194428
 31
0.0
  0
LINE
  5
30347
330
2
100
AcDbEntity
  8
0
100
AcDbLine
 10
12672.02802915952
 20
17016.63103632435
 30
0.0
 11
12685.19031477943
 21
17029.7933154103
 31
0.0
  0
LINE
  5
30348
330
2
100
AcDbEntity
  8
0
100
AcDbLine
 10
12711.2320291594
 20
17054.91092617036
 30
0.0
 11
12725.3184837395
 21
17068.99732194428
 31
0.0
  0
LINE
  5
30349
330
2
100
AcDbEntity
  8
0
100
AcDbLine
 10
12672.02802915952
 20
17015.70693270429
 30
0.0
 11
12686.11448373948
 21
17029.7933154103
 31
0.0
  0
LINE
  5
3034A
330
2
100
AcDbEntity
  8
0
100
AcDbLine
 10
12711.2320291594
 20
17053.98691402627
 30
0.0
 11
12726.24245667943
 21
17068.99732194428
 31
0.0
  0
LINE
  5
3034B
330
2
100
AcDbEntity
  8
0
100
AcDbLine
 10
12672.02802915952
 20
17014.78294669631
 30
0.0
 11
12687.0384566794
 21
17029.7933154103
 31
0.0
  0
LINE
  5
3034C
330
2
100
AcDbEntity
  8
0
100
AcDbLine
 10
12711.2320291594
 20
17053.06277773629
 30
0.0
 11
12727.16656029948
 21
17068.99732194428
 31
0.0
  0
LINE
  5
3034D
330
2
100
AcDbEntity
  8
0
100
AcDbLine
 10
12672.02802915952
 20
17013.85883000834
 30
0.0
 11
12687.96242961948
 21
17029.7933154103
 31
0.0
  0
LINE
  5
3034E
330
2
100
AcDbEntity
  8
0
100
AcDbLine
 10
12711.2320291594
 20
17052.13868065033
 30
0.0
 11
12728.09072925938
 21
17068.99732194428
 31
0.0
  0
LINE
  5
3034F
330
2
100
AcDbEntity
  8
0
100
AcDbLine
 10
12672.02802915952
 20
17012.93471985433
 30
0.0
 11
12688.88659857952
 21
17029.7933154103
 31
0.0
  0
LINE
  5
30350
330
2
100
AcDbEntity
  8
0
100
AcDbLine
 10
12711.2320291594
 20
17051.21463583632
 30
0.0
 11
12729.01470219946
 21
17068.99732194428
 31
0.0
  0
LINE
  5
30351
330
2
100
AcDbEntity
  8
0
100
AcDbLine
 10
12672.02802915952
 20
17012.01064890434
 30
0.0
 11
12689.81076753942
 21
17029.7933154103
 31
0.0
  0
LINE
  5
30352
330
2
100
AcDbEntity
  8
0
100
AcDbLine
 10
12711.2320291594
 20
17050.29061715826
 30
0.0
 11
12729.93867513938
 21
17068.99732194428
 31
0.0
  0
LINE
  5
30353
330
2
100
AcDbEntity
  8
0
100
AcDbLine
 10
12672.02802915952
 20
17011.08666289636
 30
0.0
 11
12690.73474047949
 21
17029.7933154103
 31
0.0
  0
LINE
  5
30354
330
2
100
AcDbEntity
  8
0
100
AcDbLine
 10
12711.2320291594
 20
17049.36651353835
 30
0.0
 11
12730.86284409943
 21
17068.99732194428
 31
0.0
  0
LINE
  5
30355
330
2
100
AcDbEntity
  8
0
100
AcDbLine
 10
12672.02802915952
 20
17010.16255274235
 30
0.0
 11
12691.6589094394
 21
17029.7933154103
 31
0.0
  0
LINE
  5
30356
330
2
100
AcDbEntity
  8
0
100
AcDbLine
 10
12711.2320291594
 20
17048.44240338434
 30
0.0
 11
12731.78701305948
 21
17068.99732194428
 31
0.0
  0
LINE
  5
30357
330
2
100
AcDbEntity
  8
0
100
AcDbLine
 10
12672.02802915952
 20
17009.2384491223
 30
0.0
 11
12692.58288237947
 21
17029.7933154103
 31
0.0
  0
LINE
  5
30358
330
2
100
AcDbEntity
  8
0
100
AcDbLine
 10
12711.2320291594
 20
17047.51835857033
 30
0.0
 11
12732.7109859994
 21
17068.99732194428
 31
0.0
  0
LINE
  5
30359
330
2
100
AcDbEntity
  8
0
100
AcDbLine
 10
12672.02802915952
 20
17008.31437163835
 30
0.0
 11
12693.50698599952
 21
17029.7933154103
 31
0.0
  0
LINE
  5
3035A
330
2
100
AcDbEntity
  8
0
100
AcDbLine
 10
12711.2320291594
 20
17046.59424188236
 30
0.0
 11
12733.63515495945
 21
17068.99732194428
 31
0.0
  0
LINE
  5
3035B
330
2
100
AcDbEntity
  8
0
100
AcDbLine
 10
12672.02802915952
 20
17007.39025495024
 30
0.0
 11
12694.43115495942
 21
17029.7933154103
 31
0.0
  0
LINE
  5
3035C
330
2
100
AcDbEntity
  8
0
100
AcDbLine
 10
12711.2320291594
 20
17045.67023627236
 30
0.0
 11
12734.55912789952
 21
17068.99732194428
 31
0.0
  0
LINE
  5
3035D
330
2
100
AcDbEntity
  8
0
100
AcDbLine
 10
12672.02802915952
 20
17006.46626894226
 30
0.0
 11
12695.35512789949
 21
17029.7933154103
 31
0.0
  0
LINE
  5
3035E
330
2
100
AcDbEntity
  8
0
100
AcDbLine
 10
12711.2320291594
 20
17044.74611958425
 30
0.0
 11
12735.48323151943
 21
17068.99732194428
 31
0.0
  0
LINE
  5
3035F
330
2
100
AcDbEntity
  8
0
100
AcDbLine
 10
12672.02802915952
 20
17005.54216532235
 30
0.0
 11
12696.27910083942
 21
17029.7933154103
 31
0.0
  0
LINE
  5
30360
330
2
100
AcDbEntity
  8
0
100
AcDbLine
 10
12711.2320291594
 20
17043.82201596434
 30
0.0
 11
12736.40726979949
 21
17068.99732194428
 31
0.0
  0
LINE
  5
30361
330
2
100
AcDbEntity
  8
0
100
AcDbLine
 10
12672.02802915952
 20
17004.61805516834
 30
0.0
 11
12697.20326979947
 21
17029.7933154103
 31
0.0
  0
LINE
  5
30362
330
2
100
AcDbEntity
  8
0
100
AcDbLine
 10
12711.2320291594
 20
17042.89797115032
 30
0.0
 11
12737.3313734194
 21
17068.99732194428
 31
0.0
  0
LINE
  5
30363
330
2
100
AcDbEntity
  8
0
100
AcDbLine
 10
12672.02802915952
 20
17003.69398421836
 30
0.0
 11
12698.12743875951
 21
17029.7933154103
 31
0.0
  0
LINE
  5
30364
330
2
100
AcDbEntity
  8
0
100
AcDbLine
 10
12711.2320291594
 20
17041.97395247227
 30
0.0
 11
12738.25534635947
 21
17068.99732194428
 31
0.0
  0
LINE
  5
30365
330
2
100
AcDbEntity
  8
0
100
AcDbLine
 10
12672.02802915952
 20
17002.77000474433
 30
0.0
 11
12699.05141169944
 21
17029.7933154103
 31
0.0
  0
LINE
  5
30366
330
2
100
AcDbEntity
  8
0
100
AcDbLine
 10
12711.2320291594
 20
17041.04983578431
 30
0.0
 11
12739.17951531952
 21
17068.99732194428
 31
0.0
  0
LINE
  5
30367
330
2
100
AcDbEntity
  8
0
100
AcDbLine
 10
12672.02802915952
 20
17001.84588152226
 30
0.0
 11
12699.97558065949
 21
17029.7933154103
 31
0.0
  0
LINE
  5
30368
330
2
100
AcDbEntity
  8
0
100
AcDbLine
 10
12711.2320291594
 20
17040.12573216425
 30
0.0
 11
12740.10368427942
 21
17068.99732194428
 31
0.0
  0
LINE
  5
30369
330
2
100
AcDbEntity
  8
0
100
AcDbLine
 10
12672.02802915952
 20
17000.92177136825
 30
0.0
 11
12700.89955359941
 21
17029.7933154103
 31
0.0
  0
LINE
  5
3036A
330
2
100
AcDbEntity
  8
0
100
AcDbLine
 10
12711.2320291594
 20
17039.20169388434
 30
0.0
 11
12741.02765721949
 21
17068.99732194428
 31
0.0
  0
LINE
  5
3036B
330
2
100
AcDbEntity
  8
0
100
AcDbLine
 10
12672.02802915952
 20
16999.99770041826
 30
0.0
 11
12701.82365721947
 21
17029.7933154103
 31
0.0
  0
LINE
  5
3036C
330
2
100
AcDbEntity
  8
0
100
AcDbLine
 10
12711.2320291594
 20
17038.27759026428
 30
0.0
 11
12741.95182617939
 21
17068.99732194428
 31
0.0
  0
LINE
  5
3036D
330
2
100
AcDbEntity
  8
0
100
AcDbLine
 10
12672.02802915952
 20
16999.07360333231
 30
0.0
 11
12702.74769549939
 21
17029.7933154103
 31
0.0
  0
LINE
  5
3036E
330
2
100
AcDbEntity
  8
0
100
AcDbLine
 10
12711.2320291594
 20
17037.35356505227
 30
0.0
 11
12742.87579911947
 21
17068.99732194428
 31
0.0
  0
LINE
  5
3036F
330
2
100
AcDbEntity
  8
0
100
AcDbLine
 10
12672.02802915952
 20
16998.14960425627
 30
0.0
 11
12703.67179911944
 21
17029.7933154103
 31
0.0
  0
LINE
  5
30370
330
2
100
AcDbEntity
  8
0
100
AcDbLine
 10
12711.2320291594
 20
17036.42945489826
 30
0.0
 11
12743.79990273952
 21
17068.99732194428
 31
0.0
  0
LINE
  5
30371
330
2
100
AcDbEntity
  8
0
100
AcDbLine
 10
12672.02802915952
 20
16997.22551370427
 30
0.0
 11
12704.59577205951
 21
17029.7933154103
 31
0.0
  0
LINE
  5
30372
330
2
100
AcDbEntity
  8
0
100
AcDbLine
 10
12711.2320291594
 20
17035.50541008424
 30
0.0
 11
12744.72394101944
 21
17068.99732194428
 31
0.0
  0
LINE
  5
30373
330
2
100
AcDbEntity
  8
0
100
AcDbLine
 10
12672.02802915952
 20
16996.30142315227
 30
0.0
 11
12705.51994101941
 21
17029.7933154103
 31
0.0
  0
LINE
  5
30374
330
2
100
AcDbEntity
  8
0
100
AcDbLine
 10
12711.2320291594
 20
17034.58130646434
 30
0.0
 11
12745.64804463949
 21
17068.99732194428
 31
0.0
  0
LINE
  5
30375
330
2
100
AcDbEntity
  8
0
100
AcDbLine
 10
12672.02802915952
 20
16995.37731953236
 30
0.0
 11
12706.44410997946
 21
17029.7933154103
 31
0.0
  0
LINE
  5
30376
330
2
100
AcDbEntity
  8
0
100
AcDbLine
 10
12711.2320291594
 20
17033.65728778628
 30
0.0
 11
12746.57201757942
 21
17068.99732194428
 31
0.0
  0
LINE
  5
30377
330
2
100
AcDbEntity
  8
0
100
AcDbLine
 10
12672.02802915952
 20
16994.45333352423
 30
0.0
 11
12707.36808291939
 21
17029.7933154103
 31
0.0
  0
LINE
  5
30378
330
2
100
AcDbEntity
  8
0
100
AcDbLine
 10
12711.2320291594
 20
17032.73319070033
 30
0.0
 11
12747.49618653947
 21
17068.99732194428
 31
0.0
  0
LINE
  5
30379
330
2
100
AcDbEntity
  8
0
100
AcDbLine
 10
12672.02802915952
 20
16993.52922337037
 30
0.0
 11
12708.29205585946
 21
17029.7933154103
 31
0.0
  0
LINE
  5
3037A
330
2
100
AcDbEntity
  8
0
100
AcDbLine
 10
12711.2320291594
 20
17031.80906747826
 30
0.0
 11
12748.42035549951
 21
17068.99732194428
 31
0.0
  0
LINE
  5
3037B
330
2
100
AcDbEntity
  8
0
100
AcDbLine
 10
12672.02802915952
 20
16992.60511975032
 30
0.0
 11
12709.2162248195
 21
17029.7933154103
 31
0.0
  0
LINE
  5
3037C
330
2
100
AcDbEntity
  8
0
100
AcDbLine
 10
12711.2320291594
 20
17030.88502266424
 30
0.0
 11
12749.34432843944
 21
17068.99732194428
 31
0.0
  0
LINE
  5
3037D
330
2
100
AcDbEntity
  8
0
100
AcDbLine
 10
12672.02802915952
 20
16991.68103573227
 30
0.0
 11
12710.14032843941
 21
17029.7933154103
 31
0.0
  0
LINE
  5
3037E
330
2
100
AcDbEntity
  8
0
100
AcDbLine
 10
12711.2320291594
 20
17029.96101705425
 30
0.0
 11
12750.26830137951
 21
17068.99732194428
 31
0.0
  0
LINE
  5
3037F
330
2
100
AcDbEntity
  8
0
100
AcDbLine
 10
12672.02802915952
 20
16990.75705625824
 30
0.0
 11
12711.06436671948
 21
17029.7933154103
 31
0.0
  0
LINE
  5
30380
330
2
100
AcDbEntity
  8
0
100
AcDbLine
 10
12711.98847033939
 20
17029.7933154103
 30
0.0
 11
12750.43596381944
 21
17068.24085462833
 31
0.0
  0
LINE
  5
30381
330
2
100
AcDbEntity
  8
0
100
AcDbLine
 10
12672.78433965952
 20
16990.58932194423
 30
0.0
 11
12711.2320291594
 21
17029.03690036628
 31
0.0
  0
LINE
  5
30382
330
2
100
AcDbEntity
  8
0
100
AcDbLine
 10
12712.91250861945
 20
17029.7933154103
 30
0.0
 11
12750.43596381944
 21
17067.31675100828
 31
0.0
  0
LINE
  5
30383
330
2
100
AcDbEntity
  8
0
100
AcDbLine
 10
12673.70850861942
 20
16990.58932194423
 30
0.0
 11
12711.2320291594
 21
17028.11280328033
 31
0.0
  0
LINE
  5
30384
330
2
100
AcDbEntity
  8
0
100
AcDbLine
 10
12713.8366122395
 20
17029.7933154103
 30
0.0
 11
12750.43596381944
 21
17066.39272579627
 31
0.0
  0
LINE
  5
30385
330
2
100
AcDbEntity
  8
0
100
AcDbLine
 10
12674.63267757947
 20
16990.58932194423
 30
0.0
 11
12711.2320291594
 21
17027.1887388643
 31
0.0
  0
LINE
  5
30386
330
2
100
AcDbEntity
  8
0
100
AcDbLine
 10
12714.76058517943
 20
17029.7933154103
 30
0.0
 11
12750.43596381944
 21
17065.46862217636
 31
0.0
  0
LINE
  5
30387
330
2
100
AcDbEntity
  8
0
100
AcDbLine
 10
12675.55665051939
 20
16990.58932194423
 30
0.0
 11
12711.2320291594
 21
17026.26462871029
 31
0.0
  0
LINE
  5
30388
330
2
100
AcDbEntity
  8
0
100
AcDbLine
 10
12715.68475413948
 20
17029.7933154103
 30
0.0
 11
12750.43596381944
 21
17064.54459043025
 31
0.0
  0
LINE
  5
30389
330
2
100
AcDbEntity
  8
0
100
AcDbLine
 10
12676.48062345947
 20
16990.58932194423
 30
0.0
 11
12711.2320291594
 21
17025.34062310029
 31
0.0
  0
LINE
  5
3038A
330
2
100
AcDbEntity
  8
0
100
AcDbLine
 10
12716.6087270794
 20
17029.7933154103
 30
0.0
 11
12750.43596381944
 21
17063.62046720833
 31
0.0
  0
LINE
  5
3038B
330
2
100
AcDbEntity
  8
0
100
AcDbLine
 10
12677.40479241951
 20
16990.58932194423
 30
0.0
 11
12711.2320291594
 21
17024.41651294628
 31
0.0
  0
LINE
  5
3038C
330
2
100
AcDbEntity
  8
0
100
AcDbLine
 10
12717.53289603945
 20
17029.7933154103
 30
0.0
 11
12750.43596381944
 21
17062.69636358828
 31
0.0
  0
LINE
  5
3038D
330
2
100
AcDbEntity
  8
0
100
AcDbLine
 10
12678.32889603942
 20
16990.58932194423
 30
0.0
 11
12711.2320291594
 21
17023.49240279227
 31
0.0
  0
LINE
  5
3038E
330
2
100
AcDbEntity
  8
0
100
AcDbLine
 10
12718.45706499949
 20
17029.7933154103
 30
0.0
 11
12750.43596381944
 21
17061.77235797828
 31
0.0
  0
LINE
  5
3038F
330
2
100
AcDbEntity
  8
0
100
AcDbLine
 10
12679.25293431948
 20
16990.58932194423
 30
0.0
 11
12711.2320291594
 21
17022.56835797825
 31
0.0
  0
LINE
  5
30390
330
2
100
AcDbEntity
  8
0
100
AcDbLine
 10
12719.38103793942
 20
17029.7933154103
 30
0.0
 11
12750.43596381944
 21
17060.8482870283
 31
0.0
  0
LINE
  5
30391
330
2
100
AcDbEntity
  8
0
100
AcDbLine
 10
12680.17690725941
 20
16990.58932194423
 30
0.0
 11
12711.2320291594
 21
17021.64433930035
 31
0.0
  0
LINE
  5
30392
330
2
100
AcDbEntity
  8
0
100
AcDbLine
 10
12720.30501087949
 20
17029.7933154103
 30
0.0
 11
12750.43596381944
 21
17059.92418340824
 31
0.0
  0
LINE
  5
30393
330
2
100
AcDbEntity
  8
0
100
AcDbLine
 10
12681.10101087947
 20
16990.58932194423
 30
0.0
 11
12711.2320291594
 21
17020.72023568029
 31
0.0
  0
LINE
  5
30394
330
2
100
AcDbEntity
  8
0
100
AcDbLine
 10
12721.22917983939
 20
17029.7933154103
 30
0.0
 11
12750.43596381944
 21
17059.00007978833
 31
0.0
  0
LINE
  5
30395
330
2
100
AcDbEntity
  8
0
100
AcDbLine
 10
12682.02517983951
 20
16990.58932194423
 30
0.0
 11
12711.2320291594
 21
17019.79613206024
 31
0.0
  0
LINE
  5
30396
330
2
100
AcDbEntity
  8
0
100
AcDbLine
 10
12722.15328345945
 20
17029.7933154103
 30
0.0
 11
12750.43596381944
 21
17058.07607417834
 31
0.0
  0
LINE
  5
30397
330
2
100
AcDbEntity
  8
0
100
AcDbLine
 10
12682.94934879941
 20
16990.58932194423
 30
0.0
 11
12711.2320291594
 21
17018.87207417831
 31
0.0
  0
LINE
  5
30398
330
2
100
AcDbEntity
  8
0
100
AcDbLine
 10
12723.07725639952
 20
17029.7933154103
 30
0.0
 11
12750.43596381944
 21
17057.15202283036
 31
0.0
  0
LINE
  5
30399
330
2
100
AcDbEntity
  8
0
100
AcDbLine
 10
12683.87332173948
 20
16990.58932194423
 30
0.0
 11
12711.2320291594
 21
17017.94806856831
 31
0.0
  0
LINE
  5
3039A
330
2
100
AcDbEntity
  8
0
100
AcDbLine
 10
12724.00142535942
 20
17029.7933154103
 30
0.0
 11
12750.43596381944
 21
17056.22793881232
 31
0.0
  0
LINE
  5
3039B
330
2
100
AcDbEntity
  8
0
100
AcDbLine
 10
12684.79729467941
 20
16990.58932194423
 30
0.0
 11
12711.2320291594
 21
17017.02397148236
 31
0.0
  0
LINE
  5
3039C
330
2
100
AcDbEntity
  8
0
100
AcDbLine
 10
12724.92539829949
 20
17029.7933154103
 30
0.0
 11
12750.43596381944
 21
17055.30380252234
 31
0.0
  0
LINE
  5
3039D
330
2
100
AcDbEntity
  8
0
100
AcDbLine
 10
12685.72146363946
 20
16990.58932194423
 30
0.0
 11
12711.2320291594
 21
17016.09984826029
 31
0.0
  0
LINE
  5
3039E
330
2
100
AcDbEntity
  8
0
100
AcDbLine
 10
12725.84956725939
 20
17029.7933154103
 30
0.0
 11
12750.43596381944
 21
17054.37979037824
 31
0.0
  0
LINE
  5
3039F
330
2
100
AcDbEntity
  8
0
100
AcDbLine
 10
12686.64556725951
 20
16990.58932194423
 30
0.0
 11
12711.2320291594
 21
17015.17579037837
 31
0.0
  0
LINE
  5
303A0
330
2
100
AcDbEntity
  8
0
100
AcDbLine
 10
12726.77373621944
 20
17029.7933154103
 30
0.0
 11
12750.43596381944
 21
17053.45567369028
 31
0.0
  0
LINE
  5
303A1
330
2
100
AcDbEntity
  8
0
100
AcDbLine
 10
12687.56960553943
 20
16990.58932194423
 30
0.0
 11
12711.2320291594
 21
17014.25168675831
 31
0.0
  0
LINE
  5
303A2
330
2
100
AcDbEntity
  8
0
100
AcDbLine
 10
12727.69770915951
 20
17029.7933154103
 30
0.0
 11
12750.43596381944
 21
17052.53164847827
 31
0.0
  0
LINE
  5
303A3
330
2
100
AcDbEntity
  8
0
100
AcDbLine
 10
12688.4935784795
 20
16990.58932194423
 30
0.0
 11
12711.2320291594
 21
17013.32768768227
 31
0.0
  0
LINE
  5
303A4
330
2
100
AcDbEntity
  8
0
100
AcDbLine
 10
12728.62168209944
 20
17029.7933154103
 30
0.0
 11
12750.43596381944
 21
17051.60753832426
 31
0.0
  0
LINE
  5
303A5
330
2
100
AcDbEntity
  8
0
100
AcDbLine
 10
12689.41768209941
 20
16990.58932194423
 30
0.0
 11
12711.2320291594
 21
17012.40358406236
 31
0.0
  0
LINE
  5
303A6
330
2
100
AcDbEntity
  8
0
100
AcDbLine
 10
12729.54585105948
 20
17029.7933154103
 30
0.0
 11
12750.43596381944
 21
17050.6834216363
 31
0.0
  0
LINE
  5
303A7
330
2
100
AcDbEntity
  8
0
100
AcDbLine
 10
12690.34185105946
 20
16990.58932194423
 30
0.0
 11
12711.2320291594
 21
17011.47947390835
 31
0.0
  0
LINE
  5
303A8
330
2
100
AcDbEntity
  8
0
100
AcDbLine
 10
12730.46995467939
 20
17029.7933154103
 30
0.0
 11
12750.43596381944
 21
17049.75939642429
 31
0.0
  0
LINE
  5
303A9
330
2
100
AcDbEntity
  8
0
100
AcDbLine
 10
12691.2660200195
 20
16990.58932194423
 30
0.0
 11
12711.2320291594
 21
17010.55540949232
 31
0.0
  0
LINE
  5
303AA
330
2
100
AcDbEntity
  8
0
100
AcDbLine
 10
12731.39392761947
 20
17029.7933154103
 30
0.0
 11
12750.43596381944
 21
17048.83536467833
 31
0.0
  0
LINE
  5
303AB
330
2
100
AcDbEntity
  8
0
100
AcDbLine
 10
12692.18999295943
 20
16990.58932194423
 30
0.0
 11
12711.2320291594
 21
17009.63140388232
 31
0.0
  0
LINE
  5
303AC
330
2
100
AcDbEntity
  8
0
100
AcDbLine
 10
12732.31809657951
 20
17029.7933154103
 30
0.0
 11
12750.43596381944
 21
17047.91125452432
 31
0.0
  0
LINE
  5
303AD
330
2
100
AcDbEntity
  8
0
100
AcDbLine
 10
12693.1139658995
 20
16990.58932194423
 30
0.0
 11
12711.2320291594
 21
17008.70730026227
 31
0.0
  0
LINE
  5
303AE
330
2
100
AcDbEntity
  8
0
100
AcDbLine
 10
12733.24206951944
 20
17029.7933154103
 30
0.0
 11
12750.43596381944
 21
17046.98715743836
 31
0.0
  0
LINE
  5
303AF
330
2
100
AcDbEntity
  8
0
100
AcDbLine
 10
12694.0381348594
 20
16990.58932194423
 30
0.0
 11
12711.2320291594
 21
17007.78319010826
 31
0.0
  0
LINE
  5
303B0
330
2
100
AcDbEntity
  8
0
100
AcDbLine
 10
12734.16623847948
 20
17029.7933154103
 30
0.0
 11
12750.43596381944
 21
17046.06312569225
 31
0.0
  0
LINE
  5
303B1
330
2
100
AcDbEntity
  8
0
100
AcDbLine
 10
12694.96223847946
 20
16990.58932194423
 30
0.0
 11
12711.2320291594
 21
17006.85913876028
 31
0.0
  0
LINE
  5
303B2
330
2
100
AcDbEntity
  8
0
100
AcDbLine
 10
12735.09021141941
 20
17029.7933154103
 30
0.0
 11
12750.43596381944
 21
17045.13899593623
 31
0.0
  0
LINE
  5
303B3
330
2
100
AcDbEntity
  8
0
100
AcDbLine
 10
12695.88627675952
 20
16990.58932194423
 30
0.0
 11
12711.2320291594
 21
17005.93502207232
 31
0.0
  0
LINE
  5
303B4
330
2
100
AcDbEntity
  8
0
100
AcDbLine
 10
12736.01438037946
 20
17029.7933154103
 30
0.0
 11
12750.43596381944
 21
17044.21496419027
 31
0.0
  0
LINE
  5
303B5
330
2
100
AcDbEntity
  8
0
100
AcDbLine
 10
12696.81024969945
 20
16990.58932194423
 30
0.0
 11
12711.2320291594
 21
17005.01101646232
 31
0.0
  0
LINE
  5
303B6
330
2
100
AcDbEntity
  8
0
100
AcDbLine
 10
12736.93835331938
 20
17029.7933154103
 30
0.0
 11
12750.43596381944
 21
17043.29086710432
 31
0.0
  0
LINE
  5
303B7
330
2
100
AcDbEntity
  8
0
100
AcDbLine
 10
12697.7343533195
 20
16990.58932194423
 30
0.0
 11
12711.2320291594
 21
17004.08690630831
 31
0.0
  0
LINE
  5
303B8
330
2
100
AcDbEntity
  8
0
100
AcDbLine
 10
12737.86252227943
 20
17029.7933154103
 30
0.0
 11
12750.43596381944
 21
17042.36684842626
 31
0.0
  0
LINE
  5
303B9
330
2
100
AcDbEntity
  8
0
100
AcDbLine
 10
12698.6585222794
 20
16990.58932194423
 30
0.0
 11
12711.2320291594
 21
17003.16285496034
 31
0.0
  0
LINE
  5
303BA
330
2
100
AcDbEntity
  8
0
100
AcDbLine
 10
12738.7864952195
 20
17029.7933154103
 30
0.0
 11
12750.43596381944
 21
17041.44274480636
 31
0.0
  0
LINE
  5
303BB
330
2
100
AcDbEntity
  8
0
100
AcDbLine
 10
12699.58249521948
 20
16990.58932194423
 30
0.0
 11
12711.2320291594
 21
17002.23874480633
 31
0.0
  0
LINE
  5
303BC
330
2
100
AcDbEntity
  8
0
100
AcDbLine
 10
12739.71059883941
 20
17029.7933154103
 30
0.0
 11
12750.43596381944
 21
17040.51870652629
 31
0.0
  0
LINE
  5
303BD
330
2
100
AcDbEntity
  8
0
100
AcDbLine
 10
12700.50653349939
 20
16990.58932194423
 30
0.0
 11
12711.2320291594
 21
17001.31475226424
 31
0.0
  0
LINE
  5
303BE
330
2
100
AcDbEntity
  8
0
100
AcDbLine
 10
12740.63476779946
 20
17029.7933154103
 30
0.0
 11
12750.43596381944
 21
17039.59458330437
 31
0.0
  0
LINE
  5
303BF
330
2
100
AcDbEntity
  8
0
100
AcDbLine
 10
12701.43063711945
 20
16990.58932194423
 30
0.0
 11
12711.2320291594
 21
17000.39062250837
 31
0.0
  0
LINE
  5
303C0
330
2
100
AcDbEntity
  8
0
100
AcDbLine
 10
12741.55874073938
 20
17029.7933154103
 30
0.0
 11
12750.43596381944
 21
17038.67047315036
 31
0.0
  0
LINE
  5
303C1
330
2
100
AcDbEntity
  8
0
100
AcDbLine
 10
12702.35480607949
 20
16990.58932194423
 30
0.0
 11
12711.2320291594
 21
16999.46651888831
 31
0.0
  0
LINE
  5
303C2
330
2
100
AcDbEntity
  8
0
100
AcDbLine
 10
12742.48290969943
 20
17029.7933154103
 30
0.0
 11
12750.43596381944
 21
17037.74644793836
 31
0.0
  0
LINE
  5
303C3
330
2
100
AcDbEntity
  8
0
100
AcDbLine
 10
12703.2789096994
 20
16990.58932194423
 30
0.0
 11
12711.2320291594
 21
16998.54246100624
 31
0.0
  0
LINE
  5
303C4
330
2
100
AcDbEntity
  8
0
100
AcDbLine
 10
12743.4068826395
 20
17029.7933154103
 30
0.0
 11
12750.43596381944
 21
17036.82242272635
 31
0.0
  0
LINE
  5
303C5
330
2
100
AcDbEntity
  8
0
100
AcDbLine
 10
12704.20294797947
 20
16990.58932194423
 30
0.0
 11
12711.2320291594
 21
16997.6184684643
 31
0.0
  0
LINE
  5
303C6
330
2
100
AcDbEntity
  8
0
100
AcDbLine
 10
12744.3310515994
 20
17029.7933154103
 30
0.0
 11
12750.43596381944
 21
17035.89831910629
 31
0.0
  0
LINE
  5
303C7
330
2
100
AcDbEntity
  8
0
100
AcDbLine
 10
12705.12692091939
 20
16990.58932194423
 30
0.0
 11
12711.2320291594
 21
16996.69435831029
 31
0.0
  0
LINE
  5
303C8
330
2
100
AcDbEntity
  8
0
100
AcDbLine
 10
12745.25502453948
 20
17029.7933154103
 30
0.0
 11
12750.43596381944
 21
17034.97420895228
 31
0.0
  0
LINE
  5
303C9
330
2
100
AcDbEntity
  8
0
100
AcDbLine
 10
12706.05108987944
 20
16990.58932194423
 30
0.0
 11
12711.2320291594
 21
16995.77025469023
 31
0.0
  0
LINE
  5
303CA
330
2
100
AcDbEntity
  8
0
100
AcDbLine
 10
12746.17919349952
 20
17029.7933154103
 30
0.0
 11
12750.43596381944
 21
17034.05015760431
 31
0.0
  0
LINE
  5
303CB
330
2
100
AcDbEntity
  8
0
100
AcDbLine
 10
12706.97519349949
 20
16990.58932194423
 30
0.0
 11
12711.2320291594
 21
16994.84617720629
 31
0.0
  0
LINE
  5
303CC
330
2
100
AcDbEntity
  8
0
100
AcDbLine
 10
12747.10316643945
 20
17029.7933154103
 30
0.0
 11
12750.43596381944
 21
17033.12606051835
 31
0.0
  0
LINE
  5
303CD
330
2
100
AcDbEntity
  8
0
100
AcDbLine
 10
12707.89916643942
 20
16990.58932194423
 30
0.0
 11
12711.2320291594
 21
16993.92207358624
 31
0.0
  0
LINE
  5
303CE
330
2
100
AcDbEntity
  8
0
100
AcDbLine
 10
12748.02733539949
 20
17029.7933154103
 30
0.0
 11
12750.43596381944
 21
17032.20203530635
 31
0.0
  0
LINE
  5
303CF
330
2
100
AcDbEntity
  8
0
100
AcDbLine
 10
12708.82320471949
 20
16990.58932194423
 30
0.0
 11
12711.2320291594
 21
16992.99807451034
 31
0.0
  0
LINE
  5
303D0
330
2
100
AcDbEntity
  8
0
100
AcDbLine
 10
12748.95130833942
 20
17029.7933154103
 30
0.0
 11
12750.43596381944
 21
17031.27792515234
 31
0.0
  0
LINE
  5
303D1
330
2
100
AcDbEntity
  8
0
100
AcDbLine
 10
12709.74730833939
 20
16990.58932194423
 30
0.0
 11
12711.2320291594
 21
16992.07397089029
 31
0.0
  0
LINE
  5
303D2
330
2
100
AcDbEntity
  8
0
100
AcDbLine
 10
12749.87541195948
 20
17029.7933154103
 30
0.0
 11
12750.43596381944
 21
17030.35382153228
 31
0.0
  0
LINE
  5
303D3
330
2
100
AcDbEntity
  8
0
100
AcDbLine
 10
12710.67147729944
 20
16990.58932194423
 30
0.0
 11
12711.2320291594
 21
16991.14986073628
 31
0.0
  0
LINE
  5
303D4
330
2
100
AcDbEntity
  8
0
100
AcDbLine
 10
12872.22939430849
 20
17065.80716299834
 30
0.0
 11
12873.17599930855
 21
17066.75369374842
 31
0.0
  0
LINE
  5
303D5
330
2
100
AcDbEntity
  8
0
100
AcDbLine
 10
12872.22939430849
 20
17064.64034899846
 30
0.0
 11
12874.3428793085
 21
17066.75369374842
 31
0.0
  0
LINE
  5
303D6
330
2
100
AcDbEntity
  8
0
100
AcDbLine
 10
12872.22939430849
 20
17063.47363399846
 30
0.0
 11
12875.50951180845
 21
17066.75369374842
 31
0.0
  0
LINE
  5
303D7
330
2
100
AcDbEntity
  8
0
100
AcDbLine
 10
12872.22939430849
 20
17062.30683649841
 30
0.0
 11
12876.67639180854
 21
17066.75369374842
 31
0.0
  0
LINE
  5
303D8
330
2
100
AcDbEntity
  8
0
100
AcDbLine
 10
12872.22939430849
 20
17061.14003074845
 30
0.0
 11
12877.8430243085
 21
17066.75369374842
 31
0.0
  0
LINE
  5
303D9
330
2
100
AcDbEntity
  8
0
100
AcDbLine
 10
12872.22939430849
 20
17059.97333224843
 30
0.0
 11
12879.00982180854
 21
17066.75369374842
 31
0.0
  0
LINE
  5
303DA
330
2
100
AcDbEntity
  8
0
100
AcDbLine
 10
12872.22939430849
 20
17058.80653474839
 30
0.0
 11
12880.17653680854
 21
17066.75369374842
 31
0.0
  0
LINE
  5
303DB
330
2
100
AcDbEntity
  8
0
100
AcDbLine
 10
12873.09333430847
 20
17058.50369374845
 30
0.0
 11
12880.47947680851
 21
17065.88985274846
 31
0.0
  0
LINE
  5
303DC
330
2
100
AcDbEntity
  8
0
100
AcDbLine
 10
12874.26021430842
 20
17058.50369374845
 30
0.0
 11
12880.47947680851
 21
17064.72304699835
 31
0.0
  0
LINE
  5
303DD
330
2
100
AcDbEntity
  8
0
100
AcDbLine
 10
12875.42684680851
 20
17058.50369374845
 30
0.0
 11
12880.47947680851
 21
17063.55634024842
 31
0.0
  0
LINE
  5
303DE
330
2
100
AcDbEntity
  8
0
100
AcDbLine
 10
12876.59372680846
 20
17058.50369374845
 30
0.0
 11
12880.47947680851
 21
17062.38953449845
 31
0.0
  0
LINE
  5
303DF
330
2
100
AcDbEntity
  8
0
100
AcDbLine
 10
12877.76035930841
 20
17058.50369374845
 30
0.0
 11
12880.47947680851
 21
17061.22283599843
 31
0.0
  0
LINE
  5
303E0
330
2
100
AcDbEntity
  8
0
100
AcDbLine
 10
12878.92715680846
 20
17058.50369374845
 30
0.0
 11
12880.47947680851
 21
17060.05603849839
 31
0.0
  0
LINE
  5
303E1
330
2
100
AcDbEntity
  8
0
100
AcDbLine
 10
12880.09387180846
 20
17058.50369374845
 30
0.0
 11
12880.47947680851
 21
17058.88931524833
 31
0.0
  0
LINE
  5
303E2
330
2
100
AcDbEntity
  8
0
100
AcDbLine
 10
12711.2320291594
 20
16990.58932194423
 30
0.0
 11
12711.2320291594
 21
17108.20133501236
 31
0.0
  0
LINE
  5
303E3
330
2
100
AcDbEntity
  8
0
100
AcDbLine
 10
12763.50402915949
 20
17108.20133501236
 30
0.0
 11
12763.50402915949
 21
17147.40534154635
 31
0.0
  0
LINE
  5
303E4
330
2
100
AcDbEntity
  8
0
100
AcDbLine
 10
12711.2320291594
 20
17108.20133501236
 30
0.0
 11
12763.50402915949
 21
17108.20133501236
 31
0.0
  0
LINE
  5
303E5
330
2
100
AcDbEntity
  8
0
100
AcDbLine
 10
12750.43596381944
 20
17068.99732194428
 30
0.0
 11
12672.02802915952
 21
17068.99732194428
 31
0.0
  0
LINE
  5
303E6
330
2
100
AcDbEntity
  8
0
100
AcDbLine
 10
13121.80839430843
 20
17027.76802174844
 30
0.0
 11
13164.55725430842
 21
17027.76802174844
 31
0.0
  0
LINE
  5
303E7
330
2
100
AcDbEntity
  8
0
100
AcDbLine
 10
13121.80839430843
 20
17062.62869374836
 30
0.0
 11
13164.55725430842
 21
17062.62869374836
 31
0.0
  0
LINE
  5
303E8
330
2
100
AcDbEntity
  8
0
100
AcDbLine
 10
13121.80839430843
 20
17097.69119374842
 30
0.0
 11
13121.80839430843
 21
17027.76802174844
 31
0.0
  0
LINE
  5
303E9
330
2
100
AcDbEntity
  8
0
100
AcDbLine
 10
13121.80839430843
 20
17097.69119374842
 30
0.0
 11
13164.55725430842
 21
17097.69119374842
 31
0.0
  0
LINE
  5
303EA
330
2
100
AcDbEntity
  8
0
100
AcDbLine
 10
13048.88334430853
 20
17097.69119374842
 30
0.0
 11
13048.88334430853
 21
17027.56619374845
 31
0.0
  0
LINE
  5
303EB
330
2
100
AcDbEntity
  8
0
100
AcDbLine
 10
13008.55000180844
 20
17027.56619374845
 30
0.0
 11
13040.43509680847
 21
17097.69119374842
 31
0.0
  0
LINE
  5
303EC
330
2
100
AcDbEntity
  8
0
100
AcDbLine
 10
12976.66474180846
 20
17097.69119374842
 30
0.0
 11
13008.55000180844
 21
17027.56619374845
 31
0.0
  0
LINE
  5
303ED
330
2
100
AcDbEntity
  8
0
100
AcDbLine
 10
12943.62109930848
 20
17062.62869374836
 30
0.0
 11
12972.53974180854
 21
17027.56619374845
 31
0.0
  0
LINE
  5
303EE
330
2
100
AcDbEntity
  8
0
100
AcDbLine
 10
12914.70278680845
 20
17097.69119374842
 30
0.0
 11
12914.70278680845
 21
17027.56619374845
 31
0.0
  0
LINE
  5
303EF
330
2
100
AcDbEntity
  8
0
100
AcDbLine
 10
12914.70278680845
 20
17062.62869374836
 30
0.0
 11
12955.00857430841
 21
17062.62869374836
 31
0.0
  0
LINE
  5
303F0
330
2
100
AcDbEntity
  8
0
100
AcDbLine
 10
12914.70278680845
 20
17097.69119374842
 30
0.0
 11
12955.00857430841
 21
17097.69119374842
 31
0.0
  0
LINE
  5
303F1
330
2
100
AcDbEntity
  8
0
100
AcDbLine
 10
12880.47947680851
 20
17058.50369374845
 30
0.0
 11
12872.22939430849
 21
17058.50369374845
 31
0.0
  0
LINE
  5
303F2
330
2
100
AcDbEntity
  8
0
100
AcDbLine
 10
12880.47947680851
 20
17066.75369374842
 30
0.0
 11
12880.47947680851
 21
17058.50369374845
 31
0.0
  0
LINE
  5
303F3
330
2
100
AcDbEntity
  8
0
100
AcDbLine
 10
12872.22939430849
 20
17066.75369374842
 30
0.0
 11
12880.47947680851
 21
17066.75369374842
 31
0.0
  0
LINE
  5
303F4
330
2
100
AcDbEntity
  8
0
100
AcDbLine
 10
12872.22939430849
 20
17058.50369374845
 30
0.0
 11
12872.22939430849
 21
17066.75369374842
 31
0.0
  0
LINE
  5
303F5
330
2
100
AcDbEntity
  8
0
100
AcDbLine
 10
12790.23379930845
 20
17062.62869374836
 30
0.0
 11
12838.00591930845
 21
17062.62869374836
 31
0.0
  0
LINE
  5
303F6
330
2
100
AcDbEntity
  8
0
100
AcDbLine
 10
12790.23379930845
 20
17062.62869374836
 30
0.0
 11
12838.00591930845
 21
17062.62869374836
 31
0.0
  0
LINE
  5
303F7
330
2
100
AcDbEntity
  8
0
100
AcDbLine
 10
12790.23379930845
 20
17097.69119374842
 30
0.0
 11
12790.23379930845
 21
17027.56619374845
 31
0.0
  0
LINE
  5
303F8
330
2
100
AcDbEntity
  8
0
100
AcDbLine
 10
12790.23379930845
 20
17097.69119374842
 30
0.0
 11
12838.00591930845
 21
17097.69119374842
 31
0.0
  0
LINE
  5
303F9
330
2
100
AcDbEntity
  8
0
100
AcDbLine
 10
12672.02802915952
 20
17095.13332847835
 30
0.0
 11
12672.02802915952
 21
17068.99732194428
 31
0.0
  0
LINE
  5
303FA
330
2
100
AcDbEntity
  8
0
100
AcDbLine
 10
12763.50402915949
 20
17147.40534154635
 30
0.0
 11
12724.30002915946
 21
17147.40534154635
 31
0.0
  0
LINE
  5
303FB
330
2
100
AcDbEntity
  8
0
100
AcDbLine
 10
12750.43596381944
 20
17029.7933154103
 30
0.0
 11
12750.43596381944
 21
17068.99732194428
 31
0.0
  0
LINE
  5
303FC
330
2
100
AcDbEntity
  8
0
100
AcDbLine
 10
12672.02802915952
 20
17029.7933154103
 30
0.0
 11
12750.43596381944
 21
17029.7933154103
 31
0.0
  0
LINE
  5
303FD
330
2
100
AcDbEntity
  8
0
100
AcDbLine
 10
12672.02802915952
 20
16990.58932194423
 30
0.0
 11
12672.02802915952
 21
17029.7933154103
 31
0.0
  0
LINE
  5
303FE
330
2
100
AcDbEntity
  8
0
100
AcDbLine
 10
12672.02802915952
 20
16990.58932194423
 30
0.0
 11
12711.2320291594
 21
16990.58932194423
 31
0.0
  0
LINE
  5
303FF
330
2
100
AcDbEntity
  8
0
100
AcDbLine
 10
13616.87134469259
 20
17019.70985016795
 30
0.0
 11
13616.87134469259
 21
16979.70984191788
 31
0.0
  0
LINE
  5
30400
330
2
100
AcDbEntity
  8
0
100
AcDbLine
 10
13058.12150969254
 20
17159.70984191788
 30
0.0
 11
13058.12150969254
 21
17259.70984191788
 31
0.0
  0
LINE
  5
30401
330
2
100
AcDbEntity
  8
0
100
AcDbLine
 10
13016.87159219258
 20
17159.70984191788
 30
0.0
 11
13016.87159219258
 21
17259.70984191788
 31
0.0
  0
LINE
  5
30402
330
2
100
AcDbEntity
  8
0
100
AcDbLine
 10
12880.3715096926
 20
17159.70984191788
 30
0.0
 11
12880.3715096926
 21
17209.70984191789
 31
0.0
  0
LINE
  5
30403
330
2
100
AcDbEntity
  8
0
100
AcDbLine
 10
13196.87134469259
 20
17019.70985016795
 30
0.0
 11
13866.87134469259
 21
17019.70985016795
 31
0.0
  0
LINE
  5
30404
330
2
100
AcDbEntity
  8
0
100
AcDbLine
 10
13196.87134469259
 20
17259.70984191788
 30
0.0
 11
13196.87134469259
 21
16979.70986666793
 31
0.0
  0
LINE
  5
30405
330
2
100
AcDbEntity
  8
0
100
AcDbLine
 10
12636.87134469259
 20
17259.70984191788
 30
0.0
 11
13866.87134469259
 21
17259.70984191788
 31
0.0
  0
LINE
  5
30406
330
2
100
AcDbEntity
  8
0
100
AcDbLine
 10
13866.87134469259
 20
16979.70984191788
 30
0.0
 11
13866.87134469259
 21
19749.7096519179
 31
0.0
  0
LINE
  5
30407
330
2
100
AcDbEntity
  8
0
100
AcDbLine
 10
10016.87133469266
 20
19749.7096519179
 30
0.0
 11
10016.87133469266
 21
16979.70984191788
 31
0.0
  0
LINE
  5
33476
102
{ACAD_REACTORS
330
334F5
102
}
330
2
100
AcDbEntity
  8
0
  6
PHANTOM
 62
     5
100
AcDbLine
 10
10861.72005753672
 20
18915.06322309326
 30
0.0
 11
10863.32005753672
 21
18915.06322309326
 31
0.0
  0
LINE
  5
33477
102
{ACAD_REACTORS
330
334F5
102
}
330
2
100
AcDbEntity
  8
0
  6
PHANTOM
 62
     5
100
AcDbLine
 10
10863.32005753672
 20
18902.66322309326
 30
0.0
 11
10885.22005753672
 21
18902.66322309326
 31
0.0
  0
LINE
  5
33478
102
{ACAD_REACTORS
330
334F5
102
}
330
2
100
AcDbEntity
  8
0
  6
PHANTOM
 62
     5
100
AcDbLine
 10
10885.22005753672
 20
18901.06322309326
 30
0.0
 11
10861.72005753672
 21
18901.06322309326
 31
0.0
  0
LINE
  5
33479
102
{ACAD_REACTORS
330
334F5
102
}
330
2
100
AcDbEntity
  8
0
  6
PHANTOM
 62
     5
100
AcDbLine
 10
10885.22005753672
 20
18902.66322309326
 30
0.0
 11
10885.22005753672
 21
18901.06322309326
 31
0.0
  0
LINE
  5
3347A
102
{ACAD_REACTORS
330
334F5
102
}
330
2
100
AcDbEntity
  8
0
  6
PHANTOM
 62
     5
100
AcDbLine
 10
10863.32005753672
 20
18915.06322309326
 30
0.0
 11
10863.32005753672
 21
18902.66322309326
 31
0.0
  0
LINE
  5
3347B
102
{ACAD_REACTORS
330
334F5
102
}
330
2
100
AcDbEntity
  8
0
  6
PHANTOM
 62
     5
100
AcDbLine
 10
10861.72005753672
 20
18901.06322309326
 30
0.0
 11
10861.72005753672
 21
18915.06322309326
 31
0.0
  0
CIRCLE
  5
3347C
102
{ACAD_REACTORS
330
334F3
102
}
330
2
100
AcDbEntity
  8
0
  6
PHANTOM
 62
     5
100
AcDbCircle
 10
10876.22005753672
 20
17784.78291575914
 30
0.0
 40
2.5
  0
LINE
  5
3347D
102
{ACAD_REACTORS
330
334F3
102
}
330
2
100
AcDbEntity
  8
0
  6
PHANTOM
 62
     5
100
AcDbLine
 10
10885.22005753672
 20
17764.78291575914
 30
0.0
 11
10861.72005753672
 21
17764.78291575914
 31
0.0
  0
CIRCLE
  5
3347E
102
{ACAD_REACTORS
330
334F3
102
}
330
2
100
AcDbEntity
  8
0
  6
PHANTOM
 62
     5
100
AcDbCircle
 10
10876.22005753672
 20
17884.78291575914
 30
0.0
 40
2.5
  0
CIRCLE
  5
3347F
102
{ACAD_REACTORS
330
334F3
102
}
330
2
100
AcDbEntity
  8
0
  6
PHANTOM
 62
     5
100
AcDbCircle
 10
10876.22005753672
 20
17984.78291575914
 30
0.0
 40
2.5
  0
CIRCLE
  5
33482
102
{ACAD_REACTORS
330
334F3
102
}
330
2
100
AcDbEntity
  8
0
  6
PHANTOM
 62
     5
100
AcDbCircle
 10
10876.22005753672
 20
18414.78291575914
 30
0.0
 40
2.5
  0
CIRCLE
  5
33483
102
{ACAD_REACTORS
330
334F3
102
}
330
2
100
AcDbEntity
  8
0
  6
PHANTOM
 62
     5
100
AcDbCircle
 10
10876.22005753672
 20
18514.78291575914
 30
0.0
 40
2.5
  0
CIRCLE
  5
33484
102
{ACAD_REACTORS
330
334F3
102
}
330
2
100
AcDbEntity
  8
0
  6
PHANTOM
 62
     5
100
AcDbCircle
 10
10876.22005753672
 20
18614.78291575914
 30
0.0
 40
2.5
  0
LINE
  5
33485
102
{ACAD_REACTORS
330
334F3
102
}
330
2
100
AcDbEntity
  8
0
  6
PHANTOM
 62
     5
100
AcDbLine
 10
10861.72005753672
 20
18634.78291575914
 30
0.0
 11
10885.22005753672
 21
18634.78291575914
 31
0.0
  0
LINE
  5
33486
102
{ACAD_REACTORS
330
334F3
102
}
330
2
100
AcDbEntity
  8
0
  6
PHANTOM
 62
     5
100
AcDbLine
 10
10885.22005753672
 20
18634.78291575914
 30
0.0
 11
10885.22005753672
 21
17764.78291575914
 31
0.0
  0
LINE
  5
33487
102
{ACAD_REACTORS
330
334F3
102
}
330
2
100
AcDbEntity
  8
0
  6
PHANTOM
 62
     5
100
AcDbLine
 10
10861.72005753672
 20
18634.78291575914
 30
0.0
 11
10861.72005753672
 21
17764.78291575914
 31
0.0
  0
CIRCLE
  5
33488
102
{ACAD_REACTORS
330
334F4
102
}
330
2
100
AcDbEntity
  8
0
  6
PHANTOM
 62
     5
100
AcDbCircle
 10
12163.90516521814
 20
17999.78291575914
 30
0.0
 40
3.0
  0
CIRCLE
  5
33489
102
{ACAD_REACTORS
330
334F4
102
}
330
2
100
AcDbEntity
  8
0
  6
PHANTOM
 62
     5
100
AcDbCircle
 10
12163.90516521814
 20
18399.78291575914
 30
0.0
 40
3.0
  0
LINE
  5
3348A
102
{ACAD_REACTORS
330
334F4
102
}
330
2
100
AcDbEntity
  8
0
  6
PHANTOM
 62
     5
100
AcDbLine
 10
12156.40516521814
 20
17764.78291575914
 30
0.0
 11
12170.40516521814
 21
17764.78291575914
 31
0.0
  0
CIRCLE
  5
3348B
102
{ACAD_REACTORS
330
334F4
102
}
330
2
100
AcDbEntity
  8
0
  6
PHANTOM
 62
     5
100
AcDbCircle
 10
12163.90516521814
 20
17799.78291575914
 30
0.0
 40
3.0
  0
LINE
  5
3348C
102
{ACAD_REACTORS
330
334F4
102
}
330
2
100
AcDbEntity
  8
0
  6
PHANTOM
 62
     5
100
AcDbLine
 10
12170.40516521814
 20
18634.78291575914
 30
0.0
 11
12156.40516521814
 21
18634.78291575914
 31
0.0
  0
CIRCLE
  5
3348D
102
{ACAD_REACTORS
330
334F4
102
}
330
2
100
AcDbEntity
  8
0
  6
PHANTOM
 62
     5
100
AcDbCircle
 10
12163.90516521814
 20
18199.78291575914
 30
0.0
 40
3.0
  0
CIRCLE
  5
3348E
102
{ACAD_REACTORS
330
334F4
102
}
330
2
100
AcDbEntity
  8
0
  6
PHANTOM
 62
     5
100
AcDbCircle
 10
12163.90516521814
 20
18599.78291575914
 30
0.0
 40
3.0
  0
LINE
  5
3348F
102
{ACAD_REACTORS
330
334F4
102
}
330
2
100
AcDbEntity
  8
0
  6
PHANTOM
 62
     5
100
AcDbLine
 10
12170.40516521814
 20
17764.78291575914
 30
0.0
 11
12170.40516521814
 21
18634.78291575914
 31
0.0
  0
LINE
  5
33490
102
{ACAD_REACTORS
330
334F4
102
}
330
2
100
AcDbEntity
  8
0
  6
PHANTOM
 62
     5
100
AcDbLine
 10
12156.40516521814
 20
17764.78291575914
 30
0.0
 11
12156.40516521814
 21
18634.78291575914
 31
0.0
  0
CIRCLE
  5
33491
102
{ACAD_REACTORS
330
334F3
102
}
330
2
100
AcDbEntity
  8
0
  6
PHANTOM
 62
     5
100
AcDbCircle
 10
11447.22005753673
 20
17784.78291575914
 30
0.0
 40
2.5
  0
LINE
  5
33492
102
{ACAD_REACTORS
330
334F3
102
}
330
2
100
AcDbEntity
  8
0
  6
PHANTOM
 62
     5
100
AcDbLine
 10
11438.22005753672
 20
17764.78291575914
 30
0.0
 11
11461.72005753672
 21
17764.78291575914
 31
0.0
  0
CIRCLE
  5
33493
102
{ACAD_REACTORS
330
334F3
102
}
330
2
100
AcDbEntity
  8
0
  6
PHANTOM
 62
     5
100
AcDbCircle
 10
11447.22005753673
 20
17884.78291575914
 30
0.0
 40
2.5
  0
CIRCLE
  5
33494
102
{ACAD_REACTORS
330
334F3
102
}
330
2
100
AcDbEntity
  8
0
  6
PHANTOM
 62
     5
100
AcDbCircle
 10
11447.22005753673
 20
17984.78291575914
 30
0.0
 40
2.5
  0
CIRCLE
  5
33497
102
{ACAD_REACTORS
330
334F3
102
}
330
2
100
AcDbEntity
  8
0
  6
PHANTOM
 62
     5
100
AcDbCircle
 10
11447.22005753673
 20
18414.78291575914
 30
0.0
 40
2.5
  0
CIRCLE
  5
33498
102
{ACAD_REACTORS
330
334F3
102
}
330
2
100
AcDbEntity
  8
0
  6
PHANTOM
 62
     5
100
AcDbCircle
 10
11447.22005753673
 20
18514.78291575914
 30
0.0
 40
2.5
  0
CIRCLE
  5
33499
102
{ACAD_REACTORS
330
334F3
102
}
330
2
100
AcDbEntity
  8
0
  6
PHANTOM
 62
     5
100
AcDbCircle
 10
11447.22005753673
 20
18614.78291575914
 30
0.0
 40
2.5
  0
LINE
  5
3349A
102
{ACAD_REACTORS
330
334F3
102
}
330
2
100
AcDbEntity
  8
0
  6
PHANTOM
 62
     5
100
AcDbLine
 10
11461.72005753672
 20
18634.78291575914
 30
0.0
 11
11438.22005753672
 21
18634.78291575914
 31
0.0
  0
LINE
  5
3349B
102
{ACAD_REACTORS
330
334F3
102
}
330
2
100
AcDbEntity
  8
0
  6
PHANTOM
 62
     5
100
AcDbLine
 10
11438.22005753672
 20
18634.78291575914
 30
0.0
 11
11438.22005753672
 21
17764.78291575914
 31
0.0
  0
LINE
  5
3349C
102
{ACAD_REACTORS
330
334F3
102
}
330
2
100
AcDbEntity
  8
0
  6
PHANTOM
 62
     5
100
AcDbLine
 10
11461.72005753672
 20
18634.78291575914
 30
0.0
 11
11461.72005753672
 21
17764.78291575914
 31
0.0
  0
LINE
  5
3349D
102
{ACAD_REACTORS
330
334F5
102
}
330
2
100
AcDbEntity
  8
0
  6
PHANTOM
 62
     5
100
AcDbLine
 10
11461.72005753672
 20
18915.06322309326
 30
0.0
 11
11460.12005753672
 21
18915.06322309326
 31
0.0
  0
LINE
  5
3349E
102
{ACAD_REACTORS
330
334F5
102
}
330
2
100
AcDbEntity
  8
0
  6
PHANTOM
 62
     5
100
AcDbLine
 10
11460.12005753672
 20
18902.66322309326
 30
0.0
 11
11438.22005753672
 21
18902.66322309326
 31
0.0
  0
LINE
  5
3349F
102
{ACAD_REACTORS
330
334F5
102
}
330
2
100
AcDbEntity
  8
0
  6
PHANTOM
 62
     5
100
AcDbLine
 10
11438.22005753672
 20
18901.06322309326
 30
0.0
 11
11461.72005753672
 21
18901.06322309326
 31
0.0
  0
LINE
  5
334A0
102
{ACAD_REACTORS
330
334F5
102
}
330
2
100
AcDbEntity
  8
0
  6
PHANTOM
 62
     5
100
AcDbLine
 10
11438.22005753672
 20
18902.66322309326
 30
0.0
 11
11438.22005753672
 21
18901.06322309326
 31
0.0
  0
LINE
  5
334A1
102
{ACAD_REACTORS
330
334F5
102
}
330
2
100
AcDbEntity
  8
0
  6
PHANTOM
 62
     5
100
AcDbLine
 10
11460.12005753672
 20
18915.06322309326
 30
0.0
 11
11460.12005753672
 21
18902.66322309326
 31
0.0
  0
LINE
  5
334A2
102
{ACAD_REACTORS
330
334F5
102
}
330
2
100
AcDbEntity
  8
0
  6
PHANTOM
 62
     5
100
AcDbLine
 10
11461.72005753672
 20
18901.06322309326
 30
0.0
 11
11461.72005753672
 21
18915.06322309326
 31
0.0
  0
LINE
  5
33B82
102
{ACAD_REACTORS
330
33D57
102
}
330
2
100
AcDbEntity
  8
0
100
AcDbLine
 10
11296.72005753672
 20
18024.78291575914
 30
0.0
 11
11296.72005753672
 21
18374.78291575914
 31
0.0
  0
LINE
  5
33B83
102
{ACAD_REACTORS
330
33D57
102
}
330
2
100
AcDbEntity
  8
0
100
AcDbLine
 10
11026.72005753672
 20
18374.78291575914
 30
0.0
 11
11026.72005753672
 21
18024.78291575914
 31
0.0
  0
LINE
  5
33B84
102
{ACAD_REACTORS
330
33D57
102
}
330
2
100
AcDbEntity
  8
0
100
AcDbLine
 10
11026.72005753672
 20
18024.78291575914
 30
0.0
 11
11296.72005753672
 21
18024.78291575914
 31
0.0
  0
LINE
  5
33B85
102
{ACAD_REACTORS
330
33D57
102
}
330
2
100
AcDbEntity
  8
0
100
AcDbLine
 10
11296.72005753672
 20
18374.78291575914
 30
0.0
 11
11026.72005753672
 21
18374.78291575914
 31
0.0
  0
LINE
  5
33BCF
102
{ACAD_REACTORS
330
33D57
102
}
330
2
100
AcDbEntity
  8
0
100
AcDbLine
 10
11459.72005753672
 20
18487.28291575914
 30
0.0
 11
11457.72005753672
 21
18489.28291575914
 31
0.0
  0
LINE
  5
33BD0
102
{ACAD_REACTORS
330
33D57
102
}
330
2
100
AcDbEntity
  8
0
100
AcDbLine
 10
11457.72005753672
 20
18411.78291575914
 30
0.0
 11
11444.22005753672
 21
18411.78291575914
 31
0.0
  0
LINE
  5
33BD1
102
{ACAD_REACTORS
330
33D57
102
}
330
2
100
AcDbEntity
  8
0
100
AcDbLine
 10
11457.72005753672
 20
18417.78291575914
 30
0.0
 11
11444.22005753672
 21
18417.78291575914
 31
0.0
  0
ARC
  5
33BD3
102
{ACAD_REACTORS
330
33D57
102
}
330
2
100
AcDbEntity
  8
0
100
AcDbCircle
 10
11444.22005753672
 20
18414.78291575914
 30
0.0
 40
3.0
100
AcDbArc
 50
90.0
 51
270.0
  0
LINE
  5
33BD4
102
{ACAD_REACTORS
330
33D57
102
}
330
2
100
AcDbEntity
  8
0
100
AcDbLine
 10
11457.72005753672
 20
18417.78291575914
 30
0.0
 11
11459.72005753672
 21
18419.78291575914
 31
0.0
  0
LINE
  5
33BD5
102
{ACAD_REACTORS
330
33D57
102
}
330
2
100
AcDbEntity
  8
0
100
AcDbLine
 10
11457.72005753672
 20
18411.78291575914
 30
0.0
 11
11459.72005753672
 21
18409.78291575914
 31
0.0
  0
LINE
  5
33BD6
102
{ACAD_REACTORS
330
33D57
102
}
330
2
100
AcDbEntity
  8
0
100
AcDbLine
 10
11459.72005753672
 20
18487.28291575914
 30
0.0
 11
11459.72005753672
 21
18419.78291575914
 31
0.0
  0
LINE
  5
33BD7
102
{ACAD_REACTORS
330
33D57
102
}
330
2
100
AcDbEntity
  8
0
100
AcDbLine
 10
10863.72005753672
 20
18487.28291575914
 30
0.0
 11
10865.72005753672
 21
18489.28291575914
 31
0.0
  0
LINE
  5
33BD8
102
{ACAD_REACTORS
330
33D57
102
}
330
2
100
AcDbEntity
  8
0
100
AcDbLine
 10
10865.72005753672
 20
18417.78291575914
 30
0.0
 11
10863.72005753672
 21
18419.78291575914
 31
0.0
  0
LINE
  5
33BD9
102
{ACAD_REACTORS
330
33D57
102
}
330
2
100
AcDbEntity
  8
0
100
AcDbLine
 10
10865.72005753672
 20
18411.78291575914
 30
0.0
 11
10863.72005753672
 21
18409.78291575914
 31
0.0
  0
ARC
  5
33BDB
102
{ACAD_REACTORS
330
33D57
102
}
330
2
100
AcDbEntity
  8
0
100
AcDbCircle
 10
10879.22005753672
 20
18414.78291575914
 30
0.0
 40
3.0
100
AcDbArc
 50
270.0
 51
90.0
  0
LINE
  5
33BDC
102
{ACAD_REACTORS
330
33D57
102
}
330
2
100
AcDbEntity
  8
0
100
AcDbLine
 10
10865.72005753672
 20
18417.78291575914
 30
0.0
 11
10879.22005753672
 21
18417.78291575914
 31
0.0
  0
LINE
  5
33BDD
102
{ACAD_REACTORS
330
33D57
102
}
330
2
100
AcDbEntity
  8
0
100
AcDbLine
 10
10865.72005753672
 20
18411.78291575914
 30
0.0
 11
10879.22005753672
 21
18411.78291575914
 31
0.0
  0
LINE
  5
33BDE
102
{ACAD_REACTORS
330
33D57
102
}
330
2
100
AcDbEntity
  8
0
100
AcDbLine
 10
10863.72005753672
 20
18419.78291575914
 30
0.0
 11
10863.72005753672
 21
18487.28291575914
 31
0.0
  0
LINE
  5
33BDF
102
{ACAD_REACTORS
330
33D57
102
}
330
2
100
AcDbEntity
  8
0
100
AcDbLine
 10
10865.72005753672
 20
18489.28291575914
 30
0.0
 11
11457.72005753672
 21
18489.28291575914
 31
0.0
  0
LINE
  5
33BE0
102
{ACAD_REACTORS
330
33D57
102
}
330
2
100
AcDbEntity
  8
0
100
AcDbLine
 10
11457.72005753672
 20
17987.78291575914
 30
0.0
 11
11444.22005753672
 21
17987.78291575914
 31
0.0
  0
LINE
  5
33BE1
102
{ACAD_REACTORS
330
33D57
102
}
330
2
100
AcDbEntity
  8
0
100
AcDbLine
 10
11457.72005753672
 20
17981.78291575914
 30
0.0
 11
11444.22005753672
 21
17981.78291575914
 31
0.0
  0
ARC
  5
33BE3
102
{ACAD_REACTORS
330
33D57
102
}
330
2
100
AcDbEntity
  8
0
100
AcDbCircle
 10
11444.22005753672
 20
17984.78291575914
 30
0.0
 40
3.0
100
AcDbArc
 50
90.0
 51
270.0
  0
LINE
  5
33BE4
102
{ACAD_REACTORS
330
33D57
102
}
330
2
100
AcDbEntity
  8
0
100
AcDbLine
 10
11457.72005753672
 20
17981.78291575914
 30
0.0
 11
11459.72005753672
 21
17979.78291575914
 31
0.0
  0
LINE
  5
33BE5
102
{ACAD_REACTORS
330
33D57
102
}
330
2
100
AcDbEntity
  8
0
100
AcDbLine
 10
11457.72005753672
 20
17987.78291575914
 30
0.0
 11
11459.72005753672
 21
17989.78291575914
 31
0.0
  0
LINE
  5
33BE6
102
{ACAD_REACTORS
330
33D57
102
}
330
2
100
AcDbEntity
  8
0
100
AcDbLine
 10
10865.72005753672
 20
17981.78291575914
 30
0.0
 11
10863.72005753672
 21
17979.78291575914
 31
0.0
  0
LINE
  5
33BE7
102
{ACAD_REACTORS
330
33D57
102
}
330
2
100
AcDbEntity
  8
0
100
AcDbLine
 10
10865.72005753672
 20
17987.78291575914
 30
0.0
 11
10863.72005753672
 21
17989.78291575914
 31
0.0
  0
ARC
  5
33BE9
102
{ACAD_REACTORS
330
33D57
102
}
330
2
100
AcDbEntity
  8
0
100
AcDbCircle
 10
10879.22005753672
 20
17984.78291575914
 30
0.0
 40
3.0
100
AcDbArc
 50
270.0
 51
90.0
  0
LINE
  5
33BEA
102
{ACAD_REACTORS
330
33D57
102
}
330
2
100
AcDbEntity
  8
0
100
AcDbLine
 10
10865.72005753672
 20
17981.78291575914
 30
0.0
 11
10879.22005753672
 21
17981.78291575914
 31
0.0
  0
LINE
  5
33BEB
102
{ACAD_REACTORS
330
33D57
102
}
330
2
100
AcDbEntity
  8
0
100
AcDbLine
 10
10865.72005753672
 20
17987.78291575914
 30
0.0
 11
10879.22005753672
 21
17987.78291575914
 31
0.0
  0
LINE
  5
33BEC
102
{ACAD_REACTORS
330
33D57
102
}
330
2
100
AcDbEntity
  8
0
100
AcDbLine
 10
11457.72005753672
 20
17910.28291575914
 30
0.0
 11
11459.72005753672
 21
17912.28291575914
 31
0.0
  0
LINE
  5
33BED
102
{ACAD_REACTORS
330
33D57
102
}
330
2
100
AcDbEntity
  8
0
100
AcDbLine
 10
10865.72005753672
 20
17910.28291575914
 30
0.0
 11
10863.72005753672
 21
17912.28291575914
 31
0.0
  0
LINE
  5
33BEE
102
{ACAD_REACTORS
330
33D57
102
}
330
2
100
AcDbEntity
  8
0
100
AcDbLine
 10
11457.72005753672
 20
17910.28291575914
 30
0.0
 11
10865.72005753672
 21
17910.28291575914
 31
0.0
  0
LINE
  5
33BEF
102
{ACAD_REACTORS
330
33D57
102
}
330
2
100
AcDbEntity
  8
0
100
AcDbLine
 10
10863.72005753672
 20
17912.28291575914
 30
0.0
 11
10863.72005753672
 21
17979.78291575914
 31
0.0
  0
LINE
  5
33BF0
102
{ACAD_REACTORS
330
33D57
102
}
330
2
100
AcDbEntity
  8
0
100
AcDbLine
 10
11459.72005753672
 20
17979.78291575914
 30
0.0
 11
11459.72005753672
 21
17912.28291575914
 31
0.0
  0
LINE
  5
33BF1
102
{ACAD_REACTORS
330
33D57
102
}
330
2
100
AcDbEntity
  8
0
100
AcDbLine
 10
11433.02005753672
 20
18489.28291575914
 30
0.0
 11
11433.02005753672
 21
17910.28291575914
 31
0.0
  0
LINE
  5
33BF2
102
{ACAD_REACTORS
330
33D57
102
}
330
2
100
AcDbEntity
  8
0
100
AcDbLine
 10
10890.42005753672
 20
17910.28291575914
 30
0.0
 11
10890.42005753672
 21
18489.28291575914
 31
0.0
  0
LINE
  5
33BF5
102
{ACAD_REACTORS
330
33D57
102
}
330
2
100
AcDbEntity
  8
0
100
AcDbLine
 10
11459.72005753672
 20
18409.78291575914
 30
0.0
 11
11459.72005753672
 21
17989.78291575914
 31
0.0
  0
LINE
  5
33BF6
102
{ACAD_REACTORS
330
33D57
102
}
330
2
100
AcDbEntity
  8
0
100
AcDbLine
 10
10863.72005753672
 20
17989.78291575914
 30
0.0
 11
10863.72005753672
 21
18409.78291575914
 31
0.0
  0
LINE
  5
33BF7
102
{ACAD_REACTORS
330
33D6E
102
}
330
2
100
AcDbEntity
  8
0
100
AcDbLine
 10
10863.72005753672
 20
18901.06322309326
 30
0.0
 11
10863.72005753672
 21
18900.06322309326
 31
0.0
  0
LINE
  5
33BF8
102
{ACAD_REACTORS
330
33D6E
102
}
330
2
100
AcDbEntity
  8
0
100
AcDbLine
 10
10890.22005753672
 20
18900.06322309326
 30
0.0
 11
10890.22005753672
 21
18891.06322309326
 31
0.0
  0
LINE
  5
33BFA
102
{ACAD_REACTORS
330
33D6E
102
}
330
2
100
AcDbEntity
  8
0
100
AcDbLine
 10
10863.72005753672
 20
18900.06322309326
 30
0.0
 11
10890.22005753672
 21
18900.06322309326
 31
0.0
  0
LINE
  5
33BFB
102
{ACAD_REACTORS
330
33D6E
102
}
330
2
100
AcDbEntity
  8
0
100
AcDbLine
 10
10890.22005753672
 20
18901.06322309326
 30
0.0
 11
10863.72005753672
 21
18901.06322309326
 31
0.0
  0
CIRCLE
  5
33BFC
102
{ACAD_REACTORS
330
33D6E
102
}
330
2
100
AcDbEntity
  8
0
100
AcDbCircle
 10
10936.72005753672
 20
18899.86322309326
 30
0.0
 40
3.0
  0
CIRCLE
  5
33BFF
102
{ACAD_REACTORS
330
33D6E
102
}
330
2
100
AcDbEntity
  8
0
100
AcDbCircle
 10
11386.72005753672
 20
18899.86322309326
 30
0.0
 40
3.0
  0
LINE
  5
33C00
102
{ACAD_REACTORS
330
33D6E
102
}
330
2
100
AcDbEntity
  8
0
100
AcDbLine
 10
11433.22005753672
 20
18891.06322309326
 30
0.0
 11
11433.22005753672
 21
18909.86322309327
 31
0.0
  0
LINE
  5
33C02
102
{ACAD_REACTORS
330
33D6E
102
}
330
2
100
AcDbEntity
  8
0
100
AcDbLine
 10
11459.72005753672
 20
18900.06322309326
 30
0.0
 11
11459.72005753672
 21
18901.06322309326
 31
0.0
  0
LINE
  5
33C03
102
{ACAD_REACTORS
330
33D6E
102
}
330
2
100
AcDbEntity
  8
0
100
AcDbLine
 10
11433.22005753672
 20
18900.06322309326
 30
0.0
 11
11459.72005753672
 21
18900.06322309326
 31
0.0
  0
LINE
  5
33C04
102
{ACAD_REACTORS
330
33D6E
102
}
330
2
100
AcDbEntity
  8
0
100
AcDbLine
 10
11459.72005753672
 20
18901.06322309326
 30
0.0
 11
11433.22005753672
 21
18901.06322309326
 31
0.0
  0
LINE
  5
33C05
102
{ACAD_REACTORS
330
33D6E
102
}
330
2
100
AcDbEntity
  8
0
100
AcDbLine
 10
11433.22005753672
 20
18891.06322309326
 30
0.0
 11
11433.22005753672
 21
18900.06322309326
 31
0.0
  0
LINE
  5
33C07
102
{ACAD_REACTORS
330
33D58
102
}
330
2
100
AcDbEntity
  8
0
100
AcDbLine
 10
12165.20516521814
 20
17911.28291575914
 30
0.0
 11
12156.40516521814
 21
17911.28291575914
 31
0.0
  0
LINE
  5
33C08
102
{ACAD_REACTORS
330
33D58
102
}
330
2
100
AcDbEntity
  8
0
100
AcDbLine
 10
12165.20516521814
 20
17911.28291575914
 30
0.0
 11
12165.20516521814
 21
17910.28291575914
 31
0.0
  0
LINE
  5
33C09
102
{ACAD_REACTORS
330
33D58
102
}
330
2
100
AcDbEntity
  8
0
100
AcDbLine
 10
12165.20516521814
 20
17910.28291575914
 30
0.0
 11
12146.40516521814
 21
17910.28291575914
 31
0.0
  0
LINE
  5
33C0A
102
{ACAD_REACTORS
330
33D6E
102
}
330
2
100
AcDbEntity
  8
0
100
AcDbLine
 10
10890.22005753672
 20
18891.06322309326
 30
0.0
 11
11433.22005753672
 21
18891.06322309326
 31
0.0
  0
LINE
  5
33C0B
102
{ACAD_REACTORS
330
33D6E
102
}
330
2
100
AcDbEntity
  8
0
100
AcDbLine
 10
10890.22005753672
 20
18891.06322309326
 30
0.0
 11
11433.22005753672
 21
18891.06322309326
 31
0.0
  0
LINE
  5
33C0C
102
{ACAD_REACTORS
330
33D6E
102
}
330
2
100
AcDbEntity
  8
0
100
AcDbLine
 10
11433.22005753672
 20
18909.86322309327
 30
0.0
 11
10890.22005753672
 21
18909.86322309327
 31
0.0
  0
LINE
  5
33C0D
102
{ACAD_REACTORS
330
33D58
102
}
330
2
100
AcDbEntity
  8
0
100
AcDbLine
 10
12165.20516521814
 20
18489.28291575914
 30
0.0
 11
12165.20516521814
 21
18488.28291575914
 31
0.0
  0
LINE
  5
33C0E
102
{ACAD_REACTORS
330
33D58
102
}
330
2
100
AcDbEntity
  8
0
100
AcDbLine
 10
12165.20516521814
 20
18488.28291575914
 30
0.0
 11
12156.40516521814
 21
18488.28291575914
 31
0.0
  0
LINE
  5
33C0F
102
{ACAD_REACTORS
330
33D58
102
}
330
2
100
AcDbEntity
  8
0
100
AcDbLine
 10
12146.40516521814
 20
18489.28291575914
 30
0.0
 11
12165.20516521814
 21
18489.28291575914
 31
0.0
  0
LINE
  5
33C10
102
{ACAD_REACTORS
330
33D58
102
}
330
2
100
AcDbEntity
  8
0
100
AcDbLine
 10
12146.40516521814
 20
17910.28291575914
 30
0.0
 11
12146.40516521814
 21
18489.28291575914
 31
0.0
  0
LINE
  5
33C11
102
{ACAD_REACTORS
330
33D58
102
}
330
2
100
AcDbEntity
  8
0
100
AcDbLine
 10
12156.40516521814
 20
17910.28291575914
 30
0.0
 11
12156.40516521814
 21
18489.28291575914
 31
0.0
  0
LINE
  5
33C12
102
{ACAD_REACTORS
330
33D58
102
}
330
2
100
AcDbEntity
  8
0
100
AcDbLine
 10
12155.40516521814
 20
17910.28291575914
 30
0.0
 11
12155.40516521814
 21
18489.28291575914
 31
0.0
  0
LINE
  5
33D6D
102
{ACAD_REACTORS
330
33D6E
102
}
330
2
100
AcDbEntity
  8
0
100
AcDbLine
 10
10890.22005753672
 20
18891.06322309326
 30
0.0
 11
10890.22005753673
 21
18909.86322309327
 31
0.0
  0
TEXT
  5
344B4
330
2
100
AcDbEntity
  8
0
100
AcDbText
 10
11555.91471214878
 20
17892.12986556357
 30
0.0
 40
27.0
  1
塩ビ窓
 41
0.8
100
AcDbText
  0
TEXT
  5
344B5
330
2
100
AcDbEntity
  8
0
100
AcDbText
 10
11545.83471214878
 20
17847.12986556357
 30
0.0
 40
27.0
  1
（ブルースモーク）
 41
0.8
100
AcDbText
  0
LINE
  5
344B8
330
2
100
AcDbEntity
  8
0
100
AcDbLine
 10
11056.72005753672
 20
18024.78291575914
 30
0.0
 11
11121.46360012173
 21
18024.78291575914
 31
0.0
  0
LINE
  5
344B9
330
2
100
AcDbEntity
  8
0
100
AcDbLine
 10
11056.72005753672
 20
17910.28291575914
 30
0.0
 11
11121.46360012173
 21
17910.28291575914
 31
0.0
  0
LINE
  5
344BA
330
2
100
AcDbEntity
  8
0
100
AcDbLine
 10
11101.46360012173
 20
18014.78291575914
 30
0.0
 11
11101.46360012173
 21
17920.28291575914
 31
0.0
  0
LINE
  5
344BE
330
2
100
AcDbEntity
  8
0
100
AcDbLine
 10
11056.72005753672
 20
18374.78291575914
 30
0.0
 11
11121.46360012173
 21
18374.78291575914
 31
0.0
  0
LINE
  5
344BF
330
2
100
AcDbEntity
  8
0
100
AcDbLine
 10
11056.72005753672
 20
18024.78291575914
 30
0.0
 11
11121.46360012173
 21
18024.78291575914
 31
0.0
  0
LINE
  5
344C0
330
2
100
AcDbEntity
  8
0
100
AcDbLine
 10
11101.46360012173
 20
18364.78291575914
 30
0.0
 11
11101.46360012173
 21
18034.78291575914
 31
0.0
  0
LINE
  5
344C4
330
2
100
AcDbEntity
  8
0
100
AcDbLine
 10
11056.72005753672
 20
18374.78291575914
 30
0.0
 11
11121.46360012173
 21
18374.78291575914
 31
0.0
  0
LINE
  5
344C5
330
2
100
AcDbEntity
  8
0
100
AcDbLine
 10
11056.72005753672
 20
18489.28291575914
 30
0.0
 11
11121.46360012173
 21
18489.28291575914
 31
0.0
  0
LINE
  5
344C6
330
2
100
AcDbEntity
  8
0
100
AcDbLine
 10
11101.46360012173
 20
18384.78291575914
 30
0.0
 11
11101.46360012173
 21
18479.28291575914
 31
0.0
  0
LINE
  5
344CA
330
2
100
AcDbEntity
  8
0
100
AcDbLine
 10
11296.72005753672
 20
18344.78291575914
 30
0.0
 11
11296.72005753672
 21
18259.45989123146
 31
0.0
  0
LINE
  5
344CB
330
2
100
AcDbEntity
  8
0
100
AcDbLine
 10
11459.72005753672
 20
18344.78291575914
 30
0.0
 11
11459.72005753672
 21
18259.45989123146
 31
0.0
  0
LINE
  5
344CC
330
2
100
AcDbEntity
  8
0
100
AcDbLine
 10
11306.72005753672
 20
18279.45989123146
 30
0.0
 11
11449.72005753672
 21
18279.45989123146
 31
0.0
  0
LINE
  5
344D0
330
2
100
AcDbEntity
  8
0
100
AcDbLine
 10
11026.72005753672
 20
18344.78291575914
 30
0.0
 11
11026.72005753672
 21
18259.45989123146
 31
0.0
  0
LINE
  5
344D1
330
2
100
AcDbEntity
  8
0
100
AcDbLine
 10
10863.72005753672
 20
18344.78291575914
 30
0.0
 11
10863.72005753672
 21
18259.45989123146
 31
0.0
  0
LINE
  5
344D2
330
2
100
AcDbEntity
  8
0
100
AcDbLine
 10
11016.72005753672
 20
18279.45989123146
 30
0.0
 11
10873.72005753672
 21
18279.45989123146
 31
0.0
  0
LINE
  5
344D6
330
2
100
AcDbEntity
  8
0
100
AcDbLine
 10
11026.72005753672
 20
18344.78291575914
 30
0.0
 11
11026.72005753672
 21
18259.45989123146
 31
0.0
  0
LINE
  5
344D7
330
2
100
AcDbEntity
  8
0
100
AcDbLine
 10
11296.72005753672
 20
18344.78291575914
 30
0.0
 11
11296.72005753672
 21
18259.45989123146
 31
0.0
  0
LINE
  5
344D8
330
2
100
AcDbEntity
  8
0
100
AcDbLine
 10
11036.72005753672
 20
18279.45989123146
 30
0.0
 11
11286.72005753672
 21
18279.45989123146
 31
0.0
  0
TEXT
  5
344DC
330
2
100
AcDbEntity
  8
0
100
AcDbText
 10
12618.35363007987
 20
17418.25537271638
 30
0.0
 40
27.0
  1
※背面上下パネルとセットでご使用ください。
 41
0.8
100
AcDbText
  0
TEXT
  5
344DD
330
2
100
AcDbEntity
  8
0
100
AcDbText
 10
11593.34654383697
 20
18835.57164784857
 30
0.0
 40
27.0
  1
取付金具H10用（付属）
 41
0.8
100
AcDbText
  0
LINE
  5
344E0
330
2
100
AcDbEntity
  8
0
100
AcDbLine
 10
10860.22005753673
 20
18909.86322309327
 30
0.0
 11
10804.10856755454
 21
18909.86322309327
 31
0.0
  0
LINE
  5
344E1
330
2
100
AcDbEntity
  8
0
100
AcDbLine
 10
10860.22005753672
 20
18891.06322309326
 30
0.0
 11
10804.10856755454
 21
18891.06322309326
 31
0.0
  0
LINE
  5
344E2
330
2
100
AcDbEntity
  8
0
100
AcDbLine
 10
10824.10856755454
 20
18919.86322309326
 30
0.0
 11
10824.10856755454
 21
18929.86322309327
 31
0.0
  0
LINE
  5
344E3
330
2
100
AcDbEntity
  8
0
100
AcDbLine
 10
10824.10856755454
 20
18881.06322309326
 30
0.0
 11
10824.10856755454
 21
18807.14162047739
 31
0.0
  0
LINE
  5
344E4
330
2
100
AcDbEntity
  8
0
100
AcDbLine
 10
10824.10856755454
 20
18909.86322309327
 30
0.0
 11
10824.10856755454
 21
18891.06322309326
 31
0.0
  0
LINE
  5
344E8
330
2
100
AcDbEntity
  8
0
100
AcDbLine
 10
12195.20516521814
 20
18489.28291575914
 30
0.0
 11
12450.41257410843
 21
18489.28291575914
 31
0.0
  0
LINE
  5
344E9
330
2
100
AcDbEntity
  8
0
100
AcDbLine
 10
12195.20516521814
 20
17910.28291575914
 30
0.0
 11
12450.41257410843
 21
17910.28291575914
 31
0.0
  0
LINE
  5
344EA
330
2
100
AcDbEntity
  8
0
100
AcDbLine
 10
12430.41257410843
 20
18479.28291575914
 30
0.0
 11
12430.41257410843
 21
17920.28291575914
 31
0.0
  0
LINE
  5
344EE
330
2
100
AcDbEntity
  8
0
100
AcDbLine
 10
10863.72005753672
 20
18931.06322309326
 30
0.0
 11
10863.72005753672
 21
19061.43993763802
 31
0.0
  0
LINE
  5
344EF
330
2
100
AcDbEntity
  8
0
100
AcDbLine
 10
11459.72005753672
 20
18931.06322309326
 30
0.0
 11
11459.72005753672
 21
19061.43993763802
 31
0.0
  0
LINE
  5
344F0
330
2
100
AcDbEntity
  8
0
100
AcDbLine
 10
10873.72005753672
 20
19041.43993763802
 30
0.0
 11
11449.72005753672
 21
19041.43993763802
 31
0.0
  0
LINE
  5
344F4
330
2
100
AcDbEntity
  8
0
100
AcDbLine
 10
10835.72005753672
 20
18489.28291575914
 30
0.0
 11
10626.14592386708
 21
18489.28291575914
 31
0.0
  0
LINE
  5
344F5
330
2
100
AcDbEntity
  8
0
100
AcDbLine
 10
10835.72005753672
 20
17910.28291575914
 30
0.0
 11
10626.14592386708
 21
17910.28291575914
 31
0.0
  0
LINE
  5
344F6
330
2
100
AcDbEntity
  8
0
100
AcDbLine
 10
10646.14592386708
 20
18479.28291575914
 30
0.0
 11
10646.14592386708
 21
17920.28291575914
 31
0.0
  0
LINE
  5
344FA
330
2
100
AcDbEntity
  8
0
100
AcDbLine
 10
10863.72005753672
 20
18517.28291575914
 30
0.0
 11
10863.72005753672
 21
18792.55467680265
 31
0.0
  0
LINE
  5
344FB
330
2
100
AcDbEntity
  8
0
100
AcDbLine
 10
11459.72005753672
 20
18517.28291575914
 30
0.0
 11
11459.72005753672
 21
18792.55467680265
 31
0.0
  0
LINE
  5
344FC
330
2
100
AcDbEntity
  8
0
100
AcDbLine
 10
10873.72005753672
 20
18772.55467680265
 30
0.0
 11
11449.72005753672
 21
18772.55467680265
 31
0.0
  0
TEXT
  5
34500
330
2
100
AcDbEntity
  8
0
100
AcDbText
 10
13029.41901669121
 20
17235.43007551251
 30
0.0
 40
21.0
  1
投
 41
0.8
100
AcDbText
  0
TEXT
  5
34501
330
2
100
AcDbEntity
  8
0
100
AcDbText
 10
13029.41901669121
 20
17200.43007551251
 30
0.0
 40
21.0
  1
影
 41
0.8
100
AcDbText
  0
TEXT
  5
34502
330
2
100
AcDbEntity
  8
0
100
AcDbText
 10
13029.41901669121
 20
17165.43007551251
 30
0.0
 40
21.0
  1
法
 41
0.8
100
AcDbText
  0
TEXT
  5
34503
330
2
100
AcDbEntity
  8
0
100
AcDbText
 10
12649.55138594261
 20
17171.20984191789
 30
0.0
 40
27.0
  1
製図
 41
0.8
100
AcDbText
  0
TEXT
  5
34504
330
2
100
AcDbEntity
  8
0
100
AcDbText
 10
12648.83138594261
 20
17221.20984191789
 30
0.0
 40
27.0
  1
尺度
 41
0.8
100
AcDbText
  0
TEXT
  5
34505
330
2
100
AcDbEntity
  8
0
100
AcDbText
 10
12737.31150969253
 20
17221.20984191789
 30
0.0
 40
27.0
  1
１／１０　　（Ａ３）
 41
0.8
100
AcDbText
  0
TEXT
  5
34506
330
2
100
AcDbEntity
  8
0
100
AcDbText
 10
13306.68709272409
 20
17206.20984604292
 30
0.0
 40
27.0
  1
(SHSI)背面パネルネジ止め式（塩ビ窓）
 41
0.8
100
AcDbText
  0
TEXT
  5
34507
330
2
100
AcDbEntity
  8
0
100
AcDbText
 10
13341.79134469259
 20
17126.20985016795
 30
0.0
 40
27.0
  1
H1000\U+00D7W700用　FRD-RA710U
 41
0.8
100
AcDbText
  0
TEXT
  5
34508
330
2
100
AcDbEntity
  8
0
100
AcDbText
 10
13496.59134469259
 20
17046.20985016795
 30
0.0
 40
27.0
  1
外観図
 41
0.8
100
AcDbText
  0
TEXT
  5
34509
330
2
100
AcDbEntity
  8
0
100
AcDbText
 10
11138.46657073589
 20
18782.55467680265
 30
0.0
 40
27.0
  1
596
 41
0.8
100
AcDbText
  0
LINE
  5
3450A
330
2
100
AcDbEntity
  8
0
100
AcDbLine
 10
11449.72005753672
 20
18774.22134346932
 30
0.0
 11
11459.72005753672
 21
18772.55467680265
 31
0.0
  0
LINE
  5
3450B
330
2
100
AcDbEntity
  8
0
100
AcDbLine
 10
11459.72005753672
 20
18772.55467680265
 30
0.0
 11
11449.72005753672
 21
18770.88801013598
 31
0.0
  0
LINE
  5
3450C
330
2
100
AcDbEntity
  8
0
100
AcDbLine
 10
11459.72005753672
 20
18772.55467680265
 30
0.0
 11
11449.72005753672
 21
18772.55467680265
 31
0.0
  0
LINE
  5
3450D
330
2
100
AcDbEntity
  8
0
100
AcDbLine
 10
10873.72005753672
 20
18770.88801013598
 30
0.0
 11
10863.72005753672
 21
18772.55467680265
 31
0.0
  0
LINE
  5
3450E
330
2
100
AcDbEntity
  8
0
100
AcDbLine
 10
10863.72005753672
 20
18772.55467680265
 30
0.0
 11
10873.72005753672
 21
18774.22134346932
 31
0.0
  0
LINE
  5
3450F
330
2
100
AcDbEntity
  8
0
100
AcDbLine
 10
10863.72005753672
 20
18772.55467680265
 30
0.0
 11
10873.72005753672
 21
18772.55467680265
 31
0.0
  0
TEXT
  5
34510
330
2
100
AcDbEntity
  8
0
100
AcDbText
 10
10636.14592386707
 20
18176.32970618592
 30
0.0
 40
27.0
  1
579
 50
90.0
 41
0.8
100
AcDbText
  0
LINE
  5
34511
330
2
100
AcDbEntity
  8
0
100
AcDbLine
 10
10647.81259053374
 20
17920.28291575914
 30
0.0
 11
10646.14592386708
 21
17910.28291575914
 31
0.0
  0
LINE
  5
34512
330
2
100
AcDbEntity
  8
0
100
AcDbLine
 10
10646.14592386708
 20
17910.28291575914
 30
0.0
 11
10644.47925720041
 21
17920.28291575914
 31
0.0
  0
LINE
  5
34513
330
2
100
AcDbEntity
  8
0
100
AcDbLine
 10
10646.14592386708
 20
17910.28291575914
 30
0.0
 11
10646.14592386708
 21
17920.28291575914
 31
0.0
  0
LINE
  5
34514
330
2
100
AcDbEntity
  8
0
100
AcDbLine
 10
10644.47925720041
 20
18479.28291575914
 30
0.0
 11
10646.14592386708
 21
18489.28291575914
 31
0.0
  0
LINE
  5
34515
330
2
100
AcDbEntity
  8
0
100
AcDbLine
 10
10646.14592386708
 20
18489.28291575914
 30
0.0
 11
10647.81259053374
 21
18479.28291575914
 31
0.0
  0
LINE
  5
34516
330
2
100
AcDbEntity
  8
0
100
AcDbLine
 10
10646.14592386708
 20
18489.28291575914
 30
0.0
 11
10646.14592386708
 21
18479.28291575914
 31
0.0
  0
TEXT
  5
34517
330
2
100
AcDbEntity
  8
0
100
AcDbText
 10
11138.46657073589
 20
19051.43993763802
 30
0.0
 40
27.0
  1
596
 41
0.8
100
AcDbText
  0
LINE
  5
34518
330
2
100
AcDbEntity
  8
0
100
AcDbLine
 10
11449.72005753672
 20
19043.10660430469
 30
0.0
 11
11459.72005753672
 21
19041.43993763802
 31
0.0
  0
LINE
  5
34519
330
2
100
AcDbEntity
  8
0
100
AcDbLine
 10
11459.72005753672
 20
19041.43993763802
 30
0.0
 11
11449.72005753672
 21
19039.77327097135
 31
0.0
  0
LINE
  5
3451A
330
2
100
AcDbEntity
  8
0
100
AcDbLine
 10
11459.72005753672
 20
19041.43993763802
 30
0.0
 11
11449.72005753672
 21
19041.43993763802
 31
0.0
  0
LINE
  5
3451B
330
2
100
AcDbEntity
  8
0
100
AcDbLine
 10
10873.72005753672
 20
19039.77327097135
 30
0.0
 11
10863.72005753672
 21
19041.43993763802
 31
0.0
  0
LINE
  5
3451C
330
2
100
AcDbEntity
  8
0
100
AcDbLine
 10
10863.72005753672
 20
19041.43993763802
 30
0.0
 11
10873.72005753672
 21
19043.10660430469
 31
0.0
  0
LINE
  5
3451D
330
2
100
AcDbEntity
  8
0
100
AcDbLine
 10
10863.72005753672
 20
19041.43993763802
 30
0.0
 11
10873.72005753672
 21
19041.43993763802
 31
0.0
  0
TEXT
  5
3451E
330
2
100
AcDbEntity
  8
0
100
AcDbText
 10
12420.41257410843
 20
18176.32970618592
 30
0.0
 40
27.0
  1
579
 50
90.0
 41
0.8
100
AcDbText
  0
LINE
  5
3451F
330
2
100
AcDbEntity
  8
0
100
AcDbLine
 10
12432.0792407751
 20
17920.28291575914
 30
0.0
 11
12430.41257410843
 21
17910.28291575914
 31
0.0
  0
LINE
  5
34520
330
2
100
AcDbEntity
  8
0
100
AcDbLine
 10
12430.41257410843
 20
17910.28291575914
 30
0.0
 11
12428.74590744176
 21
17920.28291575914
 31
0.0
  0
LINE
  5
34521
330
2
100
AcDbEntity
  8
0
100
AcDbLine
 10
12430.41257410843
 20
17910.28291575914
 30
0.0
 11
12430.41257410843
 21
17920.28291575914
 31
0.0
  0
LINE
  5
34522
330
2
100
AcDbEntity
  8
0
100
AcDbLine
 10
12428.74590744176
 20
18479.28291575914
 30
0.0
 11
12430.41257410843
 21
18489.28291575914
 31
0.0
  0
LINE
  5
34523
330
2
100
AcDbEntity
  8
0
100
AcDbLine
 10
12430.41257410843
 20
18489.28291575914
 30
0.0
 11
12432.0792407751
 21
18479.28291575914
 31
0.0
  0
LINE
  5
34524
330
2
100
AcDbEntity
  8
0
100
AcDbLine
 10
12430.41257410843
 20
18489.28291575914
 30
0.0
 11
12430.41257410843
 21
18479.28291575914
 31
0.0
  0
TEXT
  5
34525
330
2
100
AcDbEntity
  8
0
100
AcDbText
 10
10814.10856755454
 20
18813.9016204774
 30
0.0
 40
27.0
  1
18.8
 50
90.0
 41
0.8
100
AcDbText
  0
LINE
  5
34526
330
2
100
AcDbEntity
  8
0
100
AcDbLine
 10
10822.44190088788
 20
18881.06322309326
 30
0.0
 11
10824.10856755454
 21
18891.06322309326
 31
0.0
  0
LINE
  5
34527
330
2
100
AcDbEntity
  8
0
100
AcDbLine
 10
10824.10856755454
 20
18891.06322309326
 30
0.0
 11
10825.77523422121
 21
18881.06322309326
 31
0.0
  0
LINE
  5
34528
330
2
100
AcDbEntity
  8
0
100
AcDbLine
 10
10824.10856755454
 20
18891.06322309326
 30
0.0
 11
10824.10856755454
 21
18881.06322309326
 31
0.0
  0
LINE
  5
34529
330
2
100
AcDbEntity
  8
0
100
AcDbLine
 10
10825.77523422121
 20
18919.86322309326
 30
0.0
 11
10824.10856755454
 21
18909.86322309327
 31
0.0
  0
LINE
  5
3452A
330
2
100
AcDbEntity
  8
0
100
AcDbLine
 10
10824.10856755454
 20
18909.86322309327
 30
0.0
 11
10822.44190088788
 21
18919.86322309326
 31
0.0
  0
LINE
  5
3452B
330
2
100
AcDbEntity
  8
0
100
AcDbLine
 10
10824.10856755454
 20
18909.86322309327
 30
0.0
 11
10824.10856755454
 21
18919.86322309326
 31
0.0
  0
LINE
  5
3452C
330
2
100
AcDbEntity
  8
0
100
AcDbLine
 10
11470.5479951096
 20
18896.36561538196
 30
0.0
 11
11559.42476358782
 21
18849.07164784856
 31
0.0
1001
ACAD
1000
DSTYLE
1002
{
1070
   147
1040
1.0
1070
    77
1070
     0
1002
}
  0
LINE
  5
3452D
330
2
100
AcDbEntity
  8
0
100
AcDbLine
 10
11559.42476358782
 20
18849.07164784856
 30
0.0
 11
11583.34654383697
 21
18849.07164784856
 31
0.0
1001
ACAD
1000
DSTYLE
1002
{
1070
   147
1040
1.0
1070
    77
1070
     0
1002
}
  0
LINE
  5
3452E
330
2
100
AcDbEntity
  8
0
100
AcDbLine
 10
11469.76506049105
 20
18894.89429245315
 30
0.0
 11
11461.72005753672
 21
18901.06322309326
 31
0.0
  0
LINE
  5
3452F
330
2
100
AcDbEntity
  8
0
100
AcDbLine
 10
11461.72005753672
 20
18901.06322309326
 30
0.0
 11
11471.33092972815
 21
18897.83693831078
 31
0.0
  0
LINE
  5
34530
330
2
100
AcDbEntity
  8
0
100
AcDbLine
 10
11461.72005753672
 20
18901.06322309326
 30
0.0
 11
11470.5479951096
 21
18896.36561538196
 31
0.0
  0
TEXT
  5
34531
330
2
100
AcDbEntity
  8
0
100
AcDbText
 10
11139.30580556822
 20
18289.46254871178
 30
0.0
 40
27.0
  1
270
 41
0.8
100
AcDbText
  0
LINE
  5
34532
330
2
100
AcDbEntity
  8
0
100
AcDbLine
 10
11286.72005753672
 20
18281.12655789813
 30
0.0
 11
11296.72005753672
 21
18279.45989123146
 31
0.0
  0
LINE
  5
34533
330
2
100
AcDbEntity
  8
0
100
AcDbLine
 10
11296.72005753672
 20
18279.45989123146
 30
0.0
 11
11286.72005753672
 21
18277.79322456479
 31
0.0
  0
LINE
  5
34534
330
2
100
AcDbEntity
  8
0
100
AcDbLine
 10
11296.72005753672
 20
18279.45989123146
 30
0.0
 11
11286.72005753672
 21
18279.45989123146
 31
0.0
  0
LINE
  5
34535
330
2
100
AcDbEntity
  8
0
100
AcDbLine
 10
11036.72005753672
 20
18277.79322456479
 30
0.0
 11
11026.72005753672
 21
18279.45989123146
 31
0.0
  0
LINE
  5
34536
330
2
100
AcDbEntity
  8
0
100
AcDbLine
 10
11026.72005753672
 20
18279.45989123146
 30
0.0
 11
11036.72005753672
 21
18281.12655789813
 31
0.0
  0
LINE
  5
34537
330
2
100
AcDbEntity
  8
0
100
AcDbLine
 10
11026.72005753672
 20
18279.45989123146
 30
0.0
 11
11036.72005753672
 21
18279.45989123146
 31
0.0
  0
TEXT
  5
34538
330
2
100
AcDbEntity
  8
0
100
AcDbText
 10
10924.25270688936
 20
18289.45989123146
 30
0.0
 40
27.0
  1
163
 41
0.8
100
AcDbText
  0
LINE
  5
34539
330
2
100
AcDbEntity
  8
0
100
AcDbLine
 10
10873.72005753672
 20
18277.79322456479
 30
0.0
 11
10863.72005753672
 21
18279.45989123146
 31
0.0
  0
LINE
  5
3453A
330
2
100
AcDbEntity
  8
0
100
AcDbLine
 10
10863.72005753672
 20
18279.45989123146
 30
0.0
 11
10873.72005753672
 21
18281.12655789813
 31
0.0
  0
LINE
  5
3453B
330
2
100
AcDbEntity
  8
0
100
AcDbLine
 10
10863.72005753672
 20
18279.45989123146
 30
0.0
 11
10873.72005753672
 21
18279.45989123146
 31
0.0
  0
LINE
  5
3453C
330
2
100
AcDbEntity
  8
0
100
AcDbLine
 10
11016.72005753672
 20
18281.12655789813
 30
0.0
 11
11026.72005753672
 21
18279.45989123146
 31
0.0
  0
LINE
  5
3453D
330
2
100
AcDbEntity
  8
0
100
AcDbLine
 10
11026.72005753672
 20
18279.45989123146
 30
0.0
 11
11016.72005753672
 21
18277.79322456479
 31
0.0
  0
LINE
  5
3453E
330
2
100
AcDbEntity
  8
0
100
AcDbLine
 10
11026.72005753672
 20
18279.45989123146
 30
0.0
 11
11016.72005753672
 21
18279.45989123146
 31
0.0
  0
TEXT
  5
3453F
330
2
100
AcDbEntity
  8
0
100
AcDbText
 10
11357.25270688936
 20
18289.45989123146
 30
0.0
 40
27.0
  1
163
 41
0.8
100
AcDbText
  0
LINE
  5
34540
330
2
100
AcDbEntity
  8
0
100
AcDbLine
 10
11449.72005753672
 20
18281.12655789813
 30
0.0
 11
11459.72005753672
 21
18279.45989123146
 31
0.0
  0
LINE
  5
34541
330
2
100
AcDbEntity
  8
0
100
AcDbLine
 10
11459.72005753672
 20
18279.45989123146
 30
0.0
 11
11449.72005753672
 21
18277.79322456479
 31
0.0
  0
LINE
  5
34542
330
2
100
AcDbEntity
  8
0
100
AcDbLine
 10
11459.72005753672
 20
18279.45989123146
 30
0.0
 11
11449.72005753672
 21
18279.45989123146
 31
0.0
  0
LINE
  5
34543
330
2
100
AcDbEntity
  8
0
100
AcDbLine
 10
11306.72005753672
 20
18277.79322456479
 30
0.0
 11
11296.72005753672
 21
18279.45989123146
 31
0.0
  0
LINE
  5
34544
330
2
100
AcDbEntity
  8
0
100
AcDbLine
 10
11296.72005753672
 20
18279.45989123146
 30
0.0
 11
11306.72005753672
 21
18281.12655789813
 31
0.0
  0
LINE
  5
34545
330
2
100
AcDbEntity
  8
0
100
AcDbLine
 10
11296.72005753672
 20
18279.45989123146
 30
0.0
 11
11306.72005753672
 21
18279.45989123146
 31
0.0
  0
TEXT
  5
34546
330
2
100
AcDbEntity
  8
0
100
AcDbText
 10
11091.46360012172
 20
18401.34556511178
 30
0.0
 40
27.0
  1
114.5
 50
90.0
 41
0.8
100
AcDbText
  0
LINE
  5
34547
330
2
100
AcDbEntity
  8
0
100
AcDbLine
 10
11099.79693345506
 20
18479.28291575914
 30
0.0
 11
11101.46360012173
 21
18489.28291575914
 31
0.0
  0
LINE
  5
34548
330
2
100
AcDbEntity
  8
0
100
AcDbLine
 10
11101.46360012173
 20
18489.28291575914
 30
0.0
 11
11103.13026678839
 21
18479.28291575914
 31
0.0
  0
LINE
  5
34549
330
2
100
AcDbEntity
  8
0
100
AcDbLine
 10
11101.46360012173
 20
18489.28291575914
 30
0.0
 11
11101.46360012173
 21
18479.28291575914
 31
0.0
  0
LINE
  5
3454A
330
2
100
AcDbEntity
  8
0
100
AcDbLine
 10
11103.13026678839
 20
18384.78291575914
 30
0.0
 11
11101.46360012173
 21
18374.78291575914
 31
0.0
  0
LINE
  5
3454B
330
2
100
AcDbEntity
  8
0
100
AcDbLine
 10
11101.46360012173
 20
18374.78291575914
 30
0.0
 11
11099.79693345506
 21
18384.78291575914
 31
0.0
  0
LINE
  5
3454C
330
2
100
AcDbEntity
  8
0
100
AcDbLine
 10
11101.46360012173
 20
18374.78291575914
 30
0.0
 11
11101.46360012173
 21
18384.78291575914
 31
0.0
  0
TEXT
  5
3454D
330
2
100
AcDbEntity
  8
0
100
AcDbText
 10
11091.46360012172
 20
18177.09441182213
 30
0.0
 40
27.0
  1
350
 50
90.0
 41
0.8
100
AcDbText
  0
LINE
  5
3454E
330
2
100
AcDbEntity
  8
0
100
AcDbLine
 10
11103.13026678839
 20
18034.78291575914
 30
0.0
 11
11101.46360012173
 21
18024.78291575914
 31
0.0
  0
LINE
  5
3454F
330
2
100
AcDbEntity
  8
0
100
AcDbLine
 10
11101.46360012173
 20
18024.78291575914
 30
0.0
 11
11099.79693345506
 21
18034.78291575914
 31
0.0
  0
LINE
  5
34550
330
2
100
AcDbEntity
  8
0
100
AcDbLine
 10
11101.46360012173
 20
18024.78291575914
 30
0.0
 11
11101.46360012173
 21
18034.78291575914
 31
0.0
  0
LINE
  5
34551
330
2
100
AcDbEntity
  8
0
100
AcDbLine
 10
11099.79693345506
 20
18364.78291575914
 30
0.0
 11
11101.46360012173
 21
18374.78291575914
 31
0.0
  0
LINE
  5
34552
330
2
100
AcDbEntity
  8
0
100
AcDbLine
 10
11101.46360012173
 20
18374.78291575914
 30
0.0
 11
11103.13026678839
 21
18364.78291575914
 31
0.0
  0
LINE
  5
34553
330
2
100
AcDbEntity
  8
0
100
AcDbLine
 10
11101.46360012173
 20
18374.78291575914
 30
0.0
 11
11101.46360012173
 21
18364.78291575914
 31
0.0
  0
TEXT
  5
34554
330
2
100
AcDbEntity
  8
0
100
AcDbText
 10
11091.46360012172
 20
17936.84556511178
 30
0.0
 40
27.0
  1
114.5
 50
90.0
 41
0.8
100
AcDbText
  0
LINE
  5
34555
330
2
100
AcDbEntity
  8
0
100
AcDbLine
 10
11103.13026678839
 20
17920.28291575914
 30
0.0
 11
11101.46360012173
 21
17910.28291575914
 31
0.0
  0
LINE
  5
34556
330
2
100
AcDbEntity
  8
0
100
AcDbLine
 10
11101.46360012173
 20
17910.28291575914
 30
0.0
 11
11099.79693345506
 21
17920.28291575914
 31
0.0
  0
LINE
  5
34557
330
2
100
AcDbEntity
  8
0
100
AcDbLine
 10
11101.46360012173
 20
17910.28291575914
 30
0.0
 11
11101.46360012173
 21
17920.28291575914
 31
0.0
  0
LINE
  5
34558
330
2
100
AcDbEntity
  8
0
100
AcDbLine
 10
11099.79693345506
 20
18014.78291575914
 30
0.0
 11
11101.46360012173
 21
18024.78291575914
 31
0.0
  0
LINE
  5
34559
330
2
100
AcDbEntity
  8
0
100
AcDbLine
 10
11101.46360012173
 20
18024.78291575914
 30
0.0
 11
11103.13026678839
 21
18014.78291575914
 31
0.0
  0
LINE
  5
3455A
330
2
100
AcDbEntity
  8
0
100
AcDbLine
 10
11101.46360012173
 20
18024.78291575914
 30
0.0
 11
11101.46360012173
 21
18014.78291575914
 31
0.0
  0
LINE
  5
3455B
330
2
100
AcDbEntity
  8
0
100
AcDbLine
 10
11260.01316398817
 20
18057.84624913296
 30
0.0
 11
11525.4517963878
 21
17905.62986556357
 31
0.0
1001
ACAD
1000
DSTYLE
1002
{
1070
   147
1040
1.0
1070
    77
1070
     0
1002
}
  0
LINE
  5
3455C
330
2
100
AcDbEntity
  8
0
100
AcDbLine
 10
11525.4517963878
 20
17905.62986556357
 30
0.0
 11
11545.91471214878
 21
17905.62986556357
 31
0.0
1001
ACAD
1000
DSTYLE
1002
{
1070
   147
1040
1.0
1070
    77
1070
     0
1002
}
  0
LINE
  5
3455D
330
2
100
AcDbEntity
  8
0
100
AcDbLine
 10
11259.18406106342
 20
18056.40043928448
 30
0.0
 11
11251.33830489731
 21
18062.82086668145
 31
0.0
  0
LINE
  5
3455E
330
2
100
AcDbEntity
  8
0
100
AcDbLine
 10
11251.33830489731
 20
18062.82086668145
 30
0.0
 11
11260.84226691292
 21
18059.29205898143
 31
0.0
  0
LINE
  5
3455F
330
2
100
AcDbEntity
  8
0
100
AcDbLine
 10
11251.33830489731
 20
18062.82086668145
 30
0.0
 11
11260.01316398817
 21
18057.84624913296
 31
0.0
  0
ENDSEC
  0
SECTION
  2
OBJECTS
  0
DICTIONARY
  5
7
330
0
100
AcDbDictionary
281
     1
  3
ACAD_CIP_PREVIOUS_PRODUCT_INFO
350
2DB34
  3
ACAD_COLOR
350
C6
  3
ACAD_DETAILVIEWSTYLE
350
2DB2F
  3
ACAD_GROUP
350
20
  3
ACAD_LAYOUT
350
B
  3
ACAD_MATERIAL
350
C5
  3
ACAD_MLEADERSTYLE
350
2DB2B
  3
ACAD_MLINESTYLE
350
21
  3
ACAD_PLOTSETTINGS
350
22
  3
ACAD_PLOTSTYLENAME
350
6
  3
ACAD_SCALELIST
350
2DB19
  3
ACAD_SECTIONVIEWSTYLE
350
2DB2D
  3
ACAD_TABLESTYLE
350
2DB17
  3
ACAD_VISUALSTYLE
350
2DAFE
  3
AcadDim
350
2AA61
  3
ACDB_RECOMPOSE_DATA
350
34562
  3
AcDbVariableDictionary
350
443
  0
DICTIONARY
  5
2E535
330
19
100
AcDbDictionary
280
     1
281
     1
  0
DICTIONARY
  5
988
330
10
100
AcDbDictionary
280
     1
281
     1
  3
ACAD_LAYERFILTERS
360
2534
  3
ACAD_LAYERSTATES
360
989
  0
DICTIONARY
  5
2E50F
330
4
100
AcDbDictionary
280
     1
281
     1
  3
ADSK_XREC_LAYER_RECONCILED
360
2E510
  0
DICTIONARY
  5
2DD28
330
2
100
AcDbDictionary
280
     1
281
     1
  3
ACAD_SORTENTS
360
2DD29
  0
XRECORD
  5
2DB34
102
{ACAD_REACTORS
330
7
102
}
330
7
100
AcDbXrecord
280
     1
300
ACD
300
2014
300
ACD_F_S
  0
DICTIONARY
  5
C6
102
{ACAD_REACTORS
330
7
102
}
330
7
100
AcDbDictionary
281
     1
  0
DICTIONARY
  5
2DB2F
102
{ACAD_REACTORS
330
7
102
}
330
7
100
AcDbDictionary
281
     1
  3
Metric50
350
2DB30
  0
DICTIONARY
  5
20
102
{ACAD_REACTORS
330
7
102
}
330
7
100
AcDbDictionary
281
     1
  3
*A23
350
334F3
  3
*A25
350
334F4
  3
*A262
350
33D57
  3
*A263
350
33D58
  3
*A264
350
33D6E
  3
*A27
350
334F5
  0
DICTIONARY
  5
B
102
{ACAD_REACTORS
330
7
102
}
330
7
100
AcDbDictionary
281
     1
  3
Model
350
A
  3
レイアウト1
350
2F49C
  0
DICTIONARY
  5
C5
102
{ACAD_REACTORS
330
7
102
}
330
7
100
AcDbDictionary
281
     1
  3
ByBlock
350
2DAF6
  3
ByLayer
350
2DAEE
  3
Global
350
AF90
  0
DICTIONARY
  5
2DB2B
102
{ACAD_REACTORS
330
7
102
}
330
7
100
AcDbDictionary
281
     1
  3
Standard
350
2DB2C
  0
DICTIONARY
  5
21
102
{ACAD_REACTORS
330
7
102
}
330
7
100
AcDbDictionary
281
     1
  3
Standard
350
23
  0
DICTIONARY
  5
22
102
{ACAD_REACTORS
330
7
102
}
330
7
100
AcDbDictionary
281
     1
  0
ACDBDICTIONARYWDFLT
  5
6
102
{ACAD_REACTORS
330
7
102
}
330
7
100
AcDbDictionary
281
     1
  3
Normal
350
5
100
AcDbDictionaryWithDefault
340
5
  0
DICTIONARY
  5
2DB19
102
{ACAD_REACTORS
330
7
102
}
330
7
100
AcDbDictionary
281
     1
  3
A0
350
2DB1A
  3
A1
350
2DB1B
  3
A2
350
2DB1C
  3
A3
350
2DB1D
  3
A4
350
2DB1E
  3
A5
350
2DB1F
  3
A6
350
2DB20
  3
A7
350
2DB21
  3
A8
350
2DB22
  3
A9
350
2DB23
  3
B0
350
2DB24
  3
B1
350
2DB25
  3
B2
350
2DB26
  3
B3
350
2DB27
  3
B4
350
2DB28
  3
B5
350
2DB29
  3
B6
350
2DB2A
  0
DICTIONARY
  5
2DB2D
102
{ACAD_REACTORS
330
7
102
}
330
7
100
AcDbDictionary
281
     1
  3
Metric50
350
2DB2E
  0
DICTIONARY
  5
2DB17
102
{ACAD_REACTORS
330
7
102
}
330
7
100
AcDbDictionary
281
     1
  3
Standard
350
2DB18
  0
DICTIONARY
  5
2DAFE
102
{ACAD_REACTORS
330
7
102
}
330
7
100
AcDbDictionary
281
     1
  3
2dWireframe
350
2DB04
  3
Basic
350
2DB03
  3
Brighten
350
2DB0A
  3
ColorChange
350
2DB0E
  3
Conceptual
350
2DB07
  3
Dim
350
2DB09
  3
EdgeColorOff
350
2DB16
  3
Facepattern
350
2DB0D
  3
Flat
350
2DAFF
  3
FlatWithEdges
350
2DB00
  3
Gouraud
350
2DB01
  3
GouraudWithEdges
350
2DB02
  3
Hidden
350
2DB06
  3
JitterOff
350
2DB14
  3
Linepattern
350
2DB0C
  3
OverhangOff
350
2DB15
  3
Realistic
350
2DB08
  3
Shaded
350
2DB13
  3
Shaded with edges
350
2DB12
  3
Shades of Gray
350
2DB0F
  3
Sketchy
350
2DB10
  3
Thicken
350
2DB0B
  3
Wireframe
350
2DB05
  3
X-Ray
350
2DB11
  0
XRECORD
  5
2AA61
102
{ACAD_REACTORS
330
7
102
}
330
7
100
AcDbXrecord
280
     1
 90
   990106
  3

 60
     0
 61
     0
 62
     1
 63
     3
 64
     0
 65
     0
 66
     0
 67
     3
 68
     1
 69
     0
 70
     0
 71
     0
 72
     0
 40
0.0
170
     0
340
0
  0
XRECORD
  5
34562
102
{ACAD_REACTORS
330
7
102
}
330
7
100
AcDbXrecord
280
     1
 90
        1
330
2DB18
  0
DICTIONARY
  5
443
102
{ACAD_REACTORS
330
7
102
}
330
7
100
AcDbDictionary
281
     1
  3
CANNOSCALE
350
2E5ED
  3
CMLEADERSTYLE
350
2E5EA
  3
CTABLESTYLE
350
2E5E9
  3
CVIEWDETAILSTYLE
350
2E5EB
  3
CVIEWSECTIONSTYLE
350
2E5EC
  3
DIMASSOC
350
444
  3
PROJECTNAME
350
445
  3
XCLIPFRAME
350
34560
  0
DICTIONARY
  5
2534
102
{ACAD_REACTORS
330
988
102
}
330
988
100
AcDbDictionary
281
     1
  0
DICTIONARY
  5
989
102
{ACAD_REACTORS
330
988
102
}
330
988
100
AcDbDictionary
281
     1
  0
XRECORD
  5
2E510
102
{ACAD_REACTORS
330
2E50F
102
}
330
2E50F
100
AcDbXrecord
280
     1
290
     1
  0
SORTENTSTABLE
  5
2DD29
102
{ACAD_REACTORS
330
2DD28
102
}
330
2DD28
100
AcDbSortentsTable
330
2
331
33BE0
  5
344DE
331
33C02
  5
344F8
331
344E9
  5
33C07
331
30330
  5
30339
331
3450B
  5
33BE0
331
3452D
  5
344C8
331
34547
  5
34539
331
3038E
  5
30397
331
3036C
  5
30375
331
3034A
  5
30353
331
303B0
  5
303B9
331
3025F
  5
30268
331
303CA
  5
303D3
331
30281
  5
3028A
331
303EC
  5
303F5
331
302DB
  5
302E4
331
302A3
  5
302AC
331
344BE
  5
3453D
331
302FD
  5
30306
331
302C5
  5
302CE
331
33BCF
  5
344CF
331
3348E
  5
33499
331
3024E
  5
30257
331
344D8
  5
3450B
331
33BF1
  5
344ED
331
3031F
  5
30328
331
344FA
  5
33BD5
331
3451C
  5
33BFC
331
3453E
  5
3451E
331
34558
  5
34550
331
3039F
  5
303A8
331
3037D
  5
30386
331
3035B
  5
30364
331
303DB
  5
303E4
331
30292
  5
3029B
331
302EC
  5
302F5
331
302B4
  5
302BD
331
30270
  5
30279
331
30341
  5
3034A
331
3347D
  5
33488
331
303FD
  5
30406
331
3349F
  5
33BD0
331
3030E
  5
30317
331
3023D
  5
30244
331
33C00
  5
344F7
331
34509
  5
33BE3
331
3452B
  5
344BD
331
34545
  5
3452B
331
3038C
  5
30395
331
3036A
  5
30373
331
30348
  5
30351
331
303AE
  5
303B7
331
3025D
  5
30266
331
303C8
  5
303D1
331
3027F
  5
30288
331
303EA
  5
303F3
331
302D9
  5
302E2
331
302A1
  5
302AA
331
302FB
  5
30304
331
302C3
  5
302CC
331
3348C
  5
33497
331
3024C
  5
30255
331
344D6
  5
34509
331
33BEF
  5
344EB
331
3031D
  5
30326
331
33C11
  5
34506
331
3451A
  5
33C03
331
3453C
  5
3451C
331
34556
  5
34554
331
3039D
  5
303A6
331
3037B
  5
30384
331
30359
  5
30362
331
303BF
  5
303C8
331
303D9
  5
303E2
331
30290
  5
30299
331
3026E
  5
30277
331
3033F
  5
30348
331
302EA
  5
302F3
331
3347B
  5
33486
331
3023B
  5
30242
331
303FB
  5
30404
331
33BDE
  5
344DC
331
3349D
  5
33B85
331
3032E
  5
30337
331
3030C
  5
30315
331
302B2
  5
302BB
331
34529
  5
344BB
331
34543
  5
34529
331
3038A
  5
30393
331
30368
  5
30371
331
303AC
  5
303B5
331
3025B
  5
30264
331
303C6
  5
303CF
331
3027D
  5
30286
331
303E8
  5
303F1
331
302D7
  5
302E0
331
3029F
  5
302A8
331
344BA
  5
3454C
331
302F9
  5
30302
331
302C1
  5
302CA
331
3348A
  5
33493
331
3024A
  5
30253
331
33BED
  5
344E9
331
3031B
  5
30324
331
33C0F
  5
34504
331
344F6
  5
33BE6
331
34518
  5
33C00
331
3453A
  5
34520
331
34554
  5
34556
331
3039B
  5
303A4
331
30379
  5
30382
331
30357
  5
30360
331
303BD
  5
303C6
331
303D7
  5
303E0
331
3028E
  5
30297
331
3026C
  5
30275
331
3033D
  5
30346
331
33479
  5
33484
331
302E8
  5
302F1
331
303F9
  5
30402
331
33BDC
  5
344DA
331
3349B
  5
33B83
331
3030A
  5
30313
331
3032C
  5
30335
331
302B0
  5
302B9
331
34507
  5
3023C
331
34541
  5
3452D
331
30388
  5
30391
331
303AA
  5
303B3
331
30259
  5
30262
331
303C4
  5
303CD
331
3027B
  5
30284
331
303E6
  5
303EF
331
302D5
  5
302DE
331
3029D
  5
302A6
331
344B8
  5
3454A
331
302F7
  5
30300
331
302BF
  5
302C8
331
33488
  5
33491
331
30248
  5
30251
331
344D2
  5
34518
331
33BEB
  5
344E7
331
30319
  5
30322
331
33C0D
  5
34502
331
344F4
  5
33BE4
331
34516
  5
33BED
331
34538
  5
34522
331
34552
  5
34544
331
30399
  5
303A2
331
30377
  5
30380
331
30355
  5
3035E
331
303BB
  5
303C4
331
303D5
  5
303DE
331
3028C
  5
30295
331
3026A
  5
30273
331
3033B
  5
30344
331
33477
  5
33482
331
302E6
  5
302EF
331
303F7
  5
30400
331
302AE
  5
302B7
331
33499
  5
334A2
331
33BFC
  5
344F5
331
344E3
  5
344B6
331
3032A
  5
30333
331
34527
  5
344BF
331
30366
  5
3036F
331
34505
  5
3023E
331
30308
  5
30311
331
303A8
  5
303B1
331
303C2
  5
303CB
331
30279
  5
30282
331
303E4
  5
303ED
331
302D3
  5
302DC
331
3029B
  5
302A4
331
302F5
  5
302FE
331
302BD
  5
302C6
331
33486
  5
3348F
331
30246
  5
3024F
331
30406
  5
3347D
331
344D0
  5
34516
331
33BE9
  5
344E5
331
30317
  5
30320
331
33C0B
  5
34500
331
33D6D
  5
34508
331
34514
  5
33BEB
331
30353
  5
3035C
331
34536
  5
34510
331
34550
  5
34548
331
30397
  5
303A0
331
30375
  5
3037E
331
30339
  5
30342
331
303B9
  5
303C2
331
303D3
  5
303DC
331
3028A
  5
30293
331
302E4
  5
302ED
331
302AC
  5
302B5
331
30268
  5
30271
331
30306
  5
3030F
331
302CE
  5
302D7
331
33BD8
  5
344D7
331
33497
  5
334A0
331
30257
  5
30260
331
33BFA
  5
344F3
331
344E1
  5
344B4
331
30328
  5
30331
331
34525
  5
344C1
331
30386
  5
3038F
331
30364
  5
3036D
331
34503
  5
30241
331
303F5
  5
303FE
331
303C0
  5
303C9
331
303E2
  5
303EB
331
302D1
  5
302DA
331
30299
  5
302A2
331
344B4
  5
3455E
331
302F3
  5
302FC
331
302BB
  5
302C4
331
33484
  5
3348D
331
30244
  5
3024D
331
33B85
  5
344CE
331
30404
  5
3347B
331
33BE7
  5
344E4
331
30315
  5
3031E
331
33C09
  5
344FE
331
344F0
  5
33BF6
331
30337
  5
30340
331
34512
  5
33BEF
331
34534
  5
34514
331
3454E
  5
34546
331
30395
  5
3039E
331
30373
  5
3037C
331
303B7
  5
303C0
331
30266
  5
3026F
331
30351
  5
3035A
331
303D1
  5
303DA
331
302E2
  5
302EB
331
302AA
  5
302B3
331
30288
  5
30291
331
303F3
  5
303FC
331
344C5
  5
34531
331
30304
  5
3030D
331
302CC
  5
302D5
331
33BD6
  5
344D5
331
30255
  5
3025E
331
33BF8
  5
344F2
331
30326
  5
3032F
331
34523
  5
33C0D
331
3455F
  5
3455B
331
303A6
  5
303AF
331
30384
  5
3038D
331
30362
  5
3036B
331
34501
  5
30247
331
30277
  5
30280
331
30233
  5
30233
331
303E0
  5
303E9
331
302F1
  5
302FA
331
302B9
  5
302C2
331
33482
  5
3348B
331
30242
  5
3024B
331
33B83
  5
344CC
331
30402
  5
33479
331
344CC
  5
34525
331
33BE5
  5
344E2
331
30313
  5
3031C
331
33C07
  5
344FC
331
344EE
  5
33BF2
331
30335
  5
3033E
331
34510
  5
33BF1
331
34532
  5
34512
331
3454C
  5
34538
331
30393
  5
3039C
331
30371
  5
3037A
331
3034F
  5
30358
331
303B5
  5
303BE
331
30264
  5
3026D
331
303CF
  5
303D8
331
303F1
  5
303FA
331
302E0
  5
302E9
331
302A8
  5
302B1
331
30302
  5
3030B
331
33BD4
  5
344D3
331
33493
  5
3349E
331
30253
  5
3025C
331
33BF6
  5
344F0
331
344DD
  5
344C9
331
30346
  5
3034F
331
30324
  5
3032D
331
302CA
  5
302D3
331
34521
  5
33C11
331
3455D
  5
34559
331
303A4
  5
303AD
331
30382
  5
3038B
331
30297
  5
302A0
331
30275
  5
3027E
331
30360
  5
30369
331
30286
  5
3028F
331
30400
  5
33477
331
30240
  5
30249
331
344CA
  5
34523
331
30311
  5
3031A
331
33BE3
  5
344E0
331
334A2
  5
33BD4
331
33C05
  5
344FB
331
30333
  5
3033C
331
3450E
  5
33BDD
331
34530
  5
344C6
331
3454A
  5
34536
331
30391
  5
3039A
331
3036F
  5
30378
331
3034D
  5
30356
331
303B3
  5
303BC
331
30262
  5
3026B
331
303CD
  5
303D6
331
30284
  5
3028D
331
302DE
  5
302E7
331
302A6
  5
302AF
331
303EF
  5
303F8
331
30300
  5
30309
331
302C8
  5
302D1
331
33491
  5
3349C
331
30251
  5
3025A
331
30322
  5
3032B
331
30344
  5
3034D
331
3451F
  5
33C0F
331
3455B
  5
3455C
331
303A2
  5
303AB
331
30380
  5
30389
331
3035E
  5
30367
331
303DE
  5
303E7
331
30295
  5
3029E
331
30273
  5
3027C
331
302EF
  5
302F8
331
302B7
  5
302C0
331
3022F
  5
3022F
331
33BE1
  5
344DF
331
334A0
  5
33BD1
331
33C03
  5
344F9
331
344EA
  5
33C08
331
30331
  5
3033A
331
3450C
  5
33BE1
331
3452E
  5
344C4
331
34548
  5
3453A
331
3038F
  5
30398
331
3036D
  5
30376
331
3034B
  5
30354
331
303B1
  5
303BA
331
30260
  5
30269
331
303CB
  5
303D4
331
30282
  5
3028B
331
303ED
  5
303F6
331
302DC
  5
302E5
331
302A4
  5
302AD
331
344BF
  5
3453E
331
302FE
  5
30307
331
302C6
  5
302CF
331
33BD0
  5
344D0
331
3348F
  5
3349A
331
3024F
  5
30258
331
33BF2
  5
344EE
331
30320
  5
30329
331
344FB
  5
33BD6
331
3451D
  5
33BFF
331
3453F
  5
3452F
331
34559
  5
34551
331
303A0
  5
303A9
331
3037E
  5
30387
331
3035C
  5
30365
331
303DC
  5
303E5
331
30293
  5
3029C
331
302ED
  5
302F6
331
302B5
  5
302BE
331
30271
  5
3027A
331
30342
  5
3034B
331
3347E
  5
33489
331
303FE
  5
30407
331
3030F
  5
30318
331
3023E
  5
30245
331
344E8
  5
33C05
331
3450A
  5
33BDF
331
3452C
  5
344C7
331
34546
  5
3453C
331
3038D
  5
30396
331
3036B
  5
30374
331
30349
  5
30352
331
303AF
  5
303B8
331
3025E
  5
30267
331
303C9
  5
303D2
331
30280
  5
30289
331
303EB
  5
303F4
331
302DA
  5
302E3
331
302A2
  5
302AB
331
302FC
  5
30305
331
302C4
  5
302CD
331
3348D
  5
33498
331
3024D
  5
30256
331
344D7
  5
3450A
331
33BF0
  5
344EC
331
3031E
  5
30327
331
33C12
  5
34507
331
3451B
  5
33BFB
331
3453D
  5
3451D
331
34557
  5
34555
331
3039E
  5
303A7
331
3037C
  5
30385
331
3035A
  5
30363
331
303DA
  5
303E3
331
30291
  5
3029A
331
302EB
  5
302F4
331
302B3
  5
302BC
331
3026F
  5
30278
331
30340
  5
30349
331
3347C
  5
33487
331
303FC
  5
30405
331
33BDF
  5
344DD
331
3349E
  5
33BCF
331
3030D
  5
30316
331
3032F
  5
30338
331
3023C
  5
30243
331
3452A
  5
344BC
331
34544
  5
3452A
331
3038B
  5
30394
331
30369
  5
30372
331
34508
  5
3023B
331
303AD
  5
303B6
331
3025C
  5
30265
331
303C7
  5
303D0
331
3027E
  5
30287
331
303E9
  5
303F2
331
302D8
  5
302E1
331
302A0
  5
302A9
331
302FA
  5
30303
331
302C2
  5
302CB
331
3348B
  5
33494
331
3024B
  5
30254
331
33BEE
  5
344EA
331
3031C
  5
30325
331
33C10
  5
34505
331
34519
  5
33C02
331
3453B
  5
34521
331
34555
  5
34553
331
3039C
  5
303A5
331
3037A
  5
30383
331
30358
  5
30361
331
303BE
  5
303C7
331
303D8
  5
303E1
331
3028F
  5
30298
331
3026D
  5
30276
331
3033E
  5
30347
331
3347A
  5
33485
331
302E9
  5
302F2
331
303FA
  5
30403
331
33BDD
  5
344DB
331
3349C
  5
33B84
331
3030B
  5
30314
331
33BFF
  5
344F6
331
3032D
  5
30336
331
302B1
  5
302BA
331
34528
  5
344C0
331
34542
  5
3452E
331
30389
  5
30392
331
303AB
  5
303B4
331
3025A
  5
30263
331
303C5
  5
303CE
331
3027C
  5
30285
331
303E7
  5
303F0
331
302D6
  5
302DF
331
3029E
  5
302A7
331
344B9
  5
3454B
331
302F8
  5
30301
331
302C0
  5
302C9
331
33489
  5
33492
331
30249
  5
30252
331
33BEC
  5
344E8
331
3031A
  5
30323
331
33C0E
  5
34503
331
344F5
  5
33BE5
331
34517
  5
33C04
331
34539
  5
3451F
331
34553
  5
34545
331
3039A
  5
303A3
331
30378
  5
30381
331
30356
  5
3035F
331
303BC
  5
303C5
331
303D6
  5
303DF
331
3028D
  5
30296
331
3026B
  5
30274
331
3033C
  5
30345
331
33478
  5
33483
331
302E7
  5
302F0
331
303F8
  5
30401
331
33BDB
  5
344D9
331
3349A
  5
33B82
331
30309
  5
30312
331
302AF
  5
302B8
331
344E4
  5
344B7
331
30367
  5
30370
331
34506
  5
3023D
331
3032B
  5
30334
331
34540
  5
3452C
331
303A9
  5
303B2
331
30258
  5
30261
331
303C3
  5
303CC
331
3027A
  5
30283
331
303E5
  5
303EE
331
302D4
  5
302DD
331
3029C
  5
302A5
331
302F6
  5
302FF
331
302BE
  5
302C7
331
33487
  5
33490
331
30247
  5
30250
331
30407
  5
3347E
331
344D1
  5
34517
331
33BEA
  5
344E6
331
30318
  5
30321
331
33C0C
  5
34501
331
34515
  5
33BEC
331
34537
  5
34511
331
34551
  5
34543
331
30398
  5
303A1
331
30376
  5
3037F
331
30354
  5
3035D
331
303BA
  5
303C3
331
30269
  5
30272
331
3033A
  5
30343
331
303D4
  5
303DD
331
33476
  5
3347F
331
302E5
  5
302EE
331
302AD
  5
302B6
331
3028B
  5
30294
331
33BD9
  5
344D8
331
33498
  5
334A1
331
30307
  5
30310
331
302CF
  5
302D8
331
33BFB
  5
344F4
331
344E2
  5
344B5
331
30329
  5
30332
331
34526
  5
344BE
331
30387
  5
30390
331
30365
  5
3036E
331
34504
  5
30240
331
303F6
  5
303FF
331
303C1
  5
303CA
331
30278
  5
30281
331
303E3
  5
303EC
331
302D2
  5
302DB
331
3029A
  5
302A3
331
344B5
  5
3455F
331
302F4
  5
302FD
331
302BC
  5
302C5
331
33485
  5
3348E
331
30245
  5
3024E
331
30405
  5
3347C
331
30316
  5
3031F
331
33C0A
  5
344FF
331
30338
  5
30341
331
34513
  5
33BF0
331
34535
  5
3450F
331
3454F
  5
34547
331
30396
  5
3039F
331
30374
  5
3037D
331
30352
  5
3035B
331
303B8
  5
303C1
331
303D2
  5
303DB
331
30289
  5
30292
331
30267
  5
30270
331
302E3
  5
302EC
331
302AB
  5
302B4
331
303F4
  5
303FD
331
344C6
  5
34532
331
30305
  5
3030E
331
302CD
  5
302D6
331
33BD7
  5
344D6
331
30256
  5
3025F
331
344E0
  5
33D6D
331
30327
  5
30330
331
34524
  5
33C0E
331
303A7
  5
303B0
331
30385
  5
3038E
331
30363
  5
3036C
331
34502
  5
30248
331
30234
  5
30234
331
303E1
  5
303EA
331
302D0
  5
302D9
331
30298
  5
302A1
331
302F2
  5
302FB
331
302BA
  5
302C3
331
33483
  5
3348C
331
30243
  5
3024C
331
33B84
  5
344CD
331
30403
  5
3347A
331
33BE6
  5
344E3
331
30314
  5
3031D
331
33C08
  5
344FD
331
344EF
  5
33BF5
331
30336
  5
3033F
331
34511
  5
33BEE
331
34533
  5
34513
331
3454D
  5
34549
331
30394
  5
3039D
331
30372
  5
3037B
331
30350
  5
30359
331
303B6
  5
303BF
331
30265
  5
3026E
331
303D0
  5
303D9
331
302E1
  5
302EA
331
302A9
  5
302B2
331
30287
  5
30290
331
303F2
  5
303FB
331
344C4
  5
34530
331
30303
  5
3030C
331
302CB
  5
302D4
331
33BD5
  5
344D4
331
33494
  5
3349F
331
30254
  5
3025D
331
33BF7
  5
344F1
331
30325
  5
3032E
331
30347
  5
30350
331
34522
  5
33C0C
331
3455E
  5
3455A
331
303A5
  5
303AE
331
30383
  5
3038C
331
30361
  5
3036A
331
34500
  5
30246
331
30276
  5
3027F
331
30232
  5
30232
331
302F0
  5
302F9
331
302B8
  5
302C1
331
33B82
  5
344CB
331
30401
  5
33478
331
30241
  5
3024A
331
344CB
  5
34524
331
33BE4
  5
344E1
331
30312
  5
3031B
331
30334
  5
3033D
331
3450F
  5
33BDE
331
34531
  5
34515
331
3454B
  5
34537
331
30392
  5
3039B
331
30370
  5
30379
331
3034E
  5
30357
331
303B4
  5
303BD
331
30263
  5
3026C
331
303CE
  5
303D7
331
30285
  5
3028E
331
302DF
  5
302E8
331
302A7
  5
302B0
331
303F0
  5
303F9
331
30301
  5
3030A
331
302C9
  5
302D2
331
33BD3
  5
344D2
331
33492
  5
3349D
331
30252
  5
3025B
331
33BF5
  5
344EF
331
344DC
  5
344CA
331
30323
  5
3032C
331
30345
  5
3034E
331
34520
  5
33C10
331
3455C
  5
3455D
331
303A3
  5
303AC
331
30381
  5
3038A
331
3035F
  5
30368
331
303DF
  5
303E8
331
30296
  5
3029F
331
30274
  5
3027D
331
30230
  5
30230
331
30310
  5
30319
331
334A1
  5
33BD3
331
33C04
  5
344FA
331
30332
  5
3033B
331
3450D
  5
33BDC
331
3452F
  5
344C5
331
34549
  5
3453B
331
30390
  5
30399
331
3036E
  5
30377
331
3034C
  5
30355
331
303B2
  5
303BB
331
30261
  5
3026A
331
303CC
  5
303D5
331
30283
  5
3028C
331
303EE
  5
303F7
331
302DD
  5
302E6
331
302A5
  5
302AE
331
344C0
  5
3453F
331
302FF
  5
30308
331
302C7
  5
302D0
331
33BD1
  5
344D1
331
33490
  5
3349B
331
30250
  5
30259
331
344FC
  5
33BD7
331
30343
  5
3034C
331
30321
  5
3032A
331
3451E
  5
33C12
331
3455A
  5
34552
331
303A1
  5
303AA
331
3037F
  5
30388
331
303DD
  5
303E6
331
30294
  5
3029D
331
30272
  5
3027B
331
3347F
  5
3348A
331
302EE
  5
302F7
331
303FF
  5
33476
331
302B6
  5
302BF
331
3035D
  5
30366
  0
ACDBDETAILVIEWSTYLE
  5
2DB30
102
{ACAD_XDICTIONARY
360
3459B
102
}
102
{ACAD_REACTORS
330
2DB2F
102
}
330
2DB2F
100
AcDbModelDocViewStyle
 70
     0
  3
Metric50
290
     0
100
AcDbDetailViewStyle
 70
     0
 71
     0
 90
        3
 71
     1
340
12
 62
   256
 40
5.0
340
0
 62
   256
 40
5.0
300

 40
0.0
280
     1
 71
     2
340
8
 90
       25
 62
   256
 71
     3
340
12
 62
   256
 40
5.0
 90
        0
 40
15.0
 90
        1
300
%<\AcVar ViewDetailId>% (%<\AcVar ViewScale \f "%sn">%)
 71
     4
340
8
 90
       25
 62
   256
340
8
 90
       25
 62
   256
280
     0
  0
GROUP
  5
334F3
102
{ACAD_REACTORS
330
20
102
}
330
20
100
AcDbGroup
300

 70
     1
 71
     1
340
3349C
340
3349B
340
3349A
340
33499
340
33498
340
33497
340
33494
340
33493
340
33492
340
33491
340
33487
340
33486
340
33485
340
33484
340
33483
340
33482
340
3347F
340
3347E
340
3347D
340
3347C
  0
GROUP
  5
334F4
102
{ACAD_REACTORS
330
20
102
}
330
20
100
AcDbGroup
300

 70
     1
 71
     1
340
33490
340
3348F
340
3348E
340
3348D
340
3348C
340
3348B
340
3348A
340
33489
340
33488
  0
GROUP
  5
33D57
102
{ACAD_REACTORS
330
20
102
}
330
20
100
AcDbGroup
300

 70
     1
 71
     1
340
33BF6
340
33BF5
340
33BF2
340
33BF1
340
33BF0
340
33BEF
340
33BEE
340
33BED
340
33BEC
340
33BEB
340
33BEA
340
33BE9
340
33BE7
340
33BE6
340
33BE5
340
33BE4
340
33BE3
340
33BE1
340
33BE0
340
33BDF
340
33BDE
340
33BDD
340
33BDC
340
33BDB
340
33BD9
340
33BD8
340
33BD7
340
33BD6
340
33BD5
340
33BD4
340
33BD3
340
33BD1
340
33BD0
340
33BCF
340
33B85
340
33B84
340
33B83
340
33B82
  0
GROUP
  5
33D58
102
{ACAD_REACTORS
330
20
102
}
330
20
100
AcDbGroup
300

 70
     1
 71
     1
340
33C12
340
33C11
340
33C10
340
33C0F
340
33C0E
340
33C0D
340
33C09
340
33C08
340
33C07
  0
GROUP
  5
33D6E
102
{ACAD_REACTORS
330
20
102
}
330
20
100
AcDbGroup
300

 70
     1
 71
     1
340
33D6D
340
33C0C
340
33C0B
340
33C0A
340
33BFC
340
33BFB
340
33BFA
340
33BF8
340
33BF7
340
33C05
340
33C04
340
33C03
340
33C02
340
33C00
340
33BFF
  0
GROUP
  5
334F5
102
{ACAD_REACTORS
330
20
102
}
330
20
100
AcDbGroup
300

 70
     1
 71
     1
340
334A2
340
334A1
340
334A0
340
3349F
340
3349E
340
3349D
340
3347B
340
3347A
340
33479
340
33478
340
33477
340
33476
  0
LAYOUT
  5
A
102
{ACAD_XDICTIONARY
360
2E531
102
}
102
{ACAD_REACTORS
330
B
102
}
330
B
100
AcDbPlotSettings
  1

  2
none_device
  4
ANSI_A_(8.50_x_11.00_Inches)
  6

 40
6.349999904632568
 41
19.04999923706055
 42
6.350006103515625
 43
19.04998779296875
 44
215.8999938964844
 45
279.3999938964844
 46
28.79735799831205
 47
17.69678088353209
 48
0.0
 49
0.0
140
0.0
141
0.0
142
1.0
143
51.8162618983908
 70
 11956
 72
     0
 73
     1
 74
     1
  7

 75
     0
147
0.0192989606614416
 76
     0
 77
     2
 78
   300
148
0.6510932400678712
149
0.4604159340479328
100
AcDbLayout
  1
Model
 70
     1
 71
     0
 10
0.0
 20
0.0
 11
12.0
 21
9.0
 12
0.0
 22
0.0
 32
0.0
 14
0.0
 24
0.0
 34
0.0
 15
0.0
 25
0.0
 35
0.0
146
0.0
 13
0.0
 23
0.0
 33
0.0
 16
1.0
 26
0.0
 36
0.0
 17
0.0
 27
1.0
 37
0.0
 76
     0
330
2
331
344AD
  0
LAYOUT
  5
2F49C
102
{ACAD_REACTORS
330
B
102
}
330
B
100
AcDbPlotSettings
  1

  2
DocuPrint C2250
  4

  6

 40
0.0
 41
0.0
 42
0.0
 43
0.0
 44
0.0
 45
0.0
 46
0.0
 47
0.0
 48
0.0
 49
0.0
140
0.0
141
0.0
142
1.0
143
1.0
 70
   688
 72
     0
 73
     0
 74
     5
  7

 75
    16
147
1.0
 76
     0
 77
     2
 78
   300
148
0.0
149
0.0
100
AcDbLayout
  1
レイアウト1
 70
     1
 71
     1
 10
0.0
 20
0.0
 11
12.0
 21
9.0
 12
0.0
 22
0.0
 32
0.0
 14
0.0
 24
0.0
 34
0.0
 15
0.0
 25
0.0
 35
0.0
146
0.0
 13
0.0
 23
0.0
 33
0.0
 16
1.0
 26
0.0
 36
0.0
 17
0.0
 27
1.0
 37
0.0
 76
     0
330
2F49B
  0
MATERIAL
  5
2DAF6
102
{ACAD_XDICTIONARY
360
2DAF7
102
}
102
{ACAD_REACTORS
330
C5
102
}
330
C5
100
AcDbMaterial
  1
ByBlock
 72
     0
 43
0.0008202099737533
 43
0.0
 43
0.0
 43
0.0
 43
0.0
 43
0.0008202099737533
 43
0.0
 43
0.0
 43
0.0
 43
0.0
 43
1.0
 43
0.0
 43
0.0
 43
0.0
 43
0.0
 43
1.0
 77
     0
 47
0.0008202099737533
 47
0.0
 47
0.0
 47
0.0
 47
0.0
 47
0.0008202099737533
 47
0.0
 47
0.0
 47
0.0
 47
0.0
 47
1.0
 47
0.0
 47
0.0
 47
0.0
 47
0.0
 47
1.0
171
     0
 49
0.0008202099737533
 49
0.0
 49
0.0
 49
0.0
 49
0.0
 49
0.0008202099737533
 49
0.0
 49
0.0
 49
0.0
 49
0.0
 49
1.0
 49
0.0
 49
0.0
 49
0.0
 49
0.0
 49
1.0
175
     0
142
0.0008202099737533
142
0.0
142
0.0
142
0.0
142
0.0
142
0.0008202099737533
142
0.0
142
0.0
142
0.0
142
0.0
142
1.0
142
0.0
142
0.0
142
0.0
142
0.0
142
1.0
179
     0
144
0.0008202099737533
144
0.0
144
0.0
144
0.0
144
0.0
144
0.0008202099737533
144
0.0
144
0.0
144
0.0
144
0.0
144
1.0
144
0.0
144
0.0
144
0.0
144
0.0
144
1.0
147
0.0008202099737533
147
0.0
147
0.0
147
0.0
147
0.0
147
0.0008202099737533
147
0.0
147
0.0
147
0.0
147
0.0
147
1.0
147
0.0
147
0.0
147
0.0
147
0.0
147
1.0
  0
MATERIAL
  5
2DAEE
102
{ACAD_XDICTIONARY
360
2DAEF
102
}
102
{ACAD_REACTORS
330
C5
102
}
330
C5
100
AcDbMaterial
  1
ByLayer
 72
     0
 43
0.0008202099737533
 43
0.0
 43
0.0
 43
0.0
 43
0.0
 43
0.0008202099737533
 43
0.0
 43
0.0
 43
0.0
 43
0.0
 43
1.0
 43
0.0
 43
0.0
 43
0.0
 43
0.0
 43
1.0
 77
     0
 47
0.0008202099737533
 47
0.0
 47
0.0
 47
0.0
 47
0.0
 47
0.0008202099737533
 47
0.0
 47
0.0
 47
0.0
 47
0.0
 47
1.0
 47
0.0
 47
0.0
 47
0.0
 47
0.0
 47
1.0
171
     0
 49
0.0008202099737533
 49
0.0
 49
0.0
 49
0.0
 49
0.0
 49
0.0008202099737533
 49
0.0
 49
0.0
 49
0.0
 49
0.0
 49
1.0
 49
0.0
 49
0.0
 49
0.0
 49
0.0
 49
1.0
175
     0
142
0.0008202099737533
142
0.0
142
0.0
142
0.0
142
0.0
142
0.0008202099737533
142
0.0
142
0.0
142
0.0
142
0.0
142
1.0
142
0.0
142
0.0
142
0.0
142
0.0
142
1.0
179
     0
144
0.0008202099737533
144
0.0
144
0.0
144
0.0
144
0.0
144
0.0008202099737533
144
0.0
144
0.0
144
0.0
144
0.0
144
1.0
144
0.0
144
0.0
144
0.0
144
0.0
144
1.0
147
0.0008202099737533
147
0.0
147
0.0
147
0.0
147
0.0
147
0.0008202099737533
147
0.0
147
0.0
147
0.0
147
0.0
147
1.0
147
0.0
147
0.0
147
0.0
147
0.0
147
1.0
  0
MATERIAL
  5
AF90
102
{ACAD_XDICTIONARY
360
AF91
102
}
102
{ACAD_REACTORS
330
C5
102
}
330
C5
100
AcDbMaterial
  1
Global
 72
     0
 43
0.0208333333333333
 43
0.0
 43
0.0
 43
0.0
 43
0.0
 43
0.0208333333333333
 43
0.0
 43
0.0
 43
0.0
 43
0.0
 43
1.0
 43
0.0
 43
0.0
 43
0.0
 43
0.0
 43
1.0
 77
     0
 47
0.0208333333333333
 47
0.0
 47
0.0
 47
0.0
 47
0.0
 47
0.0208333333333333
 47
0.0
 47
0.0
 47
0.0
 47
0.0
 47
1.0
 47
0.0
 47
0.0
 47
0.0
 47
0.0
 47
1.0
171
     0
 49
0.0208333333333333
 49
0.0
 49
0.0
 49
0.0
 49
0.0
 49
0.0208333333333333
 49
0.0
 49
0.0
 49
0.0
 49
0.0
 49
1.0
 49
0.0
 49
0.0
 49
0.0
 49
0.0
 49
1.0
175
     0
142
0.0208333333333333
142
0.0
142
0.0
142
0.0
142
0.0
142
0.0208333333333333
142
0.0
142
0.0
142
0.0
142
0.0
142
1.0
142
0.0
142
0.0
142
0.0
142
0.0
142
1.0
179
     0
144
0.0208333333333333
144
0.0
144
0.0
144
0.0
144
0.0
144
0.0208333333333333
144
0.0
144
0.0
144
0.0
144
0.0
144
1.0
144
0.0
144
0.0
144
0.0
144
0.0
144
1.0
147
0.0208333333333333
147
0.0
147
0.0
147
0.0
147
0.0
147
0.0208333333333333
147
0.0
147
0.0
147
0.0
147
0.0
147
1.0
147
0.0
147
0.0
147
0.0
147
0.0
147
1.0
  0
MLEADERSTYLE
  5
2DB2C
102
{ACAD_XDICTIONARY
360
34597
102
}
102
{ACAD_REACTORS
330
2DB2B
102
}
330
2DB2B
100
AcDbMLeaderStyle
170
     2
171
     1
172
     0
 90
        2
 40
0.0
 41
0.0
173
     1
 91
-1056964608
340
15
 92
       -2
290
     1
 42
2.0
291
     1
 43
0.36
  3
Standard
 44
4.0
300

342
12
174
     1
178
     6
175
     1
176
     0
 93
-1056964608
 45
4.0
292
     0
297
     0
 46
4.0
 94
-1056964608
 47
1.0
 49
1.0
140
1.0
293
     1
141
0.0
294
     1
177
     0
142
1.0
295
     0
296
     0
143
0.125
1001
ACAD_MLEADERVER
1070
     2
  0
MLINESTYLE
  5
23
102
{ACAD_REACTORS
330
21
102
}
330
21
100
AcDbMlineStyle
  2
STANDARD
 70
     0
  3

 62
   256
 51
90.0
 52
90.0
 71
     2
 49
0.5
 62
   256
  6
BYLAYER
 49
-0.5
 62
   256
  6
BYLAYER
  0
ACDBPLACEHOLDER
  5
5
102
{ACAD_REACTORS
330
6
102
}
330
6
  0
SCALE
  5
2DB1A
102
{ACAD_REACTORS
330
2DB19
102
}
330
2DB19
100
AcDbScale
 70
     0
300
1:1
140
1.0
141
1.0
290
     1
  0
SCALE
  5
2DB1B
102
{ACAD_REACTORS
330
2DB19
102
}
330
2DB19
100
AcDbScale
 70
     0
300
1:2
140
1.0
141
2.0
290
     0
  0
SCALE
  5
2DB1C
102
{ACAD_REACTORS
330
2DB19
102
}
330
2DB19
100
AcDbScale
 70
     0
300
1:4
140
1.0
141
4.0
290
     0
  0
SCALE
  5
2DB1D
102
{ACAD_REACTORS
330
2DB19
102
}
330
2DB19
100
AcDbScale
 70
     0
300
1:5
140
1.0
141
5.0
290
     0
  0
SCALE
  5
2DB1E
102
{ACAD_REACTORS
330
2DB19
102
}
330
2DB19
100
AcDbScale
 70
     0
300
1:8
140
1.0
141
8.0
290
     0
  0
SCALE
  5
2DB1F
102
{ACAD_REACTORS
330
2DB19
102
}
330
2DB19
100
AcDbScale
 70
     0
300
1:10
140
1.0
141
10.0
290
     0
  0
SCALE
  5
2DB20
102
{ACAD_REACTORS
330
2DB19
102
}
330
2DB19
100
AcDbScale
 70
     0
300
1:16
140
1.0
141
16.0
290
     0
  0
SCALE
  5
2DB21
102
{ACAD_REACTORS
330
2DB19
102
}
330
2DB19
100
AcDbScale
 70
     0
300
1:20
140
1.0
141
20.0
290
     0
  0
SCALE
  5
2DB22
102
{ACAD_REACTORS
330
2DB19
102
}
330
2DB19
100
AcDbScale
 70
     0
300
1:30
140
1.0
141
30.0
290
     0
  0
SCALE
  5
2DB23
102
{ACAD_REACTORS
330
2DB19
102
}
330
2DB19
100
AcDbScale
 70
     0
300
1:40
140
1.0
141
40.0
290
     0
  0
SCALE
  5
2DB24
102
{ACAD_REACTORS
330
2DB19
102
}
330
2DB19
100
AcDbScale
 70
     0
300
1:50
140
1.0
141
50.0
290
     0
  0
SCALE
  5
2DB25
102
{ACAD_REACTORS
330
2DB19
102
}
330
2DB19
100
AcDbScale
 70
     0
300
1:100
140
1.0
141
100.0
290
     0
  0
SCALE
  5
2DB26
102
{ACAD_REACTORS
330
2DB19
102
}
330
2DB19
100
AcDbScale
 70
     0
300
2:1
140
2.0
141
1.0
290
     0
  0
SCALE
  5
2DB27
102
{ACAD_REACTORS
330
2DB19
102
}
330
2DB19
100
AcDbScale
 70
     0
300
4:1
140
4.0
141
1.0
290
     0
  0
SCALE
  5
2DB28
102
{ACAD_REACTORS
330
2DB19
102
}
330
2DB19
100
AcDbScale
 70
     0
300
8:1
140
8.0
141
1.0
290
     0
  0
SCALE
  5
2DB29
102
{ACAD_REACTORS
330
2DB19
102
}
330
2DB19
100
AcDbScale
 70
     0
300
10:1
140
10.0
141
1.0
290
     0
  0
SCALE
  5
2DB2A
102
{ACAD_REACTORS
330
2DB19
102
}
330
2DB19
100
AcDbScale
 70
     0
300
100:1
140
100.0
141
1.0
290
     0
  0
ACDBSECTIONVIEWSTYLE
  5
2DB2E
102
{ACAD_XDICTIONARY
360
34599
102
}
102
{ACAD_REACTORS
330
2DB2D
102
}
330
2DB2D
100
AcDbModelDocViewStyle
 70
     0
  3
Metric50
290
     0
100
AcDbSectionViewStyle
 70
     0
 71
     0
 90
      102
 71
     1
340
12
 62
   256
 40
5.0
340
0
340
0
 62
   256
 40
5.0
300
I, O, Q, S, X, Z
 40
10.0
 90
        0
 40
2.5
 90
        0
 71
     2
340
8
 90
       25
 62
   256
340
8
 90
       50
 62
   256
 40
5.0
 40
2.5
 40
5.0
 71
     3
340
12
 62
   256
 40
5.0
 90
        0
 40
15.0
 90
        1
300
%<\AcVar ViewSectionStartId>%-%<\AcVar ViewSectionEndId>% (%<\AcVar ViewScale \f "%sn">%)
 71
     4
 62
   256
 62
   257
300
ANSI31
 40
1.0
 90
        0
290
     0
290
     0
 90
        6
 40
0.0
 40
1.570796326794896
 40
0.2617993877991494
 40
1.308996938995747
 40
-0.2617993877991494
 40
1.832595714594046
  0
TABLESTYLE
  5
2DB18
102
{ACAD_XDICTIONARY
360
2E526
102
}
102
{ACAD_REACTORS
330
2DB17
102
}
330
2DB17
100
AcDbTableStyle
  3
Standard
 70
     0
 71
     0
 40
1.5
 41
1.5
280
     0
281
     0
  7
Standard
140
4.5
170
     2
 62
     0
 63
     7
283
     0
274
    -2
284
     1
 64
     0
275
    -2
285
     1
 65
     0
276
    -2
286
     1
 66
     0
277
    -2
287
     1
 67
     0
278
    -2
288
     1
 68
     0
279
    -2
289
     1
 69
     0
  7
Standard
140
6.0
170
     5
 62
     0
 63
     7
283
     0
274
    -2
284
     1
 64
     0
275
    -2
285
     1
 65
     0
276
    -2
286
     1
 66
     0
277
    -2
287
     1
 67
     0
278
    -2
288
     1
 68
     0
279
    -2
289
     1
 69
     0
  7
Standard
140
4.5
170
     5
 62
     0
 63
     7
283
     0
274
    -2
284
     1
 64
     0
275
    -2
285
     1
 65
     0
276
    -2
286
     1
 66
     0
277
    -2
287
     1
 67
     0
278
    -2
288
     1
 68
     0
279
    -2
289
     1
 69
     0
  0
VISUALSTYLE
  5
2DB04
102
{ACAD_XDICTIONARY
360
34570
102
}
102
{ACAD_REACTORS
330
2DAFE
102
}
330
2DAFE
100
AcDbVisualStyle
  2
2dWireframe
 70
     4
 71
     0
 72
     2
 73
     0
 90
        0
 40
-0.6
 41
-30.0
 62
     5
 63
     7
421
 16777215
 74
     1
 91
        4
 64
     7
 65
   257
 75
     1
175
     1
 42
1.0
 92
        0
 66
   257
 43
1.0
 76
     1
 77
     6
 78
     2
 67
     7
 79
     5
170
     0
171
     0
290
     0
174
     0
 93
        1
 44
0.0
173
     0
291
     0
 45
0.0
1001
ACAD
1000
AcDbSavedByObjectVersion
1070
     0
  0
VISUALSTYLE
  5
2DB03
102
{ACAD_XDICTIONARY
360
3456E
102
}
102
{ACAD_REACTORS
330
2DAFE
102
}
330
2DAFE
100
AcDbVisualStyle
  2
Basic
 70
     7
 71
     1
 72
     0
 73
     1
 90
        0
 40
-0.6
 41
-30.0
 62
     5
 63
     7
421
 16777215
 74
     0
 91
        4
 64
     7
 65
   257
 75
     1
175
     1
 42
1.0
 92
        8
 66
     7
 43
1.0
 76
     1
 77
     6
 78
     2
 67
     7
 79
     5
170
     0
171
     0
290
     0
174
     0
 93
        1
 44
0.0
173
     0
291
     1
 45
0.0
1001
ACAD
1000
AcDbSavedByObjectVersion
1070
     0
  0
VISUALSTYLE
  5
2DB0A
102
{ACAD_XDICTIONARY
360
3457C
102
}
102
{ACAD_REACTORS
330
2DAFE
102
}
330
2DAFE
100
AcDbVisualStyle
  2
Brighten
 70
    12
 71
     2
 72
     2
 73
     0
 90
        0
 40
-0.6
 41
-30.0
 62
     5
 63
     7
421
 16777215
 74
     1
 91
        4
 64
     7
 65
   257
 75
     1
175
     1
 42
1.0
 92
        8
 66
     7
 43
1.0
 76
     1
 77
     6
 78
     2
 67
     7
 79
     5
170
     0
171
     0
290
     0
174
     0
 93
        1
 44
50.0
173
     0
291
     1
 45
0.0
1001
ACAD
1000
AcDbSavedByObjectVersion
1070
     0
  0
VISUALSTYLE
  5
2DB0E
102
{ACAD_XDICTIONARY
360
34584
102
}
102
{ACAD_REACTORS
330
2DAFE
102
}
330
2DAFE
100
AcDbVisualStyle
  2
ColorChange
 70
    16
 71
     2
 72
     2
 73
     3
 90
        0
 40
-0.6
 41
-30.0
 62
     5
 63
     8
421
  8421504
 74
     1
 91
        4
 64
     7
 65
   257
 75
     1
175
     1
 42
1.0
 92
        8
 66
     8
424
  8421504
 43
1.0
 76
     1
 77
     6
 78
     2
 67
     7
 79
     5
170
     0
171
     0
290
     0
174
     0
 93
        1
 44
0.0
173
     0
291
     1
 45
0.0
1001
ACAD
1000
AcDbSavedByObjectVersion
1070
     0
  0
VISUALSTYLE
  5
2DB07
102
{ACAD_XDICTIONARY
360
34576
102
}
102
{ACAD_REACTORS
330
2DAFE
102
}
330
2DAFE
100
AcDbVisualStyle
  2
Conceptual
 70
     9
 71
     3
 72
     2
 73
     0
 90
        0
 40
-0.6
 41
-30.0
 62
     5
 63
     7
421
 16777215
 74
     2
 91
        2
 64
     7
 65
   257
 75
     1
175
     1
 42
179.0
 92
        8
 66
     7
 43
1.0
 76
     1
 77
     6
 78
     2
 67
     7
 79
     3
170
     0
171
     0
290
     0
174
     0
 93
        1
 44
0.0
173
     0
291
     0
 45
0.0
1001
ACAD
1000
AcDbSavedByObjectVersion
1070
     0
  0
VISUALSTYLE
  5
2DB09
102
{ACAD_XDICTIONARY
360
3457A
102
}
102
{ACAD_REACTORS
330
2DAFE
102
}
330
2DAFE
100
AcDbVisualStyle
  2
Dim
 70
    11
 71
     2
 72
     2
 73
     0
 90
        0
 40
-0.6
 41
-30.0
 62
     5
 63
     7
421
 16777215
 74
     1
 91
        4
 64
     7
 65
   257
 75
     1
175
     1
 42
1.0
 92
        8
 66
     7
 43
1.0
 76
     1
 77
     6
 78
     2
 67
     7
 79
     5
170
     0
171
     0
290
     0
174
     0
 93
        1
 44
-50.0
173
     0
291
     1
 45
0.0
1001
ACAD
1000
AcDbSavedByObjectVersion
1070
     0
  0
VISUALSTYLE
  5
2DB16
102
{ACAD_XDICTIONARY
360
34594
102
}
102
{ACAD_REACTORS
330
2DAFE
102
}
330
2DAFE
100
AcDbVisualStyle
  2
EdgeColorOff
 70
    22
 71
     2
 72
     2
 73
     0
 90
        0
 40
-0.6
 41
-30.0
 62
     5
 63
     7
421
 16777215
 74
     1
 91
        4
 64
     7
 65
   257
 75
     1
175
     1
 42
1.0
 92
        8
 66
     7
 43
1.0
 76
     1
 77
     6
 78
     2
 67
     7
 79
     5
170
     0
171
     0
290
     0
174
     0
 93
        1
 44
0.0
173
     0
291
     1
 45
0.0
1001
ACAD
1000
AcDbSavedByObjectVersion
1070
     0
  0
VISUALSTYLE
  5
2DB0D
102
{ACAD_XDICTIONARY
360
34582
102
}
102
{ACAD_REACTORS
330
2DAFE
102
}
330
2DAFE
100
AcDbVisualStyle
  2
Facepattern
 70
    15
 71
     2
 72
     2
 73
     0
 90
        0
 40
-0.6
 41
-30.0
 62
     5
 63
     7
421
 16777215
 74
     1
 91
        4
 64
     7
 65
   257
 75
     1
175
     1
 42
1.0
 92
        8
 66
     7
 43
1.0
 76
     1
 77
     6
 78
     2
 67
     7
 79
     5
170
     0
171
     0
290
     0
174
     0
 93
        1
 44
0.0
173
     0
291
     1
 45
0.0
1001
ACAD
1000
AcDbSavedByObjectVersion
1070
     0
  0
VISUALSTYLE
  5
2DAFF
102
{ACAD_XDICTIONARY
360
34566
102
}
102
{ACAD_REACTORS
330
2DAFE
102
}
330
2DAFE
100
AcDbVisualStyle
  2
Flat
 70
     0
 71
     2
 72
     1
 73
     1
 90
        2
 40
-0.6
 41
30.0
 62
     5
 63
     7
421
 16777215
 74
     0
 91
        0
 64
     7
 65
   257
 75
     1
175
     1
 42
1.0
 92
        8
 66
     7
 43
1.0
 76
     1
 77
     6
 78
     2
 67
     7
 79
     5
170
     0
171
     0
290
     0
174
     0
 93
       13
 44
0.0
173
     0
291
     1
 45
0.0
1001
ACAD
1000
AcDbSavedByObjectVersion
1070
     0
  0
VISUALSTYLE
  5
2DB00
102
{ACAD_XDICTIONARY
360
34568
102
}
102
{ACAD_REACTORS
330
2DAFE
102
}
330
2DAFE
100
AcDbVisualStyle
  2
FlatWithEdges
 70
     1
 71
     2
 72
     1
 73
     1
 90
        2
 40
-0.6
 41
30.0
 62
     5
 63
     7
421
 16777215
 74
     1
 91
        0
 64
     7
 65
   257
 75
     1
175
     1
 42
1.0
 92
        0
 66
   257
 43
1.0
 76
     1
 77
     6
 78
     2
 67
     7
 79
     5
170
     0
171
     0
290
     0
174
     0
 93
       13
 44
0.0
173
     0
291
     1
 45
0.0
1001
ACAD
1000
AcDbSavedByObjectVersion
1070
     0
  0
VISUALSTYLE
  5
2DB01
102
{ACAD_XDICTIONARY
360
3456A
102
}
102
{ACAD_REACTORS
330
2DAFE
102
}
330
2DAFE
100
AcDbVisualStyle
  2
Gouraud
 70
     2
 71
     2
 72
     2
 73
     1
 90
        2
 40
-0.6
 41
30.0
 62
     5
 63
     7
421
 16777215
 74
     0
 91
        0
 64
     7
 65
   257
 75
     1
175
     1
 42
1.0
 92
        0
 66
     7
 43
1.0
 76
     1
 77
     6
 78
     2
 67
     7
 79
     5
170
     0
171
     0
290
     0
174
     0
 93
       13
 44
0.0
173
     0
291
     1
 45
0.0
1001
ACAD
1000
AcDbSavedByObjectVersion
1070
     0
  0
VISUALSTYLE
  5
2DB02
102
{ACAD_XDICTIONARY
360
3456C
102
}
102
{ACAD_REACTORS
330
2DAFE
102
}
330
2DAFE
100
AcDbVisualStyle
  2
GouraudWithEdges
 70
     3
 71
     2
 72
     2
 73
     1
 90
        2
 40
-0.6
 41
30.0
 62
     5
 63
     7
421
 16777215
 74
     1
 91
        0
 64
     7
 65
   257
 75
     1
175
     1
 42
1.0
 92
        0
 66
   257
 43
1.0
 76
     1
 77
     6
 78
     2
 67
     7
 79
     5
170
     0
171
     0
290
     0
174
     0
 93
       13
 44
0.0
173
     0
291
     1
 45
0.0
1001
ACAD
1000
AcDbSavedByObjectVersion
1070
     0
  0
VISUALSTYLE
  5
2DB06
102
{ACAD_XDICTIONARY
360
34574
102
}
102
{ACAD_REACTORS
330
2DAFE
102
}
330
2DAFE
100
AcDbVisualStyle
  2
Hidden
 70
     6
 71
     1
 72
     2
 73
     2
 90
        0
 40
-0.6
 41
-30.0
 62
     5
 63
     7
421
 16777215
 74
     2
 91
        2
 64
     7
 65
   257
 75
     2
175
     1
 42
40.0
 92
        0
 66
   257
 43
1.0
 76
     1
 77
     6
 78
     2
 67
     7
 79
     3
170
     0
171
     0
290
     0
174
     0
 93
        1
 44
0.0
173
     0
291
     0
 45
0.0
1001
ACAD
1000
AcDbSavedByObjectVersion
1070
     0
  0
VISUALSTYLE
  5
2DB14
102
{ACAD_XDICTIONARY
360
34590
102
}
102
{ACAD_REACTORS
330
2DAFE
102
}
330
2DAFE
100
AcDbVisualStyle
  2
JitterOff
 70
    20
 71
     2
 72
     2
 73
     0
 90
        0
 40
-0.6
 41
-30.0
 62
     5
 63
     7
421
 16777215
 74
     1
 91
        4
 64
     7
 65
   257
 75
     1
175
     1
 42
1.0
 92
       10
 66
     7
 43
1.0
 76
     1
 77
     6
 78
     2
 67
     7
 79
     5
170
     0
171
     0
290
     0
174
     0
 93
        1
 44
0.0
173
     0
291
     1
 45
0.0
1001
ACAD
1000
AcDbSavedByObjectVersion
1070
     0
  0
VISUALSTYLE
  5
2DB0C
102
{ACAD_XDICTIONARY
360
34580
102
}
102
{ACAD_REACTORS
330
2DAFE
102
}
330
2DAFE
100
AcDbVisualStyle
  2
Linepattern
 70
    14
 71
     2
 72
     2
 73
     0
 90
        0
 40
-0.6
 41
-30.0
 62
     5
 63
     7
421
 16777215
 74
     1
 91
        4
 64
     7
 65
   257
 75
     7
175
     7
 42
1.0
 92
        8
 66
     7
 43
1.0
 76
     1
 77
     6
 78
     2
 67
     7
 79
     5
170
     0
171
     0
290
     0
174
     0
 93
        1
 44
0.0
173
     0
291
     1
 45
0.0
1001
ACAD
1000
AcDbSavedByObjectVersion
1070
     0
  0
VISUALSTYLE
  5
2DB15
102
{ACAD_XDICTIONARY
360
34592
102
}
102
{ACAD_REACTORS
330
2DAFE
102
}
330
2DAFE
100
AcDbVisualStyle
  2
OverhangOff
 70
    21
 71
     2
 72
     2
 73
     0
 90
        0
 40
-0.6
 41
-30.0
 62
     5
 63
     7
421
 16777215
 74
     1
 91
        4
 64
     7
 65
   257
 75
     1
175
     1
 42
1.0
 92
        9
 66
     7
 43
1.0
 76
     1
 77
     6
 78
     2
 67
     7
 79
     5
170
     0
171
     0
290
     0
174
     0
 93
        1
 44
0.0
173
     0
291
     1
 45
0.0
1001
ACAD
1000
AcDbSavedByObjectVersion
1070
     0
  0
VISUALSTYLE
  5
2DB08
102
{ACAD_XDICTIONARY
360
34578
102
}
102
{ACAD_REACTORS
330
2DAFE
102
}
330
2DAFE
100
AcDbVisualStyle
  2
Realistic
 70
     8
 71
     2
 72
     2
 73
     0
 90
        2
 40
-0.6
 41
30.0
 62
     5
 63
     7
421
 16777215
 74
     0
 91
        0
 64
     7
 65
   257
 75
     1
175
     1
 42
1.0
 92
        8
 66
   257
 43
1.0
 76
     1
 77
     6
 78
     2
 67
     7
 79
     3
170
     0
171
     0
290
     0
174
     0
 93
       13
 44
0.0
173
     0
291
     0
 45
0.0
1001
ACAD
1000
AcDbSavedByObjectVersion
1070
     0
  0
VISUALSTYLE
  5
2DB13
102
{ACAD_XDICTIONARY
360
3458E
102
}
102
{ACAD_REACTORS
330
2DAFE
102
}
330
2DAFE
100
AcDbVisualStyle
  2
Shaded
 70
    27
 71
     2
 72
     2
 73
     1
 90
        2
 40
-0.6
 41
30.0
 62
     5
 63
     7
421
 16777215
 74
     0
 91
        4
 64
     7
 65
   257
 75
     1
175
     1
 42
1.0
 92
        8
 66
   257
 43
1.0
 76
     1
 77
     6
 78
     2
 67
     8
425
  7895160
 79
     3
170
     0
171
     0
290
     0
174
     0
 93
        5
 44
0.0
173
     0
291
     0
 45
0.0
1001
ACAD
1000
AcDbSavedByObjectVersion
1070
     0
  0
VISUALSTYLE
  5
2DB12
102
{ACAD_XDICTIONARY
360
3458C
102
}
102
{ACAD_REACTORS
330
2DAFE
102
}
330
2DAFE
100
AcDbVisualStyle
  2
Shaded with edges
 70
    26
 71
     2
 72
     2
 73
     1
 90
        2
 40
-0.6
 41
30.0
 62
     5
 63
     7
421
 16777215
 74
     1
 91
       10
 64
     7
 65
   257
 75
     2
175
     1
 42
1.0
 92
        8
 66
   257
 43
1.0
 76
     1
 77
     6
 78
     2
 67
     7
 79
     3
170
     0
171
     0
290
     0
174
     0
 93
        5
 44
0.0
173
     0
291
     0
 45
0.0
1001
ACAD
1000
AcDbSavedByObjectVersion
1070
     0
  0
VISUALSTYLE
  5
2DB0F
102
{ACAD_XDICTIONARY
360
34586
102
}
102
{ACAD_REACTORS
330
2DAFE
102
}
330
2DAFE
100
AcDbVisualStyle
  2
Shades of Gray
 70
    23
 71
     2
 72
     2
 73
     3
 90
        0
 40
-0.6
 41
-30.0
 62
     5
 63
     7
421
 16777215
 74
     2
 91
        2
 64
     7
 65
     7
 75
     1
175
     1
 42
40.0
 92
        8
 66
     7
 43
1.0
 76
     1
 77
     6
 78
     2
 67
     7
 79
     3
170
     0
171
     0
290
     0
174
     0
 93
        1
 44
0.0
173
     0
291
     0
 45
0.0
1001
ACAD
1000
AcDbSavedByObjectVersion
1070
     0
  0
VISUALSTYLE
  5
2DB10
102
{ACAD_XDICTIONARY
360
34588
102
}
102
{ACAD_REACTORS
330
2DAFE
102
}
330
2DAFE
100
AcDbVisualStyle
  2
Sketchy
 70
    24
 71
     1
 72
     2
 73
     2
 90
        0
 40
-0.6
 41
-30.0
 62
     5
 63
     7
421
 16777215
 74
     2
 91
        2
 64
     7
 65
     7
 75
     1
175
     1
 42
40.0
 92
       11
 66
     7
 43
1.0
 76
     1
 77
     6
 78
     2
 67
     7
 79
     6
170
     0
171
     0
290
     0
174
     0
 93
        1
 44
0.0
173
     0
291
     0
 45
0.0
1001
ACAD
1000
AcDbSavedByObjectVersion
1070
     0
  0
VISUALSTYLE
  5
2DB0B
102
{ACAD_XDICTIONARY
360
3457E
102
}
102
{ACAD_REACTORS
330
2DAFE
102
}
330
2DAFE
100
AcDbVisualStyle
  2
Thicken
 70
    13
 71
     2
 72
     2
 73
     0
 90
        0
 40
-0.6
 41
-30.0
 62
     5
 63
     7
421
 16777215
 74
     1
 91
        4
 64
     7
 65
   257
 75
     1
175
     1
 42
1.0
 92
       12
 66
     7
 43
1.0
 76
     1
 77
     6
 78
     2
 67
     7
 79
     5
170
     0
171
     0
290
     0
174
     0
 93
        1
 44
0.0
173
     0
291
     1
 45
0.0
1001
ACAD
1000
AcDbSavedByObjectVersion
1070
     0
  0
VISUALSTYLE
  5
2DB05
102
{ACAD_XDICTIONARY
360
34572
102
}
102
{ACAD_REACTORS
330
2DAFE
102
}
330
2DAFE
100
AcDbVisualStyle
  2
Wireframe
 70
     5
 71
     0
 72
     2
 73
     0
 90
        0
 40
-0.6
 41
-30.0
 62
     5
 63
     7
421
 16777215
 74
     1
 91
        4
 64
     7
 65
   257
 75
     1
175
     1
 42
1.0
 92
        0
 66
   257
 43
1.0
 76
     1
 77
     6
 78
     2
 67
     7
 79
     3
170
     0
171
     0
290
     0
174
     0
 93
        1
 44
0.0
173
     0
291
     0
 45
0.0
1001
ACAD
1000
AcDbSavedByObjectVersion
1070
     0
  0
VISUALSTYLE
  5
2DB11
102
{ACAD_XDICTIONARY
360
3458A
102
}
102
{ACAD_REACTORS
330
2DAFE
102
}
330
2DAFE
100
AcDbVisualStyle
  2
X-Ray
 70
    25
 71
     2
 72
     2
 73
     1
 90
        1
 40
0.5
 41
-30.0
 62
     5
 63
     7
421
 16777215
 74
     1
 91
        0
 64
     7
 65
   257
 75
     1
175
     1
 42
1.0
 92
        8
 66
     7
 43
1.0
 76
     1
 77
     6
 78
     2
 67
     7
 79
     3
170
     0
171
     0
290
     0
174
     0
 93
       13
 44
0.0
173
     0
291
     0
 45
0.0
1001
ACAD
1000
AcDbSavedByObjectVersion
1070
     0
  0
DICTIONARYVAR
  5
2E5ED
102
{ACAD_REACTORS
330
443
102
}
330
443
100
DictionaryVariables
280
     0
  1
1:1
  0
DICTIONARYVAR
  5
2E5EA
102
{ACAD_REACTORS
330
443
102
}
330
443
100
DictionaryVariables
280
     0
  1
STANDARD
  0
DICTIONARYVAR
  5
2E5E9
102
{ACAD_REACTORS
330
443
102
}
330
443
100
DictionaryVariables
280
     0
  1
STANDARD
  0
DICTIONARYVAR
  5
2E5EB
102
{ACAD_REACTORS
330
443
102
}
330
443
100
DictionaryVariables
280
     0
  1
Metric50
  0
DICTIONARYVAR
  5
2E5EC
102
{ACAD_REACTORS
330
443
102
}
330
443
100
DictionaryVariables
280
     0
  1
Metric50
  0
DICTIONARYVAR
  5
444
102
{ACAD_REACTORS
330
443
102
}
330
443
100
DictionaryVariables
280
     0
  1
1
  0
DICTIONARYVAR
  5
445
102
{ACAD_REACTORS
330
443
102
}
330
443
100
DictionaryVariables
280
     0
  1

  0
DICTIONARYVAR
  5
34560
102
{ACAD_REACTORS
330
443
102
}
330
443
100
DictionaryVariables
280
     0
  1
2
  0
DICTIONARY
  5
3459B
330
2DB30
100
AcDbDictionary
280
     1
281
     1
  3
ACAD_XREC_ROUNDTRIP
360
3459C
  0
DICTIONARY
  5
2E531
330
A
100
AcDbDictionary
280
     1
281
     1
  3
ADSK_XREC_LAYOUTTHUMBNAIL
360
2E532
  0
DICTIONARY
  5
2DAF7
330
2DAF6
100
AcDbDictionary
280
     1
281
     1
  3
ACAD_XREC_ROUNDTRIP
360
34565
  3
BUMPTILE
360
2DAF9
  3
DIFFUSETILE
360
2DAF8
  3
OPACITYTILE
360
2DAFC
  3
REFLECTIONTILE
360
2DAFB
  3
REFRACTIONTILE
360
2DAFD
  3
SPECULARTILE
360
2DAFA
  0
DICTIONARY
  5
2DAEF
330
2DAEE
100
AcDbDictionary
280
     1
281
     1
  3
ACAD_XREC_ROUNDTRIP
360
34564
  3
BUMPTILE
360
2DAF1
  3
DIFFUSETILE
360
2DAF0
  3
OPACITYTILE
360
2DAF4
  3
REFLECTIONTILE
360
2DAF3
  3
REFRACTIONTILE
360
2DAF5
  3
SPECULARTILE
360
2DAF2
  0
DICTIONARY
  5
AF91
330
AF90
100
AcDbDictionary
280
     1
281
     1
  3
ACAD_XREC_ROUNDTRIP
360
34563
  3
BUMPTILE
360
AF93
  3
DIFFUSETILE
360
AF94
  3
OPACITYTILE
360
AF95
  3
REFLECTIONTILE
360
AF96
  3
REFRACTIONTILE
360
AF97
  3
SPECULARTILE
360
AF98
  0
DICTIONARY
  5
34597
330
2DB2C
100
AcDbDictionary
280
     1
281
     1
  3
ACAD_XREC_ROUNDTRIP
360
34598
  0
DICTIONARY
  5
34599
330
2DB2E
100
AcDbDictionary
280
     1
281
     1
  3
ACAD_XREC_ROUNDTRIP
360
3459A
  0
DICTIONARY
  5
2E526
330
2DB18
100
AcDbDictionary
280
     1
281
     1
  3
ACAD_ROUNDTRIP_2008_TABLESTYLE_CELLSTYLEMAP
360
34561
  3
ACAD_XREC_ROUNDTRIP
360
34596
  0
DICTIONARY
  5
34570
330
2DB04
100
AcDbDictionary
280
     1
281
     1
  3
ACAD_XREC_ROUNDTRIP
360
34571
  0
DICTIONARY
  5
3456E
330
2DB03
100
AcDbDictionary
280
     1
281
     1
  3
ACAD_XREC_ROUNDTRIP
360
3456F
  0
DICTIONARY
  5
3457C
330
2DB0A
100
AcDbDictionary
280
     1
281
     1
  3
ACAD_XREC_ROUNDTRIP
360
3457D
  0
DICTIONARY
  5
34584
330
2DB0E
100
AcDbDictionary
280
     1
281
     1
  3
ACAD_XREC_ROUNDTRIP
360
34585
  0
DICTIONARY
  5
34576
330
2DB07
100
AcDbDictionary
280
     1
281
     1
  3
ACAD_XREC_ROUNDTRIP
360
34577
  0
DICTIONARY
  5
3457A
330
2DB09
100
AcDbDictionary
280
     1
281
     1
  3
ACAD_XREC_ROUNDTRIP
360
3457B
  0
DICTIONARY
  5
34594
330
2DB16
100
AcDbDictionary
280
     1
281
     1
  3
ACAD_XREC_ROUNDTRIP
360
34595
  0
DICTIONARY
  5
34582
330
2DB0D
100
AcDbDictionary
280
     1
281
     1
  3
ACAD_XREC_ROUNDTRIP
360
34583
  0
DICTIONARY
  5
34566
330
2DAFF
100
AcDbDictionary
280
     1
281
     1
  3
ACAD_XREC_ROUNDTRIP
360
34567
  0
DICTIONARY
  5
34568
330
2DB00
100
AcDbDictionary
280
     1
281
     1
  3
ACAD_XREC_ROUNDTRIP
360
34569
  0
DICTIONARY
  5
3456A
330
2DB01
100
AcDbDictionary
280
     1
281
     1
  3
ACAD_XREC_ROUNDTRIP
360
3456B
  0
DICTIONARY
  5
3456C
330
2DB02
100
AcDbDictionary
280
     1
281
     1
  3
ACAD_XREC_ROUNDTRIP
360
3456D
  0
DICTIONARY
  5
34574
330
2DB06
100
AcDbDictionary
280
     1
281
     1
  3
ACAD_XREC_ROUNDTRIP
360
34575
  0
DICTIONARY
  5
34590
330
2DB14
100
AcDbDictionary
280
     1
281
     1
  3
ACAD_XREC_ROUNDTRIP
360
34591
  0
DICTIONARY
  5
34580
330
2DB0C
100
AcDbDictionary
280
     1
281
     1
  3
ACAD_XREC_ROUNDTRIP
360
34581
  0
DICTIONARY
  5
34592
330
2DB15
100
AcDbDictionary
280
     1
281
     1
  3
ACAD_XREC_ROUNDTRIP
360
34593
  0
DICTIONARY
  5
34578
330
2DB08
100
AcDbDictionary
280
     1
281
     1
  3
ACAD_XREC_ROUNDTRIP
360
34579
  0
DICTIONARY
  5
3458E
330
2DB13
100
AcDbDictionary
280
     1
281
     1
  3
ACAD_XREC_ROUNDTRIP
360
3458F
  0
DICTIONARY
  5
3458C
330
2DB12
100
AcDbDictionary
280
     1
281
     1
  3
ACAD_XREC_ROUNDTRIP
360
3458D
  0
DICTIONARY
  5
34586
330
2DB0F
100
AcDbDictionary
280
     1
281
     1
  3
ACAD_XREC_ROUNDTRIP
360
34587
  0
DICTIONARY
  5
34588
330
2DB10
100
AcDbDictionary
280
     1
281
     1
  3
ACAD_XREC_ROUNDTRIP
360
34589
  0
DICTIONARY
  5
3457E
330
2DB0B
100
AcDbDictionary
280
     1
281
     1
  3
ACAD_XREC_ROUNDTRIP
360
3457F
  0
DICTIONARY
  5
34572
330
2DB05
100
AcDbDictionary
280
     1
281
     1
  3
ACAD_XREC_ROUNDTRIP
360
34573
  0
DICTIONARY
  5
3458A
330
2DB11
100
AcDbDictionary
280
     1
281
     1
  3
ACAD_XREC_ROUNDTRIP
360
3458B
  0
XRECORD
  5
3459C
102
{ACAD_REACTORS
330
3459B
102
}
330
3459B
100
AcDbXrecord
280
     1
102
DISPLAYNAME
  1
Metric50
102
FLAGS
 90
        0
  0
XRECORD
  5
2E532
102
{ACAD_REACTORS
330
2E531
102
}
330
2E531
100
AcDbXrecord
280
     1
310
28000000000100007400000001000800000000000074000001000000010000000001000000000000000000FF000000FFFFFFFFFF000000FF000000FF000000FF000000FF000000FF000000FF000000FF000000FF330000FF660000FF990000FFCC0000FFFF0000FF003300FF333300FF663300FF993300FFCC3300FFFF3300
310
FF006600FF336600FF666600FF996600FFCC6600FFFF6600FF009900FF339900FF669900FF999900FFCC9900FFFF9900FF00CC00FF33CC00FF66CC00FF99CC00FFCCCC00FFFFCC00FF00FF00FF33FF00FF66FF00FF99FF00FFCCFF00FFFFFF00FF000033FF330033FF660033FF990033FFCC0033FFFF0033FF003333FF3333
310
33FF663333FF993333FFCC3333FFFF3333FF006633FF336633FF666633FF996633FFCC6633FFFF6633FF009933FF339933FF669933FF999933FFCC9933FFFF9933FF00CC33FF33CC33FF66CC33FF99CC33FFCCCC33FFFFCC33FF00FF33FF33FF33FF66FF33FF99FF33FFCCFF33FFFFFF33FF000066FF330066FF660066FF99
310
0066FFCC0066FFFF0066FF003366FF333366FF663366FF993366FFCC3366FFFF3366FF006666FF336666FF666666FF996666FFCC6666FFFF6666FF009966FF339966FF669966FF999966FFCC9966FFFF9966FF00CC66FF33CC66FF66CC66FF99CC66FFCCCC66FFFFCC66FF00FF66FF33FF66FF66FF66FF99FF66FFCCFF66FF
310
FFFF66FF000099FF330099FF660099FF990099FFCC0099FFFF0099FF003399FF333399FF663399FF993399FFCC3399FFFF3399FF006699FF336699FF666699FF996699FFCC6699FFFF6699FF009999FF339999FF669999FF999999FFCC9999FFFF9999FF00CC99FF33CC99FF66CC99FF99CC99FFCCCC99FFFFCC99FF00FF99
310
FF33FF99FF66FF99FF99FF99FFCCFF99FFFFFF99FF0000CCFF3300CCFF6600CCFF9900CCFFCC00CCFFFF00CCFF0033CCFF3333CCFF6633CCFF9933CCFFCC33CCFFFF33CCFF0066CCFF3366CCFF6666CCFF9966CCFFCC66CCFFFF66CCFF0099CCFF3399CCFF6699CCFF9999CCFFCC99CCFFFF99CCFF00CCCCFF33CCCCFF66CC
310
CCFF99CCCCFFCCCCCCFFFFCCCCFF00FFCCFF33FFCCFF66FFCCFF99FFCCFFCCFFCCFFFFFFCCFF0000FFFF3300FFFF6600FFFF9900FFFFCC00FFFFFF00FFFF0033FFFF3333FFFF6633FFFF9933FFFFCC33FFFFFF33FFFF0066FFFF3366FFFF6666FFFF9966FFFFCC66FFFFFF66FFFF0099FFFF3399FFFF6699FFFF9999FFFFCC
310
99FFFFFF99FFFF00CCFFFF33CCFFFF66CCFFFF99CCFFFFCCCCFFFFFFCCFFFF00FFFFFF33FFFFFF66FFFFFF99FFFFFFCCFFFFFFFFFFFFFF000000FF0D0D0DFF1A1A1AFF282828FF353535FF434343FF505050FF5D5D5DFF6B6B6BFF787878FF868686FF939393FFA1A1A1FFAEAEAEFFBBBBBBFFC9C9C9FFD6D6D6FFE4E4E4FF
310
F1F1F1FFFFFFFFFF000000FF000000FF000000FF000000FF000000FF000000FF000000FF000000FF000000FF0000000000000000000000000000000000000000000000000000000000000000000000000000000000000000000000000000000000000000000000000000000000000000000000000000000000000000000000
310
00000000000000000000000000000000000000000000000000000000000000000000000000000000000000000000000000000000000000000000000000000000000000000000000000000000000000000000000000000000000000000000000000000000000000000000000000000000000000000000000000000000000000
310
00000000000000000000000000000000000000000000000000000000000000000000000000000000000000000000000000000000000000000000000000000000000000000000000000000000000000000000000000000000000000000000000000000000000000000000000000000000000000000000000000000000000000
310
00000000000000000000000000000000000000000000000000000000000000000000000000000000000000000000000000000000000000000000000000000000000000000000000000000000000000000000000000000000000000000000000000000000000000000000000000000000000000000000000000000000000000
310
00000000000000000000000000000000000000000000000000000000000000000000000000000000000000000000000000000000000000000000000000000000000000000000000000000000000000000000000000000000000000000000000000000000000000000000000000000000000000000000000000000000000000
310
00000000000000000000000000000000000000000000000000000000000000000000000000000000000000000000000000000000000000000000000000000000000000000000000000000000000000000000000000000000000000000000000000000000000000000000000000000000000000000000000000000000000000
310
00000000000000000000000000000000000000000000000000000000000000000000000000000000000000000000000000000000000000000000000000000000000000000000000000000000000000000000000000000000000000000000000000000000000000000000000000000000000000000000000000000000000000
310
00000000000000000000000000000000000000000000000000000000000000000000000000000000000000000000000000000000000000000000000000000000000000000000000000000000000000000000000000000000000000000000000000000000000000000000000000000000000000000000000000000000000000
310
00000000000000000000000000000000000000000000000000000000000000000000000000000000000000000000000000000000000000000000000000000000000000000000000000000000000000000000000000000000000000000000000000000000000000000000000000000000000000000000000000000000000000
310
00000000000000000000000000000000000000000000000000000000000000000000000000000000000000000000000000000000000000000000000000000000000000000000000000000000000000000000000000000000000000000000000000000000000000000000000000000000000000000000000000000000000000
310
00000000000000000000000000000000000000000000000000000000000000000000000000000000000000000000000000000000000000000000000000000000000000000000000000000000000000000000000000000000000000000000000000000000000000000000000000000000000000000000000000000000000000
310
00000000000000000000000000000000000000000000000000000000000000000000000000000000000000000000000000000000000000000000000000000000000000000000000000000000000000000000000000000000000000000000000000000000000000000000000000000000000000000000000000000000000000
310
00000000000000000000000000000000000000000000000000000000000000000000000000000000000000000000000000000000000000000000000000000000000000000000000000000000000000000000000000000000000000000000000000000000000000000000000000000000000000000000000000000000000000
310
00000000000000000000000000000000000000000000000000000000000000000000000000000000000000000000000000000000000000000000000000000000000000000000000000000000000000000000000000000000000000000000000000000000000000000000000000000000000000000000000000000000000000
310
00000000000000000000000000000000000000000000000000000000000000000000000000000000000000000000000000000000000000000000000000000000000000000000000000000000000000000000000000000000000000000000000000000000000000000000000000000000000000000000000000000000000000
310
00000000000000000000000000000000000000000000000000000000000000000000000000000000000000000000000000000000000000000000000000000000000000000000000000000000000000000000000000000000000000000000000000000000000000000000000000000000000000000000000000000000000000
310
00000000000000000000000000000000000000000000000000000000000000000000000000000000000000000000000000000000000000000000000000000000000000000000000000000000000000000000000000000000000000000000000000000000000000000000000000000000000000000000000000000000000000
310
00000000000000000000000000000000000000000000000000000000000000000000000000000000000000000000000000000000000000000000000000000000000000000000000000000000000000000000000000000000000000000000000000000000000000000000000000000000000000000000000000000000000000
310
00000000000000000000000000000000000000000000000000000000000000000000000000000000000000000000000000000000000000000000000000000000000000000000000000000000000000000000000000000000000000000000000000000000000000000000000000000000000000000000000000000000000000
310
00000000000000000000000000000000000000000000000000000000000000000000000000000000000000000000000000000000000000000000000000000000000000000000000000000000000000000000000000000000000000000000000000000000000000000000000000000000000000000000000000000000000000
310
00000000000000000000000000000000000000000000000000000000000000000000000000000000000000000000000000000000000000000000000000000000000000000000000000000000000000000000000000000000000000000000000000000000000000000000000000000000000000000000000000000000000000
310
00000000000000000000000000000000000000000000000000000000000000000000000000000000000000000000000000000000000000000000000000000000000000000000000000000000000000000000000000000000000000000000000000000000000000000000000000000000000000000000000000000000000000
310
00000000000000000000000000000000000000000000000000000000000000000000000000000000000000000000000000000000000000000000000000000000000000000000000000000000000000000000000000000000000000000000000000000000000000000000000000000000000000000000000000000000000000
310
00000000000000000000000000000000000000000000000000000000000000000000000000000000000000000000000000000000000000000000000000000000000000000000000000000000000000000000000000000000000000000000000000000000000000000000000000000000000000000000000000000000000000
310
00000000000000000000000000000000000000000000000000000000000000000000000000000000000000000000000000000000000000000000000000000000000000000000000000000000000000000000000000000000000000000000000000000000000000000000000000000000000000000000000000000000000000
310
00000000000000000000000000000000000000000000000000000000000000000000000000000000000000000000000000000000000000000000000000000000000000000000000000000000000000000000000000000000000000000000000000000000000000000000000000000000000000000000000000000000000000
310
00000000000000000000000000000000000000000000000000000000000000000000000000000000000000000000000000000000000000000000000000000000000000000000000000000000000000000000000000000000000000000000000000000000000000000000000000000000000000000000000000000000000000
310
00000000000000000000000000000000000000000000000000000000000000000000000000000000000000000000000000000000000000000000000000000000000000000000000000000000000000000000000000000000000000000000000000000000000000000000000000000000000000000000000000000000000000
310
00000000000000000000000000000000000000000000000000000000000000000000000000000000000000000000000000000000000000000000000000000000000000000000000000000000000000000000000000000000000000000000000000000000000000000000000000000000000000000000000000000000000000
310
00000000000000000000000000000000000000000000000000000000000000000000000000000000000000000000000000000000000000000000000000000000000000000000000000000000000000000000000000000000000000000000000000000000000000000000000000000000000000000000000000000000000000
310
00000000000000000000000000000000000000000000000000000000000000000000000000000000000000000000000000000000000000000000000000000000000000000000000000000000000000000000000000000000000000000000000000000000000000000000000000000000000000000000000000000000000000
310
00000000000000000000000000000000000000000000000000000000000000000000000000000000000000000000000000000000000000000000000000000000000000000000000000000000000000000000000000000000000000000000000000000000000000000000000000000000000000000000000000000000000000
310
00000000000000000000000000000000000000000000000000000000000000000000000000000000000000000000000000000000000000000000000000000000000000000000000000000000000000000000000000000000000000000000000000000000000000000000000000000000000000000000000000000000000000
310
00000000000000000000000000000000000000000000000000000000000000000000000000000000000000000000000000000000000000000000000000000000000000000000000000000000000000000000000000000000000000000000000000000000000000000000000000000000000000000000000000000000000000
310
00000000000000000000000000000000000000000000000000000000000000000000000000000000000000000000000000000000000000000000000000000000000000000000000000000000000000000000000000000000000000000000000000000000000000000000000000000000000000000000000000000000000000
310
00000000000000000000000000000000000000000000000000000000000000000000000000000000000000000000000000000000000000000000000000000000000000000000000000000000000000000000000000000000000000000000000000000000000000000000000000000000000000000000000000000000000000
310
00000000000000000000000000000000000000000000000000000000000000000000000000000000000000000000000000000000000000000000000000000000000000000000000000000000000000000000000000000000000000000000000000000000000000000000000000000000000000000000000000000000000000
310
00000000000000000000000000000000000000000000000000000000000000000000000000000000000000000000000000000000000000000000000000000000000000000000000000000000000000000000000000000000000000000000000000000000000000000000000000000000000000000000000000000000000000
310
00000000000000000000000000000000000000000000000000000000000000000000000000000000000000000000000000000000000000000000000000000000000000000000000000000000000000000000000000000000000000000000000000000000000000000000000000000000000000000000000000000000000000
310
00000000000000000000000000000000000000000000000000000000000000000000000000000000000000000000000000000000000000000000000000000000000000000000000000000000000000000000000000000000000000000000000000000000000000000000000000000000000000000000000000000000000000
310
00000000000000000000000000000000000000000000000000000000000000000000000000000000000000000000000000000000000000000000000000000000000000000000000000000000000000000000000000000000000000000000000000000000000000000000000000000000000000000000000000000000000000
310
00000000000000000000000000000000000000000000000000000000000000000000000000000000000000000000000000000000000000000000000000000000000000000000000000000000000000000000000000000000000000000000000000000000000000000000000000000000000000000000000000000000000000
310
00000000000000000000000000000000000000000000000000000000000000000000000000000000000000000000000000000000000000000000000000000000000000000000000000000000000000000000000000000000000000000000000000000000000000000000000000000000000000000000000000000000000000
310
00000000000000000000000000000000000000000000000000000000000000000000000000000000000000000000000000000000000000000000000000000000000000000000000000000000000000000000000000000000000000000000000000000000000000000000000000000000000000000000000000000000000000
310
00000000000000000000000000000000000000000000000000000000000000000000000000000000000000000000000000000000000000000000000000000000000000000000000000000000000000000000000000000000000000000000000000000000000000000000000000000000000000000000000000000000000000
310
00000000000000000000000000000000000000000000000000000000000000000000000000000000000000000000000000000000000000000000000000000000000000000000000000000000000000000000000000000000000000000000000000000000000000000000000000000000000000000000000000000000000000
310
00000000000000000000000000000000000000000000000000000000000000000000000000000000000000000000000000000000000000000000000000000000000000000000000000000000000000000000000000000000000000000000000000000000000000000000000000000000000000000000000000000000000000
310
00000000000000000000000000000000000000000000000000000000000000000000000000000000000000000000000000000000000000000000000000000000000000000000000000000000000000000000000000000000000000000000000000000000000000000000000000000000000000000000000000000000000000
310
00000000000000000000000000000000000000000000000000000000000000000000000000000000000000000000000000000000000000000000000000000000000000000000000000000000000000000000000000000000000000000000000000000000000000000000000000000000000000000000000000000000000000
310
00000000000000000000000000000000000000000000000000000000000000000000000000000000000000000000000000000000000000000000000000000000000000000000000000000000000000000000000000000000000000000000000000000000000000000000000000000000000000000000000000000000000000
310
00000000000000000000000000000000000000000000000000000000000000000000000000000000000000000000000000000000000000000000000000000000000000000000000000000000000000000000000000000000000000000000000000000000000000000000000000000000000000000000000000000000000000
310
00000000000000000000000000000000000000000000000000000000000000000000000000000000000000000000000000000000000000000000000000000000000000000000000000000000000000000000000000000000000000000000000000000000000000000000000000000000000000000000000000000000000000
310
00000000000000000000000000000000000000000000000000000000000000000000000000000000000000000000000000000000000000000000000000000000000000000000000000000000000000000000000000000000000000000000000000000000000000000000000000000000000000000000000000000000000000
310
00000000000000000000000000000000000000000000000000000000000000000000000000000000000000000000000000000000000000000000000000000000000000000000000000000000000000000000000000000000000000000000000000000000000000000000000000000000000000000000000000000000000000
310
00000000000000000000000000000000000000000000000000000000000000000000000000000000000000000000000000000000000000000000000000000000000000000000000000000000000000000000000000000000000000000000000000000000000000000000000000000000000000000000000000000000000000
310
00000000000000000000000000000000000000000000000000000000000000000000000000000000000000000000000000000000000000000000000000000000000000000000000000000000000000000000000000000000000000000000000000000000000000000000000000000000000000000000000000000000000000
310
00000000000000000000000000000000000000000000000000000000000000000000000000000000000000000000000000000000000000000000000000000000000000000000000000000000000000000000000000000000000000000000000000000000000000000000000000000000000000000000000000000000000000
310
00000000000000000000000000000000000000000000000000000000000000000000000000000000000000000000000000000000000000000000000000000000000000000000000000000000000000000000000000000000000000000000000000000000000000000000000000000000000000000000000000000000000000
310
00000000000000000000000000000000000000000000000000000000000000000000000000000000000000000000000000000000000000000000000000000000000000000000000000000000000000000000000000000000000000000000000000000000000000000000000000000000000000000000000000000000000000
310
00000000000000000000000000000000000000000000000000000000000000000000000000000000000000000000000000000000000000000000000000000000000000000000000000000000000000000000000000000000000000000000000000000000000000000000000000000000000000000000000000000000000000
310
00000000000000000000000000000000000000000000000000000000000000000000000000000000000000000000000000000000000000000000000000000000000000000000000000000000000000000000000000000000000000000000000000000000000000000000000000000000000000000000000000000000000000
310
00000000000000000000000000000000000000000000000000000000000000000000000000000000000000000000000000000000000000000000000000000000000000000000000000000000000000000000000000000000000000000000000000000000000000000000000000000000000000000000000000000000000000
310
00000000000000000000000000000000000000000000000000000000000000000000000000000000000000000000000000000000000000000000000000000000000000000000000000000000000000000000000000000000000000000000000000000000000000000000000000000000000000000000000000000000000000
310
00000000000000000000000000000000000000000000000000000000000000000000000000000000000000000000000000000000000000000000000000000000000000000000000000000000000000000000000000000000000000000000000000000000000000000000000000000000000000000000000000000000000000
310
00000000000000000000000000000000000000000000000000000000000000000000000000000000000000000000000000000000000000000000000000000000000000000000000000000000000000000000000000000000000000000000000000000000000000000000000000000000000000000000000000000000000000
310
00000000000000000000000000000000000000000000000000000000000000000000000000000000000000000000000000000000000000000000000000000000000000000000000000000000000000000000000000000000000000000000000000000000000000000000000000000000000000000000000000000000000000
310
00000000000000000000000000000000000000000000000000000000000000000000000000000000000000000000000000000000000000000000000000000000000000000000000000000000000000000000000000000000000000000000000000000000000000000000000000000000000000000000000000000000000000
310
00000000000000000000000000000000000000000000000000000000000000000000000000000000000000000000000000000000000000000000000000000000000000000000000000000000000000000000000000000000000000000000000000000000000000000000000000000000000000000000000000000000000000
310
00000000000000000000000000000000000000000000000000000000000000000000000000000000000000000000000000000000000000000000000000000000000000000000000000000000000000000000000000000000000000000000000000000000000000000000000000000000000000000000000000000000000000
310
00000000000000000000000000000000000000000000000000000000000000000000000000000000000000000000000000000000000000000000000000000000000000000000000000000000000000000000000000000000000000000000000000000000000000000000000000000000000000000000000000000000000000
310
00000000000000000000000000000000000000000000000000000000000000000000000000000000000000000000000000000000000000000000000000000000000000000000000000000000000000000000000000000000000000000000000000000000000000000000000000000000000000000000000000000000000000
310
00000000000000000000000000000000000000000000000000000000000000000000000000000000000000000000000000000000000000000000000000000000000000000000000000000000000000000000000000000000000000000000000000000000000000000000000000000000000000000000000000000000000000
310
00000000000000000000000000000000000000000000000000000000000000000000000000000000000000000000000000000000000000000000000000000000000000000000000000000000000000000000000000000000000000000000000000000000000000000000000000000000000000000000000000000000000000
310
00000000000000000000000000000000000000000000000000000000000000000000000000000000000000000000000000000000000000000000000000000000000000000000000000000000000000000000000000000000000000000000000000000000000000000000000000000000000000000000000000000000000000
310
00000000000000000000000000000000000000000000000000000000000000000000000000000000000000000000000000000000000000000000000000000000000000000000000000000000000000000000000000000000000000000000000000000000000000000000000000000000000000000000000000000000000000
310
00000000000000000000000000000000000000000000000000000000000000000000000000000000000000000000000000000000000000000000000000000000000000000000000000000000000000000000000000000000000000000000000000000000000000000000000000000000000000000000000000000000000000
310
00000000000000000000000000000000000000000000000000000000000000000000000000000000000000000000000000000000000000000000000000000000000000000000000000000000000000000000000000000000000000000000000000000000000000000000000000000000000000000000000000000000000000
310
00000000000000000000000000000000000000000000000000000000000000000000000000000000000000000000000000000000000000000000000000000000000000000000000000000000000000000000000000000000000000000000000000000000000000000000000000000000000000000000000000000000000000
310
00000000000000000000000000000000000000000000000000000000000000000000000000000000000000000000000000000000000000000000000000000000000000000000000000000000000000000000000000000000000000000000000000000000000000000000000000000000000000000000000000000000000000
310
00000000000000000000000000000000000000000000000000000000000000000000000000000000000000000000000000000000000000000000000000000000000000000000000000000000000000000000000000000000000000000000000000000000000000000000000000000000000000000000000000000000000000
310
00000000000000000000000000000000000000000000000000000000000000000000000000000000000000000000000000000000000000000000000000000000000000000000000000000000000000000000000000000000000000000000000000000000000000000000000000000000000000000000000000000000000000
310
00000000000000000000000000000000000000000000000000000000000000000000000000000000000000000000000000000000000000000000000000000000000000000000000000000000000000000000000000000000000000000000000000000000000000000000000000000000000000000000000000000000000000
310
00000000000000000000000000000000000000000000000000000000000000000000000000000000000000000000000000000000000000000000000000000000000000000000000000000000000000000000000000000000000000000000000000000000000000000000000000000000000000000000000000000000000000
310
00000000000000000000000000000000000000000000000000000000000000000000000000000000000000000000000000000000000000000000000000000000000000000000000000000000000000000000000000000000000000000000000000000000000000000000000000000000000000000000000000000000000000
310
0000000000000000000000F5F5F5F5F5F5F5F5F5F5F5F5F5F5F5F5F5F5F5F5F5F5F5F5F5F5F5F5F5F5F5F5F5F5F5F5F5F5F5F5F5F5F5F5F5F50000000000F5F5F5F5F5F5F5F5F5F5F5F5F5F5F5F5F5F5F5F5F5F5F5F5F5F5F5F5F5F5F5F5F5F5F5F5F5F5F5F5F5F5F5F5F5F500000000F5F5F5F5F5F5F5F5F5F5F5F5F5F5F5
310
F5F5F5F5F50000000000000000000000000000000000000000000000000000000000000000000000000000000000000000000000000000000000000000000000000000000000000000000000000000000000000000000000000000000000000000000000000000000000000000000000000000000000000000000000000000
310
00000000000000000000000000F50000000000000000000000000000000000000000000000000000000000000000000000000000000000000000F50000000000F50000000000000000000000000000000000000000000000000000000000000000000000000000000000000000F500000000F5000000000000000000000000
310
00000000000000000000000000000000000000000000000000000000000000000000000000000000000000000000000000000000000000000000000000000000000000000000000000000000000000000000000000000000000000000000000000000000000000000000000000000000000000000000000000000000000000
310
000000000000000000000000000000F50000000000000000000000000000000000000000000000000000000000000000000000000000000000000000F50000000000F50000000000000000000000000000000000000000000000000000000000000000000000000000000000000000F500000000F500000000000000000000
310
00000000000000000000000000000000000000000000000000000000000000000000000000000000000000000000000000000000000000000000000000000000000000000000000000000000000000000000000000000000000000000000000000000000000000000000000000000000000000000000000000000000000000
310
0000000000000000000000000000000000F50000000000000000000000000000000000000000000000000000000000000000000000000000000000000000F50000000000F50000000000000000000000000000000000000000000000000000000000000000000000000000000000000000F500000000F50000000000000000
310
00000000000000000000000000000000000000000000000000000000000000000000000000000000000000000000000000000000000000000000000000000000000000000000000000000000000000000000000000000000000000000000000000000000000000000000000000000000000000000000000000000000000000
310
0000000000000000F5F5F5F5F5F5F5F5F5F500F50000000000000000000000000000000000000000000000000000000000000000000000000000000000000000F50000000000F50000000000000000000000000000000000000000000000000000000000000000000000000000000000000000F500000000F5000000000000
310
00000000000000000000000000000000000000000000000000000000000000000000000000000000000000000000000000000000000000000000000000000000000000000000000000000000000000000000000000000000000000000000000000000000000000000000000000000000000000000000000000000000000000
310
00000000000000000000F5002D282828282800F500F500000000000028BE2828282828282828282828282828282828282828282828282828BE280000000000000000F50000000000F5000000000000BE28282828282828282828282828282828282828282828282828282828000000000000000000F500000000F500000000
310
000000BE282828282828282828282800000000000000000000000000000000000000000000000000000000000000000000000000000000000000000000000000000000000000000000000000000000000000000000000000000000000000000000000000000000000000000000000000000000000000000000000000000000
310
000000000000000000000000F50028282828282800F500F50000000000002828000000000000000000000000000000000000000000000000000028280000000000000000F50000000000F5000000000000282D00000000000000000000000000000000000000000000000000002D000000000000000000F500000000F50000
310
000000002D2800000000000000000000000000000000000000000000000000000000000000000000000000000000000000000000000000000000000000000000000000000000000000000000000000000000000000000000000000000000000000000000000000000000000000000000000000000000000000000000000000
310
0000000000000000000000000000F5002D280000000000F500F500000000000000282D2D2D2D2D2D2D2D2D2D2D2D2D282D2D2D2D2D2D2D2D2D2D2D2D2D2D0000000000000000F50000000000F50000000000000028282D2D2D2D2D2D2D2D2D2D2D2D282D2D2D2D2D2D2D2D2D2D2D2D2D000000000000000000F500000000F5
310
00000000000000282D2D2D2D2D2D2D2D2D2D2D000000000000000000000000000000000000000000000000000000000000000000000000000000000000000000000000000000000000000000000000000000000000000000000000000000000000000000000000000000000000000000000000000000000000000000000000
310
00000000000000000000000000000000F5F5F5F5F5F5F5F5F5F500F5000000002D28282D282828282828282828282828BE28282828282828282828282828BE282828280000000000F50000000000F5000000002D28BEBEBEBEBEBEBEBEBEBEBEBEBEBEBEBEBEBEBEBEBEBEBEBEBEBEBEBEBE282D28280000000000F5000000
310
00F5000000002D282D2828282D282828282828282800000000000000000000000000000000000000000000000000000000000000000000000000000000000000000000000000000000000000000000000000000000000000000000000000000000000000000000000000000000000000000000000000000000000000000000
310
0000000000000000000000000000000000000000000000000000000000F500000000002D282D282D00000000000000000000000000000000000000000000000028282800BE0000000000F50000000000F5000000002D2DBE28282800000000000000000000000000000000000000000000000028282D00BE0000000000F500
310
000000F500000000002D002D282D2D00000000000000000000000000000000000000000000000000000000000000000000000000000000000000000000000000000000000000000000000000000000000000000000000000000000000000000000000000000000000000000000000000000000000000000000000000000000
310
00000000000000000000000000000000000000000000000000000000000000F500000000002D282D002D00000000000000000000000000000000000000000000000028282D00BE0000000000F50000000000F5000000002D2DBE2D002D00000000000000000000000000000000000000000000000028282D00BE0000000000
310
F500000000F500000000002D002D002D000000000000000000000000000000000000000000000000000000000000000000000000000000000000000000000000000000000000000000000000000000000000000000000000000000000000000000000000000000000000000000000000000000000000000000000000000000
310
000000000000000000000000000000000000000000000000000000000000000000F500000000002D282D002D00000000000000000000000000000000000000000000000028BE2D00280000000000F50000000000F500000000282DBE2D002D000000000000000000000000000000000000000000000000282D000028000000
310
0000F500000000F500000000002D002D002D00000000000000000000000000000000000000000000000000000000000000000000000000000000000000000000000000000000000000000000000000000000000000000000000000000000000000000000000000000000000000000000000000000000000000000000000000
310
00000000000000000000000000000000000000000000000000000000F5F5F5F5F50000F500000000002D282D002D00000000000000000000000000000000000000000000000028BE2D00280000000000F50000000000F5000000002D2DBE2D002D000000000000000000000000000000000000000000000000282D00002800
310
00000000F500000000F500000000002D002D002D0000000000000000000000000000000000000000000000000000000000000000000000000000000000000000000000000000000000000000000000000000000000000000000000000000000000000000000000000000000000000000000000000000000000000000000000
310
000000000000000000000000000000000000000000000000000000000000F5000000F50000F500000000282D2D28282800000000000000000000000000000000000000000000000028282800280000000000F50000000000F5000000002D2DBE2D002D000000000000000000000000000000000000000000000000282D0000
310
280000000000F500000000F500000000002D002D002D000000000000000000000000000000000000000000000000000000000000000000000000000000000000000000000000000000000000000000000000000000000000000000000000000000000000000000000000000000000000000000000000000000000000000000
310
00000000000000000000000000000000000000000000C3C3C300000000000000F5282800F50000F500000000282D2828282800000000000000000000000000000000000000000000000028BE2800280000000000F50000000000F5000000002D28BE2828280000000000000000000000000000000000000000000000002828
310
0000280000000000F500000000F5000000002828002D2D2800000000000000000000000000000000000000000000000000000000000000000000000000000000000000000000000000000000000000000000000000000000000000000000000000000000000000000000000000000000000000000000000000000000000000
310
00000000000000000000000000000000000000C328280000C3C3C3C300C300000000F5F5F5F5F50000F500000000002D2828002D00000000000000000000000000000000000000000000000028BE2D00280000000000F50000000000F5000000002D2DBE282D2D000000000000000000000000000000000000000000000000
310
282D0000280000000000F500000000F50000000028282D2828280000000000000000000000000000000000000000000000000000000000000000000000000000000000000000000000000000000000000000000000000000000000000000000000000000000000000000000000000000000000000000000000000000000000
310
0000000000000000000000000000000000000000C30F0FC30000C30FBEC300C30000000000000000000000F500000000002D2828002D0000000000000000000000000000000000000000000000002D282D00280000000000F50000000000F5000000002D2DBE00002D00000000000000000000000000000000000000000000
310
0000282D0000280000000000F500000000F500000000002D0028282D000000000000000000000000000000000000000000000000000000000000000000000000000000000000000000000000000000000000000000000000000000000000000000000000000000000000000000000000000000000000000000000000000000
310
00000000000000000000000000000000000000000000000F0F280000C300000000000000000000000000000000F500000000002D2828002D00000000000000000000000000000000000000000000000028282D00280000000000F50000000000F500000000282DBE00002D0000000000000000000000000000000000000000
310
00000000282D0000280000000000F500000000F500000000002D0028002D00000000000000000000000000000000000000000000000000000000000000000000000000000000000000000000000000000000000000000000000000000000000000000000000000000000000000000000000000000000000000000000000000
310
0000000000000000000000000000000000000000000000000000000000000000000000000000000000000000000000F5000000002D2D2D28282D28282828282828282828BE28282828282828282828282828BE282D28280000000000F50000000000F5000000002D2DBE00002D000000000000000000000000000000000000
310
00000000000028282D00280000000000F500000000F500000000002D0028002D0000000000000000000000000000000000000000000000000000000000000000000000000000000000000000000000000000000000000000000000000000000000000000000000000000000000000000000000000000000000000000000000
310
00000000000000000000000000000000000000000000000000000000000000000000000000000000000000000000000000F5000000002D2D282D2D28BEBEBEBEBEBEBEBEBEBEBE28BEBEBEBEBEBEBEBEBEBEBEBE28282D28280000000000F50000000000F5000000002D2DBE28282800000000000000000000002D28000000
310
000000000000000028282D2D280000000000F500000000F500000000002D0028002D000000000000000000000000000000000000000000000000000000000000000000000000000000000000000000000000000000000000000000000000000000000000000000000000000000000000000000000000000000000000000000
310
000000000000000000000000000000000000000000000000000000000000000000000000000000000000000000000000000000F50000000000002D2D2D2D2D2D2D2D2D2D2D2D2D2D28282D2D2D2D2D2D2D2D2D2D2D2D2D280000282800000000F50000000000F5000000002D28282828282828282828282828282828282828
310
2828282828282828282828282D28280000000000F500000000F500000000002D0028282D2D000000000000000000000000000000000000000000000000000000000000000000000000000000000000000000000000000000000000000000000000000000000000000000000000000000000000000000000000000000000000
310
0000000000000000000000000000000000000000000000000000000000000000000000000000000000000000000000000000000000F50000000000000000000000000000000000000000000000000000000000000000000000000000000000000000F50000000000F5000000000000282D2D2D2D2D2D282D2D2D2D2D2D282D
310
2D2D2D2D2D282D2D2D2D2D2D28000000280000000000F500000000F5000000002D2D2D2828282D28282828282828280000000000000000000000000000000000000000000000000000000000000000000000000000000000000000000000000000000000000000000000000000000000000000000000000000000000000000
310
00000000000000000000000000000000000000000000000000000000000000000000000000000000000000000000000000000000000000F50000000000000000000000000000000000000000000000000000000000000000000000000000000000000000F50000000000F50000000000002D00000000000000000000000000
310
28000000000000000000000000002D000000280000000000F500000000F50000000000002D2D2D2D2D2D2D28282D2D2D2D000000000000000000000000000000000000000000000000000000000000000000000000000000000000000000000000000000000000000000000000000000000000000000000000000000000000
310
000000000000000000000000000000000000000000000000000000000000000000000000000000000000000000000000000000000000000000F50000000000000000000000000000000000000000000000000000000000000000000000000000000000000000F50000000000F5000000000000000000000000000000000000
310
0000000000000000000000000000000000000000000000000000F500000000F5000000000000002D2D2D2D2D2D2D2D2D2D2D2D00000000000000000000000000000000000000000000000000000000000000000000000000000000000000000000000000000000000000000000000000000000000000000000000000000000
310
0000000000000000000000000000000000000000000000000000000000000000000000000000000000000000000000000000000000000000000000F50000000000000000000000000000000000000000000000000000000000000000000000000000000000000000F50000000000F500000000000000000000000000000000
310
00000000000000000000000000000000000000000000000000000000F500000000F5000000000000000000000000000000000000000000000000000000000000000000000000000000000000000000000000000000000000000000000000000000000000000000000000000000000000000000000000000000000000000000
310
00000000000000000000000000000000000000000000000000000000000000000000000000000000000000000000000000000000000000000000000000F50000000000000000000000000000000000000000000000000000000000000000000000000000000000000000F50000000000F50000000000000000000000000000
310
000000000000000000000000000000000000000000000000000000000000F500000000F500000000000000000000000000000000000000000000000000000000000000000000000000000000000000000000000000000000000000000000000000000000000000000000000000000000000000000000000000000000000000
310
000000000000000000000000000000000000000000000000000000000000000000000000000000000000000000000000000000000000000000000000000000F50000000000000000000000000000000000000000000000000000000000000000000000000000000000000000F50000000000F5000000000000000000000000
310
0000000000000000000000000000000000000000000000000000000000000000F500000000F50000000000000000000000000000000000000000000000000000000000000000000000000000000000000000000000000000000000000000000000000000000000000000000000000000000000000000000000000000000000
310
0000000000000000000000000000000000000000000000000000000000000000000000000000000000000000000000000000000000000000000000000000000000F5F5F5F5F5F5F5F5F5F5F5F5F5F5F5F5F5F5F5F5F5F5F5F5F5F5F5F5F5F5F5F5F5F5F5F5F5F5F5F5F5F5F5F5F5F50000000000F5F5F5F5F5F5F5F5F5F5F5
310
F5F5F5F5F5F5F5F5F5F5F5F5F5F5F5F5F5F5F5F5F5F5F5F5F5F5F5F5F5F5F5F5F5F5F500000000F5F5F5F5F5F5F5F5F5F5F5F5F5F5F5F5F5F5F5F50000000000000000000000000000000000000000000000000000000000000000000000000000000000000000000000000000000000000000000000000000000000000000
310
00000000000000000000000000000000000000000000000000000000000000000000000000000000000000000000000000000000000000000000000000000000000000000000000000000000000000000000000000000000000000000000000000000000000000000000000000000000000000000000000000000000000000
310
00000000000000000000000000000000000000000000000000000000000000000000000000000000000000000000000000000000000000000000000000000000000000000000000000000000000000000000000000000000000000000000000000000000000000000000000000000000000000000000000000000000000000
310
00000000000000000000000000000000000000000000000000000000000000000000000000000000000000000000000000000000000000000000000000000000000000000000000000000000000000000000000000000000000000000000000000000000000000000000000000000000000000000000000000000000000000
310
00000000000000000000000000000000000000000000000000000000000000000000000000000000000000000000000000000000000000000000000000000000000000000000000000000000000000000000000000000000000000000000000000000000000000000000000000000000000000000000000000000000000000
310
00000000000000000000000000000000000000000000000000000000000000000000000000000000000000000000000000000000000000000000000000000000000000000000000000000000000000000000000000000000000000000000000000000000000000000000000000000000000000000000000000000000000000
310
00000000000000000000000000000000000000000000000000000000000000000000000000000000000000000000000000000000000000000000000000000000000000000000000000000000000000000000000000000000000000000000000000000000000000000000000000000000000000000000000000000000000000
310
00000000000000000000000000000000000000000000000000000000000000000000000000000000000000000000000000000000000000000000000000000000000000000000000000000000000000000000000000000000000000000000000000000000000000000000000000000000000000000000000000000000000000
310
00000000000000000000000000000000000000000000000000000000000000000000000000000000000000000000000000000000000000000000000000000000000000000000000000000000000000000000000000000000000000000000000000000000000000000000000000000000000000000000000000000000000000
310
00000000000000000000000000000000000000000000000000000000000000000000000000000000000000000000000000000000000000000000000000000000000000000000000000000000000000000000000000000000000000000000000000000000000000000000000000000000000000000000000000000000000000
310
00000000000000000000000000000000000000000000000000000000000000000000000000000000000000000000000000000000000000000000000000000000000000000000000000000000000000000000000000000000000000000000000000000000000000000000000000000000000000000000000000000000000000
310
0000000000000000000000000000000000000000000000000000000000000000000000000000000000000000000000000000000000000000000000000000000000000000000000000000000000F5F5F5F5F5F5F5F5F5F5F5F5F5F5F5F5F5F5F5F5F5F5F5F5F5F5F5F5F5F5F5F5F5F5F5F5F5F5F5F5F5F5F5F5F5F500000000
310
00F5F5F5F5F5F5F5F5F5F5F5F5F5F5F5F5F5F5F5F5F5F5F5F5F5F5F5F5F5F5F5F5F5F5F5F5F5F5F5F5F5F5F5F5F5F500000000F5F5F5F5F5F5F5F5F5F5F5F5F5F5F5F5F5F5F5F50000000000000000000000000000000000000000000000000000000000000000000000000000000000000000000000000000000000000000
310
00000000000000000000000000000000000000000000000000000000000000000000000000000000000000000000000000000000000000000000000000000000000000000000000000000000000000F50000000000000000000000000000000000000000000000000000000000000000000000000000000000000000F50000
310
000000F50000000000000000000000000000000000000000000000000000000000000000000000000000000000000000F500000000F500000000000000000000000000000000000000000000000000000000000000000000000000000000000000000000000000000000000000000000000000000000000000000000000000
310
000000000000000000000000000000000000000000000000000000000000000000000000000000000000000000000000000000000000000000000000000000000000000000000000000000000000000000F50000000000000000000000000000000000000000000000000000000000000000000000000000000000000000F5
310
0000000000F50000000000000000000000000000000000000000000000000000000000000000000000000000000000000000F500000000F50000000000000000000000000000000000000000000000000000000000000000000000000000000000000000000000000000000000000000000000000000000000000000000000
310
0000000000000000000000000000000000000000000000000000000000000000000000000000000000000000000000000000000000000000000000000000000000000000000000000000000000000000000000F500000000000000000000000000000000000000000000000000000000000000000000000000000000000000
310
00F50000000000F50000000000000000000000000000000000000000000000000000000000000000000000000000000000000000F500000000F5000000000000000000000000000000000000000000000000000000000000000000000000000000000000000000000000000000000000000000000000000000000000000000
310
00000000000000000000000000000000000000000000000000000000000000000000000000000000000000000000000000000000000000000000000000000000000000000000000000000000000000000000000000F50000000000000000000000000000000000000000000000000000000000000000000000000000000000
310
000000F50000000000F50000000000000000000000000000000000000000000000000000000000000000000000000000000000000000F500000000F500000000000000000000000000000000000000000000000000000000000000000000000000000000000000000000000000000000000000000000000000000000000000
310
000000000000000000000000000000000000000000000000000000000000000000000000000000000000000000000000000000000000000000000000000000000000000000000000000000000000000000000000000000F5000000000000000000000000000000000000000000000000000000000000000000000000000000
310
0000000000F50000000000F50000000000000000000000000000000000000000000000000000000000000000000000000000000000000000F500000000F50000000000000000000000000000000000000000000000000000000000000000000000000000000000000000000000000000000000000000000000000000000000
310
0000000000000000000000000000000000000000000000000000000000000000000000000000000000000000000000000000000000000000000000000000000000000000000000000000000000000000000000000000000000F500000000002828282828282828282828282828282828282828282828282828282828280000
310
00000000000000F50000000000F5000000000028BEBEBEBEBEBEBEBEBEBEBEBEBEBEBEBEBEBEBEBEBEBEBEBEBEBEBEBEBE000000000000000000F500000000F5000000000028282828282828282828282828280000000000000000000000000000000000000000000000000000000000000000000000000000000000000000
310
00000000000000000000000000000000000000000000000000000000000000000000000000000000000000000000000000000000000000000000000000000000000000000000000000000000000000000000000000000000000000F500000000002828BEBEBEBEBEBEBEBEBEBEBEBEBEBEBEBEBEBEBEBEBEBEBEBEBEBEBE28
310
000000000000000000F50000000000F5000000002828BE2828282828282828282828282828282828282828282828282828BEBE000000000000000000F500000000F500000000002828BEBEBEBEBEBEBEBEBEBEBEBE000000000000000000000000000000000000000000000000000000000000000000000000000000000000
310
000000000000000000000000000000000000000000000000000000000000000000000000000000000000000000000000000000000000000000000000000000000000000000000000000000000000000000000000000000000000000000F5000000000000280000000000000000000000000000000000000000000000000000
310
2D28000000000000000000F50000000000F50000000000282800000000000000000000000000000000000000000000000000002828000000000000000000F500000000F50000000000002800000000000000000000000000000000000000000000000000000000000000000000000000000000000000000000000000000000
310
0000000000000000000000000000000000000000000000000000000000000000000000000000000000000000000000000000000000000000000000000000000000000000000000000000000000000000000000000000000000000000000000F500000000002D282828282828282828282828BE282828BE2828282828282828
310
28282D28000028BE0000000000F50000000000F5000000002D282828BEBEBEBEBEBEBEBEBE28BEBEBEBE28BEBEBEBEBEBEBEBEBE282828002828000000000000F500000000F500000000002D282828282828282828282828BE0000000000000000000000000000000000000000000000000000000000000000000000000000
310
00000000000000000000000000000000000000000000000000000000000000000000000000000000000000000000000000000000000000000000000000000000000000000000000000000000000000000000000000000000000000000000000000F500000000002D2800000000000000000000000000000000000000000000
310
00000000002800002DBE0000000000F50000000000F5000000002DBE28000000000000000000000000000000000000000000000000000028BE000028000000000000F500000000F500000000002D28000000000000000000000000000000000000000000000000000000000000000000000000000000000000000000000000
310
000000000000000000000000000000000000000000000000000000000000000000000000000000000000000000000000000000000000000000000000000000000000000000000000000000000000000000000000000000000000000000000000000000F500000000002D280000000000000000000000000000000000000000
310
0000000000000028000028BE0000000000F50000000000F5000000002DBE28000000000000000000000000000000000000000000000000000028BE000028000000000000F500000000F500000000002D2800000000000000000000000000000000000000000000000000000000000000000000000000000000000000000000
310
0000000000000000000000000000000000000000000000000000000000000000000000000000000000000000000000000000000000000000000000000000000000000000000000000000000000000000000000000000000000000000000000000000000000F500000000002D28000000000000000000000000000000000000
310
00000000000000000028000028BE0000000000F50000000000F5000000002DBE28000000000000000000000000000000000000000000000000000028BE000028000000000000F500000000F500000000002D280000000000000000000000000000000000000000000000000000000000000000000000000000000000000000
310
00000000000000000000000000000000000000000000000000000000000000000000000000000000000000000000000000000000000000000000000000000000000000000000000000000000000000000000000000000000000000000000000000000000000000F500000000002D2800000000000000000000000000000000
310
000000000000000000000028000028BE0000000000F50000000000F5000000002DBE28000000000000000000000000000000000000000000000000000028BE000028000000000000F500000000F500000000002D28000000000000000000000000000000000000000000000000000000000000000000000000000000000000
310
000000000000000000000000000000000000000000000000000000000000000000000000000000000000000000000000000000000000000000000000000000000000000000000000000000000000000000000000000000000000000000000000000000000000000000F5000000002828280000000000000000000000000000
310
0000000000000000000000000028000028BE0000000000F50000000000F5000000002DBE28000000000000000000000000000000000000000000000000000028BE000028000000000000F500000000F500000000002D2800000000000000000000000000000000000000000000000000000000000000000000000000000000
310
0000000000000000000000000000000000000000000000000000000000000000000000000000000000000000000000000000000000000000000000000000000000000000000000000000000000000000000000000000000000000000000000000000000000000000000000F500000000282828000000000000000000000000
310
00000000000000000000000000000028000028BE0000000000F50000000000F50000000028BE28000000000000000000000000000000000000000000000000000028BE000028000000000000F500000000F5000000000028280000000000000000000000000000000000000000000000000000000000000000000000000000
310
00000000000000000000000000000000000000000000000000000000000000000000000000000000000000000000000000000000000000000000000000000000000000000000000000000000000000000000000000000000000000000000000000000000000000000000000000F500000000002D2800000000000000000000
310
000000000000000000000000000000000028000028BE0000000000F50000000000F5000000002DBE28000000000000000000000000000000000000000000000000000028BE000028000000000000F500000000F500000000002828000000000000000000000000000000000000000000000000000000000000000000000000
310
000000000000000000000000000000000000000000000000000000000000000000000000000000000000000000000000000000000000000000000000000000000000000000000000000000000000000000000000000000000000000000000000000000000000000000000000000000F500000000002D280000000000000000
310
0000000000000000000000000000000000000028000028BE0000000000F50000000000F5000000002DBE28000000000000000000000000000000000000000000000000000028BE000028000000000000F500000000F500000000002D2800000000000000000000000000000000000000000000000000000000000000000000
310
0000000000000000000000000000000000000000000000000000000000000000000000000000000000000000000000000000000000000000000000000000000000000000000000000000000000000000000000000000000000000000000000000000000000000000000000000000000000F500000000002D28000000000000
310
00000000000000000000000000000000000000000028000028BE0000000000F50000000000F5000000002DBE28000000000000000000000000000000000000000000000000000028BE000028000000000000F500000000F500000000002D280000000000000000000000000000000000000000000000000000000000000000
310
00000000000000000000000000000000000000000000000000000000000000000000000000000000000000000000000000000000000000000000000000000000000000000000000000000000000000000000000000000000000000000000000000000000000000000000000000000000000000F500000000002D28BE282828
310
28282828282828BE282828BE28282828282828282828BE28000028BE0000000000F50000000000F5000000002DBE28000000000000000000000000000000000000000000000000000028BE000028000000000000F500000000F500000000002D28000000000000000000000000000000000000000000000000000000000000
310
000000000000000000000000000000000000000000000000000000000000000000000000000000000000000000000000000000000000000000000000000000000000000000000000000000000000000000000000000000000000000000000000000000000000000000000000000000000000000000F5000000000028282828
310
2828282828282828282828282828282828282828282828282828000028280000000000F50000000000F5000000002DBE28000000000000000000000000000000000000000000000000000028BE000028000000000000F500000000F500000000002D2800000000000000000000000000000000000000000000000000000000
310
0000000000000000000000000000000000000000000000000000000000000000000000000000000000000000000000000000000000000000000000000000000000000000000000000000000000000000000000000000000000000000000000000000000000000000000000000000000000000000000000F500000000000028
310
2D2D2D2D2D28282D2D2D2D2D2D282D2D2D2D2D2D28282D2D2D2D2828000028280000000000F50000000000F50000000028282828BEBEBEBEBEBEBEBEBE28BEBEBEBE28BEBEBEBEBEBEBEBEBE282828002828000000000000F500000000F500000000002D280000000000000000000000000000000000000000000000000000
310
00000000000000000000000000000000000000000000000000000000000000000000000000000000000000000000000000000000000000000000000000000000000000000000000000000000000000000000000000000000000000000000000000000000000000000000000000000000000000000000000000F50000000000
310
002D0000000000000000000000000028000000000000000000000000002D00002D280000000000F50000000000F500000000002D28282D2D2D2D282D2D2D2D282D28282D282D2D2D2D282D2D2D2D28282D00002D000000000000F500000000F500000000002828282828282828282828282828000000000000000000000000
310
000000000000000000000000000000000000000000000000000000000000000000000000000000000000000000000000000000000000000000000000000000000000000000000000000000000000000000000000000000000000000000000000000000000000000000000000000000000000000000000000000000F5000000
310
0000000000000000000000000000000000000000000000000000000000000000000000000000000000F50000000000F500000000002D2D2D2D2D2D2D2D2D2D2D2D2D2D28282D2D2D2D2D2D2D2D2D2D2D2D2D280000282D0000000000F500000000F50000000000002D2D2D2D2D2D2D2D2D2D2D2D2D00000000000000000000
310
0000000000000000000000000000000000000000000000000000000000000000000000000000000000000000000000000000000000000000000000000000000000000000000000000000000000000000000000000000000000000000000000000000000000000000000000000000000000000000000000000000000000F500
310
00000000000000000000000000000000000000000000000000000000000000000000000000000000000000F50000000000F50000000000000000000000000000000000000000000000000000000000000000000000000000000000000000F500000000F5000000000000282D2D2D2D2D28282D2D2D2D2D0000000000000000
310
00000000000000000000000000000000000000000000000000000000000000000000000000000000000000000000000000000000000000000000000000000000000000000000000000000000000000000000000000000000000000000000000000000000000000000000000000000000000000000000000000000000000000
310
F50000000000000000000000000000000000000000000000000000000000000000000000000000000000000000F50000000000F50000000000000000000000000000000000000000000000000000000000000000000000000000000000000000F500000000F500000000000000000000000000000000000000000000000000
310
00000000000000000000000000000000000000000000000000000000000000000000000000000000000000000000000000000000000000000000000000000000000000000000000000000000000000000000000000000000000000000000000000000000000000000000000000000000000000000000000000000000000000
310
0000F50000000000000000000000000000000000000000000000000000000000000000000000000000000000000000F50000000000F50000000000000000000000000000000000000000000000000000000000000000000000000000000000000000F500000000F50000000000000000000000000000000000000000000000
310
00000000000000000000000000000000000000000000000000000000000000000000000000000000000000000000000000000000000000000000000000000000000000000000000000000000000000000000000000000000000000000000000000000000000000000000000000000000000000000000000000000000000000
310
00000000F5F5F5F5F5F5F5F5F5F5F5F5F5F5F5F5F5F5F5F5F5F5F5F5F5F5F5F5F5F5F5F5F5F5F5F5F5F5F5F5F5F5F5F5F5F50000000000F5F5F5F5F5F5F5F5F5F5F5F5F5F5F5F5F5F5F5F5F5F5F5F5F5F5F5F5F5F5F5F5F5F5F5F5F5F5F5F5F5F5F5F5F5F500000000F5F5F5F5F5F5F5F5F5F5F5F5F5F5F5F5F5F5F5F50000
310
00000000000000000000000000000000000000000000000000000000000000000000000000000000000000000000000000000000000000000000000000000000000000000000000000000000000000000000000000000000000000000000000000000000000000000000000000000000000000000000000000000000000000
310
00000000000000000000000000000000000000000000000000000000000000000000000000000000000000000000000000000000000000000000000000000000000000000000000000000000000000000000000000000000000000000000000000000000000000000000000000000000000000000000000000000000000000
310
00000000000000000000000000000000000000000000000000000000000000000000000000000000000000000000000000000000000000000000000000000000000000000000000000000000000000000000000000000000000000000000000000000000000000000000000000000000000000000000000000000000000000
310
00000000000000000000000000000000000000000000000000000000000000000000000000000000000000000000000000000000000000000000000000000000000000000000000000000000000000000000000000000000000000000000000000000000000000000000000000000000000000000000000000000000000000
310
00000000000000000000000000000000000000000000000000000000000000000000000000000000000000000000000000000000000000000000000000000000000000000000000000000000000000000000000000000000000000000000000000000000000000000000000000000000000000000000000000000000000000
310
00000000000000000000000000000000000000000000000000000000000000000000000000000000000000000000000000000000000000000000000000000000000000000000000000000000000000000000000000000000000000000000000000000000000000000000000000000000000000000000000000000000000000
310
00000000000000000000000000000000000000000000000000000000000000000000000000000000000000000000000000000000000000000000000000000000000000000000000000000000000000000000000000000000000000000000000000000000000000000000000000000000000000000000000000000000000000
310
00000000000000000000000000000000000000000000000000000000000000000000000000000000000000000000000000000000000000000000000000000000000000000000000000000000000000000000000000000000000000000000000000000000000000000000000000000000000000000000000000000000000000
310
00000000000000000000000000000000000000000000000000000000000000000000000000000000000000000000000000000000000000000000000000000000000000000000000000000000000000000000000000000000000000000000000000000000000000000000000000000000000000000000000000000000000000
310
00000000000000000000000000000000000000000000000000000000000000000000000000000000000000000000000000000000000000000000000000000000000000000000000000000000000000000000000000000000000000000000000000000000000000000000000000000000000000000000000000000000000000
310
00000000000000000000000000000000000000000000000000000000000000000000000000000000000000000000000000000000000000000000000000000000000000000000000000000000000000000000000000000000000000000000000000000000000000000000000000000000000000000000000000000000000000
310
00000000000000000000000000000000000000000000000000000000000000000000000000000000000000000000000000000000000000000000000000000000000000000000000000000000000000000000000000000000000000000000000000000000000000000000000000000000000000000000000000000000000000
310
00000000000000000000000000000000000000000000000000000000000000000000000000000000000000000000000000000000000000000000000000000000000000000000000000000000000000000000000000000000000000000000000000000000000000000000000000000000000000000000000000000000000000
310
00000000000000000000000000000000000000000000000000000000000000000000000000000000000000000000000000000000000000000000000000000000000000000000000000000000000000000000000000000000000000000000000000000000000000000000000000000000000000000000000000000000000000
310
00000000000000000000000000000000000000000000000000000000000000000000000000000000000000000000000000000000000000000000000000000000000000000000000000000000000000000000000000000000000000000000000000000000000000000000000000000000000000000000000000000000000000
310
00000000000000000000000000000000000000000000000000000000000000000000000000000000000000000000000000000000000000000000000000000000000000000000000000000000000000000000000000000000000000000000000000000000000000000000000000000000000000000000000000000000000000
310
00000000000000000000000000000000000000000000000000000000000000000000000000000000000000000000000000000000000000000000000000000000000000000000000000000000000000000000000000000000000000000000000000000000000000000000000000000000000000000000000000000000000000
310
00000000000000000000000000000000000000000000000000000000000000000000000000000000000000000000000000000000000000000000000000000000000000000000000000000000000000000000000000000000000000000000000000000000000000000000000000000000000000000000000000000000000000
310
00000000000000000000000000000000000000000000000000000000000000000000000000000000000000000000000000000000000000000000000000000000000000000000000000000000000000000000000000000000000000000000000000000000000000000000000000000000000000000000000000000000000000
310
00000000000000000000000000000000000000000000000000000000000000000000000000000000000000000000000000000000000000000000000000000000000000000000000000000000000000000000000000000000000000000000000000000000000000000000000000000000000000000000000000000000000000
310
00000000000000000000000000000000000000000000000000000000000000000000000000000000000000000000000000000000000000000000000000000000000000000000000000000000000000000000000000000000000000000000000000000000000000000000000000000000000000000000000000000000000000
310
00000000000000000000000000000000000000000000000000000000000000000000000000000000000000000000000000000000000000000000000000000000000000000000000000000000000000000000000000000000000000000000000000000000000000000000000000000000000000000000000000000000000000
310
00000000000000000000000000000000000000000000000000000000000000000000000000000000000000000000000000000000000000000000000000000000000000000000000000000000000000000000000000000000000000000000000000000000000000000000000000000000000000000000000000000000000000
310
00000000000000000000000000000000000000000000000000000000000000000000000000000000000000000000000000000000000000000000000000000000000000000000000000000000000000000000000000000000000000000000000000000000000000000000000000000000000000000000000000000000000000
310
00000000000000000000000000000000000000000000000000000000000000000000000000000000000000000000000000000000000000000000000000000000000000000000000000000000000000000000000000000000000000000000000000000000000000000000000000000000000000000000000000000000000000
310
00000000000000000000000000000000000000000000000000000000000000000000000000000000000000000000000000000000000000000000000000000000000000000000000000000000000000000000000000000000000000000000000000000000000000000000000000000000000000000000000000000000000000
310
00000000000000000000000000000000000000000000000000000000000000000000000000000000000000000000000000000000000000000000000000000000000000000000000000000000000000000000000000000000000000000000000000000000000000000000000000000000000000000000000000000000000000
310
00000000000000000000000000000000000000000000000000000000000000000000000000000000000000000000000000000000000000000000000000000000000000000000000000000000000000000000000000000000000000000000000000000000000000000000000000000000000000000000000000000000000000
310
0000000000000000000000000000000000000000000000000000
  0
XRECORD
  5
34565
102
{ACAD_REACTORS
330
2DAF7
102
}
330
2DAF7
100
AcDbXrecord
280
     1
102
MATERIAL
148
0.0
149
0.0
149
0.0
 93
        0
 94
      127
282
     0
 72
     0
 77
     0
171
     0
175
     0
179
     0
273
     0
  0
XRECORD
  5
2DAF9
102
{ACAD_REACTORS
330
2DAF7
102
}
330
2DAF7
100
AcDbXrecord
280
     1
270
     1
271
     1
  0
XRECORD
  5
2DAF8
102
{ACAD_REACTORS
330
2DAF7
102
}
330
2DAF7
100
AcDbXrecord
280
     1
270
     1
271
     1
  0
XRECORD
  5
2DAFC
102
{ACAD_REACTORS
330
2DAF7
102
}
330
2DAF7
100
AcDbXrecord
280
     1
270
     1
271
     1
  0
XRECORD
  5
2DAFB
102
{ACAD_REACTORS
330
2DAF7
102
}
330
2DAF7
100
AcDbXrecord
280
     1
270
     1
271
     1
  0
XRECORD
  5
2DAFD
102
{ACAD_REACTORS
330
2DAF7
102
}
330
2DAF7
100
AcDbXrecord
280
     1
270
     1
271
     1
  0
XRECORD
  5
2DAFA
102
{ACAD_REACTORS
330
2DAF7
102
}
330
2DAF7
100
AcDbXrecord
280
     1
270
     1
271
     1
  0
XRECORD
  5
34564
102
{ACAD_REACTORS
330
2DAEF
102
}
330
2DAEF
100
AcDbXrecord
280
     1
102
MATERIAL
148
0.0
149
0.0
149
0.0
 93
        0
 94
      127
282
     0
 72
     0
 77
     0
171
     0
175
     0
179
     0
273
     0
  0
XRECORD
  5
2DAF1
102
{ACAD_REACTORS
330
2DAEF
102
}
330
2DAEF
100
AcDbXrecord
280
     1
270
     1
271
     1
  0
XRECORD
  5
2DAF0
102
{ACAD_REACTORS
330
2DAEF
102
}
330
2DAEF
100
AcDbXrecord
280
     1
270
     1
271
     1
  0
XRECORD
  5
2DAF4
102
{ACAD_REACTORS
330
2DAEF
102
}
330
2DAEF
100
AcDbXrecord
280
     1
270
     1
271
     1
  0
XRECORD
  5
2DAF3
102
{ACAD_REACTORS
330
2DAEF
102
}
330
2DAEF
100
AcDbXrecord
280
     1
270
     1
271
     1
  0
XRECORD
  5
2DAF5
102
{ACAD_REACTORS
330
2DAEF
102
}
330
2DAEF
100
AcDbXrecord
280
     1
270
     1
271
     1
  0
XRECORD
  5
2DAF2
102
{ACAD_REACTORS
330
2DAEF
102
}
330
2DAEF
100
AcDbXrecord
280
     1
270
     1
271
     1
  0
XRECORD
  5
34563
102
{ACAD_REACTORS
330
AF91
102
}
330
AF91
100
AcDbXrecord
280
     1
102
MATERIAL
148
0.0
149
0.0
149
0.0
 93
        0
 94
      127
282
     0
 72
     0
 77
     0
171
     0
175
     0
179
     0
273
     0
  0
XRECORD
  5
AF93
102
{ACAD_REACTORS
330
AF91
102
}
330
AF91
100
AcDbXrecord
280
     1
270
     1
271
     1
  0
XRECORD
  5
AF94
102
{ACAD_REACTORS
330
AF91
102
}
330
AF91
100
AcDbXrecord
280
     1
270
     1
271
     1
  0
XRECORD
  5
AF95
102
{ACAD_REACTORS
330
AF91
102
}
330
AF91
100
AcDbXrecord
280
     1
270
     1
271
     1
  0
XRECORD
  5
AF96
102
{ACAD_REACTORS
330
AF91
102
}
330
AF91
100
AcDbXrecord
280
     1
270
     1
271
     1
  0
XRECORD
  5
AF97
102
{ACAD_REACTORS
330
AF91
102
}
330
AF91
100
AcDbXrecord
280
     1
270
     1
271
     1
  0
XRECORD
  5
AF98
102
{ACAD_REACTORS
330
AF91
102
}
330
AF91
100
AcDbXrecord
280
     1
270
     1
271
     1
  0
XRECORD
  5
34598
102
{ACAD_REACTORS
330
34597
102
}
330
34597
100
AcDbXrecord
280
     1
102
ACAD_ROUNDTRIP_2012_MLEADER_STYLE
298
     1
  0
XRECORD
  5
3459A
102
{ACAD_REACTORS
330
34599
102
}
330
34599
100
AcDbXrecord
280
     1
102
DISPLAYNAME
  1
Metric50
102
FLAGS
 90
        0
  0
CELLSTYLEMAP
  5
34561
102
{ACAD_REACTORS
330
2E526
102
}
330
2E526
100
AcDbCellStyleMap
 90
        3
300
CELLSTYLE
  1
TABLEFORMAT_BEGIN
 90
        5
170
     1
 91
        0
 92
    32768
 62
   257
 93
        1
300
CONTENTFORMAT
  1
CONTENTFORMAT_BEGIN
 90
        0
 91
        0
 92
      512
 93
        0
300

 40
0.0
140
1.0
 94
        5
 62
     0
340
12
144
6.0
309
CONTENTFORMAT_END
171
     1
301
MARGIN
  1
CELLMARGIN_BEGIN
 40
1.5
 40
1.5
 40
1.5
 40
1.5
 40
0.18
 40
0.18
309
CELLMARGIN_END
 94
        6
 95
        1
302
GRIDFORMAT
  1
GRIDFORMAT_BEGIN
 90
        0
 91
        1
 62
     0
 92
       -2
340
0
 93
        0
 40
1.125
309
GRIDFORMAT_END
 95
        2
302
GRIDFORMAT
  1
GRIDFORMAT_BEGIN
 90
        0
 91
        1
 62
     0
 92
       -2
340
0
 93
        0
 40
1.125
309
GRIDFORMAT_END
 95
        4
302
GRIDFORMAT
  1
GRIDFORMAT_BEGIN
 90
        0
 91
        1
 62
     0
 92
       -2
340
0
 93
        0
 40
1.125
309
GRIDFORMAT_END
 95
        8
302
GRIDFORMAT
  1
GRIDFORMAT_BEGIN
 90
        0
 91
        1
 62
     0
 92
       -2
340
0
 93
        0
 40
1.125
309
GRIDFORMAT_END
 95
       16
302
GRIDFORMAT
  1
GRIDFORMAT_BEGIN
 90
        0
 91
        1
 62
     0
 92
       -2
340
0
 93
        0
 40
1.125
309
GRIDFORMAT_END
 95
       32
302
GRIDFORMAT
  1
GRIDFORMAT_BEGIN
 90
        0
 91
        1
 62
     0
 92
       -2
340
0
 93
        0
 40
1.125
309
GRIDFORMAT_END
309
TABLEFORMAT_END
  1
CELLSTYLE_BEGIN
 90
        1
 91
        1
300
_TITLE
309
CELLSTYLE_END
300
CELLSTYLE
  1
TABLEFORMAT_BEGIN
 90
        5
170
     1
 91
        0
 92
        0
 62
   257
 93
        1
300
CONTENTFORMAT
  1
CONTENTFORMAT_BEGIN
 90
        0
 91
        0
 92
      512
 93
        0
300

 40
0.0
140
1.0
 94
        5
 62
     0
340
12
144
4.5
309
CONTENTFORMAT_END
171
     1
301
MARGIN
  1
CELLMARGIN_BEGIN
 40
1.5
 40
1.5
 40
1.5
 40
1.5
 40
0.18
 40
0.18
309
CELLMARGIN_END
 94
        6
 95
        1
302
GRIDFORMAT
  1
GRIDFORMAT_BEGIN
 90
        0
 91
        1
 62
     0
 92
       -2
340
0
 93
        0
 40
1.125
309
GRIDFORMAT_END
 95
        2
302
GRIDFORMAT
  1
GRIDFORMAT_BEGIN
 90
        0
 91
        1
 62
     0
 92
       -2
340
0
 93
        0
 40
1.125
309
GRIDFORMAT_END
 95
        4
302
GRIDFORMAT
  1
GRIDFORMAT_BEGIN
 90
        0
 91
        1
 62
     0
 92
       -2
340
0
 93
        0
 40
1.125
309
GRIDFORMAT_END
 95
        8
302
GRIDFORMAT
  1
GRIDFORMAT_BEGIN
 90
        0
 91
        1
 62
     0
 92
       -2
340
0
 93
        0
 40
1.125
309
GRIDFORMAT_END
 95
       16
302
GRIDFORMAT
  1
GRIDFORMAT_BEGIN
 90
        0
 91
        1
 62
     0
 92
       -2
340
0
 93
        0
 40
1.125
309
GRIDFORMAT_END
 95
       32
302
GRIDFORMAT
  1
GRIDFORMAT_BEGIN
 90
        0
 91
        1
 62
     0
 92
       -2
340
0
 93
        0
 40
1.125
309
GRIDFORMAT_END
309
TABLEFORMAT_END
  1
CELLSTYLE_BEGIN
 90
        2
 91
        1
300
_HEADER
309
CELLSTYLE_END
300
CELLSTYLE
  1
TABLEFORMAT_BEGIN
 90
        5
170
     1
 91
        0
 92
        0
 62
   257
 93
        1
300
CONTENTFORMAT
  1
CONTENTFORMAT_BEGIN
 90
        0
 91
        0
 92
      512
 93
        0
300

 40
0.0
140
1.0
 94
        2
 62
     0
340
12
144
4.5
309
CONTENTFORMAT_END
171
     1
301
MARGIN
  1
CELLMARGIN_BEGIN
 40
1.5
 40
1.5
 40
1.5
 40
1.5
 40
0.18
 40
0.18
309
CELLMARGIN_END
 94
        6
 95
        1
302
GRIDFORMAT
  1
GRIDFORMAT_BEGIN
 90
        0
 91
        1
 62
     0
 92
       -2
340
0
 93
        0
 40
1.125
309
GRIDFORMAT_END
 95
        2
302
GRIDFORMAT
  1
GRIDFORMAT_BEGIN
 90
        0
 91
        1
 62
     0
 92
       -2
340
0
 93
        0
 40
1.125
309
GRIDFORMAT_END
 95
        4
302
GRIDFORMAT
  1
GRIDFORMAT_BEGIN
 90
        0
 91
        1
 62
     0
 92
       -2
340
0
 93
        0
 40
1.125
309
GRIDFORMAT_END
 95
        8
302
GRIDFORMAT
  1
GRIDFORMAT_BEGIN
 90
        0
 91
        1
 62
     0
 92
       -2
340
0
 93
        0
 40
1.125
309
GRIDFORMAT_END
 95
       16
302
GRIDFORMAT
  1
GRIDFORMAT_BEGIN
 90
        0
 91
        1
 62
     0
 92
       -2
340
0
 93
        0
 40
1.125
309
GRIDFORMAT_END
 95
       32
302
GRIDFORMAT
  1
GRIDFORMAT_BEGIN
 90
        0
 91
        1
 62
     0
 92
       -2
340
0
 93
        0
 40
1.125
309
GRIDFORMAT_END
309
TABLEFORMAT_END
  1
CELLSTYLE_BEGIN
 90
        3
 91
        2
300
_DATA
309
CELLSTYLE_END
  0
XRECORD
  5
34596
102
{ACAD_REACTORS
330
2E526
102
}
330
2E526
100
AcDbXrecord
280
     1
102
ACAD_ROUNDTRIP_PRE2007_TABLESTYLE
 90
      512
 91
        0
  1

 92
      512
 93
        0
  2

 94
      512
 95
        0
  3

  0
XRECORD
  5
34571
102
{ACAD_REACTORS
330
34570
102
}
330
34570
100
AcDbXrecord
280
     1
102
RTVSPost2010Prop28
280
     1
102
RTVSPost2010PropOp28
 70
     1
102
RTVSPost2010Prop29
280
     1
102
RTVSPost2010PropOp29
 70
     1
102
RTVSPost2010Prop30
280
     0
102
RTVSPost2010PropOp30
 70
     1
102
RTVSPost2010Prop31
280
     0
102
RTVSPost2010PropOp31
 70
     1
102
RTVSPost2010Prop32
280
     0
102
RTVSPost2010PropOp32
 70
     1
102
RTVSPost2010Prop33
280
     0
102
RTVSPost2010PropOp33
 70
     1
102
RTVSPost2010Prop34
280
     0
102
RTVSPost2010PropOp34
 70
     1
102
RTVSPost2010Prop35
280
     0
102
RTVSPost2010PropOp35
 70
     1
102
RTVSPost2010Prop36
280
     0
102
RTVSPost2010PropOp36
 70
     1
102
RTVSPost2010Prop37
 90
       50
102
RTVSPost2010PropOp37
 70
     1
102
RTVSPost2010Prop38
140
0.0
102
RTVSPost2010PropOp38
 70
     1
102
RTVSPost2010Prop39
140
1.0
102
RTVSPost2010PropOp39
 70
     1
102
RTVSPost2010Prop40
 90
        0
102
RTVSPost2010PropOp40
 70
     1
102
RTVSPost2010Prop41ColorIndex
 90
       18
102
RTVSPost2010Prop41ColorRGB
 90
        0
102
RTVSPost2010PropOp41
 70
     1
102
RTVSPost2010Prop42
 90
       50
102
RTVSPost2010PropOp42
 70
     1
102
RTVSPost2010Prop43
 90
        3
102
RTVSPost2010PropOp43
 70
     1
102
RTVSPost2010Prop44ColorIndex
 90
        5
102
RTVSPost2010Prop44ColorRGB
 90
      255
102
RTVSPost2010PropOp44
 70
     1
102
RTVSPost2010Prop45
280
     0
102
RTVSPost2010PropOp45
 70
     1
102
RTVSPost2010Prop46
 90
       50
102
RTVSPost2010PropOp46
 70
     1
102
RTVSPost2010Prop47
 90
       50
102
RTVSPost2010PropOp47
 70
     1
102
RTVSPost2010Prop48
 90
       50
102
RTVSPost2010PropOp48
 70
     1
102
RTVSPost2010Prop49
280
     0
102
RTVSPost2010PropOp49
 70
     1
102
RTVSPost2010Prop50
 90
       50
102
RTVSPost2010PropOp50
 70
     1
102
RTVSPost2010Prop51ColorIndex
 90
      256
102
RTVSPost2010Prop51ColorRGB
 90
-16777216
102
RTVSPost2010PropOp51
 70
     0
102
RTVSPost2010Prop52
140
1.0
102
RTVSPost2010PropOp52
 70
     0
102
RTVSPost2010Prop53
 90
        2
102
RTVSPost2010PropOp53
 70
     1
102
RTVSPost2010Prop54
  1
strokes_ogs.tif
102
RTVSPost2010PropOp54
 70
     1
102
RTVSPost2010Prop55
280
     0
102
RTVSPost2010PropOp55
 70
     1
102
RTVSPost2010Prop56
140
1.0
102
RTVSPost2010PropOp56
 70
     1
102
RTVSPost2010Prop57
140
1.0
102
RTVSPost2010PropOp57
 70
     1
102
RTVSPropertyOp0
 70
     1
102
RTVSPropertyOp1
 70
     1
102
RTVSPropertyOp2
 70
     1
102
RTVSPropertyOp3
 70
     1
102
RTVSPropertyOp4
 70
     1
102
RTVSPropertyOp5
 70
     1
102
RTVSPropertyOp6
 70
     1
102
RTVSPropertyOp7
 70
     1
102
RTVSPropertyOp8
 70
     1
102
RTVSPropertyOp9
 70
     1
102
RTVSPropertyOp10
 70
     1
102
RTVSPropertyOp11
 70
     1
102
RTVSPropertyOp12
 70
     1
102
RTVSPropertyOp13
 70
     1
102
RTVSPropertyOp14
 70
     1
102
RTVSPropertyOp15
 70
     1
102
RTVSPropertyOp16
 70
     1
102
RTVSPropertyOp17
 70
     1
102
RTVSPropertyOp18
 70
     1
102
RTVSPropertyOp19
 70
     1
102
RTVSPropertyOp20
 70
     1
102
RTVSPropertyOp21
 70
     1
102
RTVSPropertyOp22
 70
     1
102
RTVSPropertyOp23
 70
     1
102
RTVSPropertyOp24
 70
     1
102
RTVSPropertyOp25
 70
     1
102
RTVSPropertyOp26
 70
     1
102
RTVSPropertyOp27
 70
     1
102
RTVSPropertyOp28
 70
     1
102
RTVSPropertyOp29
 70
     1
102
RTVSPropertyOp30
 70
     1
102
RTVSPropertyOp31
 70
     1
102
RTVSPropertyOp32
 70
     1
102
RTVSPropertyOp33
 70
     1
102
RTVSPropertyOp34
 70
     1
102
RTVSPropertyOp35
 70
     1
102
RTVSPropertyOp36
 70
     1
102
RTVSPropertyOp37
 70
     1
102
RTVSPropertyOp38
 70
     1
102
RTVSPropertyOp39
 70
     1
102
RTVSPropertyOp40
 70
     1
102
RTVSPropertyOp41
 70
     1
102
RTVSPropertyOp42
 70
     1
102
RTVSPropertyOp43
 70
     1
102
RTVSPropertyOp44
 70
     1
102
RTVSPropertyOp45
 70
     1
102
RTVSPropertyOp46
 70
     1
102
RTVSPropertyOp47
 70
     1
102
RTVSPropertyOp48
 70
     1
102
RTVSPropertyOp49
 70
     1
102
RTVSPropertyOp50
 70
     1
102
RTVSPropertyOp51
 70
     0
102
RTVSPropertyOp52
 70
     0
102
RTVSPropertyOp53
 70
     1
102
RTVSPropertyOp54
 70
     1
102
RTVSPropertyOp55
 70
     1
102
RTVSPropertyOp56
 70
     1
102
RTVSPropertyOp57
 70
     1
102
RTVSPropertyOp58
 70
     1
102
RTVSPropertyOp59
 70
     1
102
RTVSPropertyOp60
 70
     1
102
RTVSPropertyOp61
 70
     1
102
RTVSPropertyOp62
 70
     1
  0
XRECORD
  5
3456F
102
{ACAD_REACTORS
330
3456E
102
}
330
3456E
100
AcDbXrecord
280
     1
102
RTVSPost2010Prop28
280
     0
102
RTVSPost2010PropOp28
 70
     1
102
RTVSPost2010Prop29
280
     1
102
RTVSPost2010PropOp29
 70
     1
102
RTVSPost2010Prop30
280
     1
102
RTVSPost2010PropOp30
 70
     1
102
RTVSPost2010Prop31
280
     0
102
RTVSPost2010PropOp31
 70
     1
102
RTVSPost2010Prop32
280
     0
102
RTVSPost2010PropOp32
 70
     1
102
RTVSPost2010Prop33
280
     0
102
RTVSPost2010PropOp33
 70
     1
102
RTVSPost2010Prop34
280
     0
102
RTVSPost2010PropOp34
 70
     1
102
RTVSPost2010Prop35
280
     0
102
RTVSPost2010PropOp35
 70
     1
102
RTVSPost2010Prop36
280
     0
102
RTVSPost2010PropOp36
 70
     1
102
RTVSPost2010Prop37
 90
       50
102
RTVSPost2010PropOp37
 70
     1
102
RTVSPost2010Prop38
140
0.0
102
RTVSPost2010PropOp38
 70
     1
102
RTVSPost2010Prop39
140
1.0
102
RTVSPost2010PropOp39
 70
     1
102
RTVSPost2010Prop40
 90
        0
102
RTVSPost2010PropOp40
 70
     1
102
RTVSPost2010Prop41ColorIndex
 90
       18
102
RTVSPost2010Prop41ColorRGB
 90
        0
102
RTVSPost2010PropOp41
 70
     1
102
RTVSPost2010Prop42
 90
       50
102
RTVSPost2010PropOp42
 70
     1
102
RTVSPost2010Prop43
 90
        3
102
RTVSPost2010PropOp43
 70
     1
102
RTVSPost2010Prop44ColorIndex
 90
        5
102
RTVSPost2010Prop44ColorRGB
 90
      255
102
RTVSPost2010PropOp44
 70
     1
102
RTVSPost2010Prop45
280
     0
102
RTVSPost2010PropOp45
 70
     1
102
RTVSPost2010Prop46
 90
       50
102
RTVSPost2010PropOp46
 70
     1
102
RTVSPost2010Prop47
 90
       50
102
RTVSPost2010PropOp47
 70
     1
102
RTVSPost2010Prop48
 90
       50
102
RTVSPost2010PropOp48
 70
     1
102
RTVSPost2010Prop49
280
     0
102
RTVSPost2010PropOp49
 70
     1
102
RTVSPost2010Prop50
 90
       50
102
RTVSPost2010PropOp50
 70
     1
102
RTVSPost2010Prop51ColorIndex
 90
      256
102
RTVSPost2010Prop51ColorRGB
 90
-16777216
102
RTVSPost2010PropOp51
 70
     0
102
RTVSPost2010Prop52
140
1.0
102
RTVSPost2010PropOp52
 70
     0
102
RTVSPost2010Prop53
 90
        2
102
RTVSPost2010PropOp53
 70
     1
102
RTVSPost2010Prop54
  1
strokes_ogs.tif
102
RTVSPost2010PropOp54
 70
     1
102
RTVSPost2010Prop55
280
     0
102
RTVSPost2010PropOp55
 70
     1
102
RTVSPost2010Prop56
140
1.0
102
RTVSPost2010PropOp56
 70
     1
102
RTVSPost2010Prop57
140
1.0
102
RTVSPost2010PropOp57
 70
     1
102
RTVSPropertyOp0
 70
     1
102
RTVSPropertyOp1
 70
     1
102
RTVSPropertyOp2
 70
     1
102
RTVSPropertyOp3
 70
     1
102
RTVSPropertyOp4
 70
     1
102
RTVSPropertyOp5
 70
     1
102
RTVSPropertyOp6
 70
     1
102
RTVSPropertyOp7
 70
     1
102
RTVSPropertyOp8
 70
     1
102
RTVSPropertyOp9
 70
     1
102
RTVSPropertyOp10
 70
     1
102
RTVSPropertyOp11
 70
     1
102
RTVSPropertyOp12
 70
     1
102
RTVSPropertyOp13
 70
     1
102
RTVSPropertyOp14
 70
     1
102
RTVSPropertyOp15
 70
     1
102
RTVSPropertyOp16
 70
     1
102
RTVSPropertyOp17
 70
     1
102
RTVSPropertyOp18
 70
     1
102
RTVSPropertyOp19
 70
     1
102
RTVSPropertyOp20
 70
     1
102
RTVSPropertyOp21
 70
     1
102
RTVSPropertyOp22
 70
     1
102
RTVSPropertyOp23
 70
     1
102
RTVSPropertyOp24
 70
     1
102
RTVSPropertyOp25
 70
     1
102
RTVSPropertyOp26
 70
     1
102
RTVSPropertyOp27
 70
     1
102
RTVSPropertyOp28
 70
     1
102
RTVSPropertyOp29
 70
     1
102
RTVSPropertyOp30
 70
     1
102
RTVSPropertyOp31
 70
     1
102
RTVSPropertyOp32
 70
     1
102
RTVSPropertyOp33
 70
     1
102
RTVSPropertyOp34
 70
     1
102
RTVSPropertyOp35
 70
     1
102
RTVSPropertyOp36
 70
     1
102
RTVSPropertyOp37
 70
     1
102
RTVSPropertyOp38
 70
     1
102
RTVSPropertyOp39
 70
     1
102
RTVSPropertyOp40
 70
     1
102
RTVSPropertyOp41
 70
     1
102
RTVSPropertyOp42
 70
     1
102
RTVSPropertyOp43
 70
     1
102
RTVSPropertyOp44
 70
     1
102
RTVSPropertyOp45
 70
     1
102
RTVSPropertyOp46
 70
     1
102
RTVSPropertyOp47
 70
     1
102
RTVSPropertyOp48
 70
     1
102
RTVSPropertyOp49
 70
     1
102
RTVSPropertyOp50
 70
     1
102
RTVSPropertyOp51
 70
     0
102
RTVSPropertyOp52
 70
     0
102
RTVSPropertyOp53
 70
     1
102
RTVSPropertyOp54
 70
     1
102
RTVSPropertyOp55
 70
     1
102
RTVSPropertyOp56
 70
     1
102
RTVSPropertyOp57
 70
     1
102
RTVSPropertyOp58
 70
     1
102
RTVSPropertyOp59
 70
     1
102
RTVSPropertyOp60
 70
     1
102
RTVSPropertyOp61
 70
     1
102
RTVSPropertyOp62
 70
     1
  0
XRECORD
  5
3457D
102
{ACAD_REACTORS
330
3457C
102
}
330
3457C
100
AcDbXrecord
280
     1
102
RTVSPost2010Prop28
280
     0
102
RTVSPost2010PropOp28
 70
     1
102
RTVSPost2010Prop29
280
     1
102
RTVSPost2010PropOp29
 70
     1
102
RTVSPost2010Prop30
280
     1
102
RTVSPost2010PropOp30
 70
     1
102
RTVSPost2010Prop31
280
     0
102
RTVSPost2010PropOp31
 70
     1
102
RTVSPost2010Prop32
280
     0
102
RTVSPost2010PropOp32
 70
     1
102
RTVSPost2010Prop33
280
     0
102
RTVSPost2010PropOp33
 70
     1
102
RTVSPost2010Prop34
280
     0
102
RTVSPost2010PropOp34
 70
     1
102
RTVSPost2010Prop35
280
     0
102
RTVSPost2010PropOp35
 70
     1
102
RTVSPost2010Prop36
280
     0
102
RTVSPost2010PropOp36
 70
     1
102
RTVSPost2010Prop37
 90
       50
102
RTVSPost2010PropOp37
 70
     1
102
RTVSPost2010Prop38
140
0.0
102
RTVSPost2010PropOp38
 70
     1
102
RTVSPost2010Prop39
140
1.0
102
RTVSPost2010PropOp39
 70
     1
102
RTVSPost2010Prop40
 90
        0
102
RTVSPost2010PropOp40
 70
     1
102
RTVSPost2010Prop41ColorIndex
 90
       18
102
RTVSPost2010Prop41ColorRGB
 90
        0
102
RTVSPost2010PropOp41
 70
     1
102
RTVSPost2010Prop42
 90
       50
102
RTVSPost2010PropOp42
 70
     1
102
RTVSPost2010Prop43
 90
        3
102
RTVSPost2010PropOp43
 70
     1
102
RTVSPost2010Prop44ColorIndex
 90
        5
102
RTVSPost2010Prop44ColorRGB
 90
      255
102
RTVSPost2010PropOp44
 70
     1
102
RTVSPost2010Prop45
280
     0
102
RTVSPost2010PropOp45
 70
     1
102
RTVSPost2010Prop46
 90
       50
102
RTVSPost2010PropOp46
 70
     1
102
RTVSPost2010Prop47
 90
       50
102
RTVSPost2010PropOp47
 70
     1
102
RTVSPost2010Prop48
 90
       50
102
RTVSPost2010PropOp48
 70
     1
102
RTVSPost2010Prop49
280
     0
102
RTVSPost2010PropOp49
 70
     1
102
RTVSPost2010Prop50
 90
       50
102
RTVSPost2010PropOp50
 70
     1
102
RTVSPost2010Prop51ColorIndex
 90
      256
102
RTVSPost2010Prop51ColorRGB
 90
-16777216
102
RTVSPost2010PropOp51
 70
     0
102
RTVSPost2010Prop52
140
1.0
102
RTVSPost2010PropOp52
 70
     0
102
RTVSPost2010Prop53
 90
        2
102
RTVSPost2010PropOp53
 70
     1
102
RTVSPost2010Prop54
  1
strokes_ogs.tif
102
RTVSPost2010PropOp54
 70
     1
102
RTVSPost2010Prop55
280
     0
102
RTVSPost2010PropOp55
 70
     1
102
RTVSPost2010Prop56
140
1.0
102
RTVSPost2010PropOp56
 70
     1
102
RTVSPost2010Prop57
140
1.0
102
RTVSPost2010PropOp57
 70
     1
102
RTVSPropertyOp0
 70
     1
102
RTVSPropertyOp1
 70
     1
102
RTVSPropertyOp2
 70
     1
102
RTVSPropertyOp3
 70
     1
102
RTVSPropertyOp4
 70
     1
102
RTVSPropertyOp5
 70
     1
102
RTVSPropertyOp6
 70
     1
102
RTVSPropertyOp7
 70
     1
102
RTVSPropertyOp8
 70
     1
102
RTVSPropertyOp9
 70
     1
102
RTVSPropertyOp10
 70
     1
102
RTVSPropertyOp11
 70
     1
102
RTVSPropertyOp12
 70
     1
102
RTVSPropertyOp13
 70
     1
102
RTVSPropertyOp14
 70
     1
102
RTVSPropertyOp15
 70
     1
102
RTVSPropertyOp16
 70
     1
102
RTVSPropertyOp17
 70
     1
102
RTVSPropertyOp18
 70
     1
102
RTVSPropertyOp19
 70
     1
102
RTVSPropertyOp20
 70
     1
102
RTVSPropertyOp21
 70
     1
102
RTVSPropertyOp22
 70
     1
102
RTVSPropertyOp23
 70
     1
102
RTVSPropertyOp24
 70
     1
102
RTVSPropertyOp25
 70
     1
102
RTVSPropertyOp26
 70
     1
102
RTVSPropertyOp27
 70
     1
102
RTVSPropertyOp28
 70
     1
102
RTVSPropertyOp29
 70
     1
102
RTVSPropertyOp30
 70
     1
102
RTVSPropertyOp31
 70
     1
102
RTVSPropertyOp32
 70
     1
102
RTVSPropertyOp33
 70
     1
102
RTVSPropertyOp34
 70
     1
102
RTVSPropertyOp35
 70
     1
102
RTVSPropertyOp36
 70
     1
102
RTVSPropertyOp37
 70
     1
102
RTVSPropertyOp38
 70
     1
102
RTVSPropertyOp39
 70
     1
102
RTVSPropertyOp40
 70
     1
102
RTVSPropertyOp41
 70
     1
102
RTVSPropertyOp42
 70
     1
102
RTVSPropertyOp43
 70
     1
102
RTVSPropertyOp44
 70
     1
102
RTVSPropertyOp45
 70
     1
102
RTVSPropertyOp46
 70
     1
102
RTVSPropertyOp47
 70
     1
102
RTVSPropertyOp48
 70
     1
102
RTVSPropertyOp49
 70
     1
102
RTVSPropertyOp50
 70
     1
102
RTVSPropertyOp51
 70
     0
102
RTVSPropertyOp52
 70
     0
102
RTVSPropertyOp53
 70
     1
102
RTVSPropertyOp54
 70
     1
102
RTVSPropertyOp55
 70
     1
102
RTVSPropertyOp56
 70
     1
102
RTVSPropertyOp57
 70
     1
102
RTVSPropertyOp58
 70
     1
102
RTVSPropertyOp59
 70
     1
102
RTVSPropertyOp60
 70
     1
102
RTVSPropertyOp61
 70
     1
102
RTVSPropertyOp62
 70
     1
  0
XRECORD
  5
34585
102
{ACAD_REACTORS
330
34584
102
}
330
34584
100
AcDbXrecord
280
     1
102
RTVSPost2010Prop28
280
     0
102
RTVSPost2010PropOp28
 70
     1
102
RTVSPost2010Prop29
280
     1
102
RTVSPost2010PropOp29
 70
     1
102
RTVSPost2010Prop30
280
     1
102
RTVSPost2010PropOp30
 70
     1
102
RTVSPost2010Prop31
280
     0
102
RTVSPost2010PropOp31
 70
     1
102
RTVSPost2010Prop32
280
     0
102
RTVSPost2010PropOp32
 70
     1
102
RTVSPost2010Prop33
280
     0
102
RTVSPost2010PropOp33
 70
     1
102
RTVSPost2010Prop34
280
     0
102
RTVSPost2010PropOp34
 70
     1
102
RTVSPost2010Prop35
280
     0
102
RTVSPost2010PropOp35
 70
     1
102
RTVSPost2010Prop36
280
     0
102
RTVSPost2010PropOp36
 70
     1
102
RTVSPost2010Prop37
 90
       50
102
RTVSPost2010PropOp37
 70
     1
102
RTVSPost2010Prop38
140
0.0
102
RTVSPost2010PropOp38
 70
     1
102
RTVSPost2010Prop39
140
1.0
102
RTVSPost2010PropOp39
 70
     1
102
RTVSPost2010Prop40
 90
        0
102
RTVSPost2010PropOp40
 70
     1
102
RTVSPost2010Prop41ColorIndex
 90
       18
102
RTVSPost2010Prop41ColorRGB
 90
        0
102
RTVSPost2010PropOp41
 70
     1
102
RTVSPost2010Prop42
 90
       50
102
RTVSPost2010PropOp42
 70
     1
102
RTVSPost2010Prop43
 90
        3
102
RTVSPost2010PropOp43
 70
     1
102
RTVSPost2010Prop44ColorIndex
 90
        5
102
RTVSPost2010Prop44ColorRGB
 90
      255
102
RTVSPost2010PropOp44
 70
     1
102
RTVSPost2010Prop45
280
     0
102
RTVSPost2010PropOp45
 70
     1
102
RTVSPost2010Prop46
 90
       50
102
RTVSPost2010PropOp46
 70
     1
102
RTVSPost2010Prop47
 90
       50
102
RTVSPost2010PropOp47
 70
     1
102
RTVSPost2010Prop48
 90
       50
102
RTVSPost2010PropOp48
 70
     1
102
RTVSPost2010Prop49
280
     0
102
RTVSPost2010PropOp49
 70
     1
102
RTVSPost2010Prop50
 90
       50
102
RTVSPost2010PropOp50
 70
     1
102
RTVSPost2010Prop51ColorIndex
 90
      256
102
RTVSPost2010Prop51ColorRGB
 90
-16777216
102
RTVSPost2010PropOp51
 70
     0
102
RTVSPost2010Prop52
140
1.0
102
RTVSPost2010PropOp52
 70
     0
102
RTVSPost2010Prop53
 90
        2
102
RTVSPost2010PropOp53
 70
     1
102
RTVSPost2010Prop54
  1
strokes_ogs.tif
102
RTVSPost2010PropOp54
 70
     1
102
RTVSPost2010Prop55
280
     0
102
RTVSPost2010PropOp55
 70
     1
102
RTVSPost2010Prop56
140
1.0
102
RTVSPost2010PropOp56
 70
     1
102
RTVSPost2010Prop57
140
1.0
102
RTVSPost2010PropOp57
 70
     1
102
RTVSPropertyOp0
 70
     1
102
RTVSPropertyOp1
 70
     1
102
RTVSPropertyOp2
 70
     1
102
RTVSPropertyOp3
 70
     1
102
RTVSPropertyOp4
 70
     1
102
RTVSPropertyOp5
 70
     1
102
RTVSPropertyOp6
 70
     1
102
RTVSPropertyOp7
 70
     1
102
RTVSPropertyOp8
 70
     1
102
RTVSPropertyOp9
 70
     1
102
RTVSPropertyOp10
 70
     1
102
RTVSPropertyOp11
 70
     1
102
RTVSPropertyOp12
 70
     1
102
RTVSPropertyOp13
 70
     1
102
RTVSPropertyOp14
 70
     1
102
RTVSPropertyOp15
 70
     1
102
RTVSPropertyOp16
 70
     1
102
RTVSPropertyOp17
 70
     1
102
RTVSPropertyOp18
 70
     1
102
RTVSPropertyOp19
 70
     1
102
RTVSPropertyOp20
 70
     1
102
RTVSPropertyOp21
 70
     1
102
RTVSPropertyOp22
 70
     1
102
RTVSPropertyOp23
 70
     1
102
RTVSPropertyOp24
 70
     1
102
RTVSPropertyOp25
 70
     1
102
RTVSPropertyOp26
 70
     1
102
RTVSPropertyOp27
 70
     1
102
RTVSPropertyOp28
 70
     1
102
RTVSPropertyOp29
 70
     1
102
RTVSPropertyOp30
 70
     1
102
RTVSPropertyOp31
 70
     1
102
RTVSPropertyOp32
 70
     1
102
RTVSPropertyOp33
 70
     1
102
RTVSPropertyOp34
 70
     1
102
RTVSPropertyOp35
 70
     1
102
RTVSPropertyOp36
 70
     1
102
RTVSPropertyOp37
 70
     1
102
RTVSPropertyOp38
 70
     1
102
RTVSPropertyOp39
 70
     1
102
RTVSPropertyOp40
 70
     1
102
RTVSPropertyOp41
 70
     1
102
RTVSPropertyOp42
 70
     1
102
RTVSPropertyOp43
 70
     1
102
RTVSPropertyOp44
 70
     1
102
RTVSPropertyOp45
 70
     1
102
RTVSPropertyOp46
 70
     1
102
RTVSPropertyOp47
 70
     1
102
RTVSPropertyOp48
 70
     1
102
RTVSPropertyOp49
 70
     1
102
RTVSPropertyOp50
 70
     1
102
RTVSPropertyOp51
 70
     0
102
RTVSPropertyOp52
 70
     0
102
RTVSPropertyOp53
 70
     1
102
RTVSPropertyOp54
 70
     1
102
RTVSPropertyOp55
 70
     1
102
RTVSPropertyOp56
 70
     1
102
RTVSPropertyOp57
 70
     1
102
RTVSPropertyOp58
 70
     1
102
RTVSPropertyOp59
 70
     1
102
RTVSPropertyOp60
 70
     1
102
RTVSPropertyOp61
 70
     1
102
RTVSPropertyOp62
 70
     1
  0
XRECORD
  5
34577
102
{ACAD_REACTORS
330
34576
102
}
330
34576
100
AcDbXrecord
280
     1
102
RTVSPost2010Prop28
280
     0
102
RTVSPost2010PropOp28
 70
     1
102
RTVSPost2010Prop29
280
     1
102
RTVSPost2010PropOp29
 70
     1
102
RTVSPost2010Prop30
280
     1
102
RTVSPost2010PropOp30
 70
     1
102
RTVSPost2010Prop31
280
     0
102
RTVSPost2010PropOp31
 70
     1
102
RTVSPost2010Prop32
280
     0
102
RTVSPost2010PropOp32
 70
     1
102
RTVSPost2010Prop33
280
     0
102
RTVSPost2010PropOp33
 70
     1
102
RTVSPost2010Prop34
280
     0
102
RTVSPost2010PropOp34
 70
     1
102
RTVSPost2010Prop35
280
     0
102
RTVSPost2010PropOp35
 70
     1
102
RTVSPost2010Prop36
280
     0
102
RTVSPost2010PropOp36
 70
     1
102
RTVSPost2010Prop37
 90
       50
102
RTVSPost2010PropOp37
 70
     1
102
RTVSPost2010Prop38
140
0.0
102
RTVSPost2010PropOp38
 70
     1
102
RTVSPost2010Prop39
140
1.0
102
RTVSPost2010PropOp39
 70
     1
102
RTVSPost2010Prop40
 90
        0
102
RTVSPost2010PropOp40
 70
     1
102
RTVSPost2010Prop41ColorIndex
 90
       18
102
RTVSPost2010Prop41ColorRGB
 90
        0
102
RTVSPost2010PropOp41
 70
     1
102
RTVSPost2010Prop42
 90
       50
102
RTVSPost2010PropOp42
 70
     1
102
RTVSPost2010Prop43
 90
        3
102
RTVSPost2010PropOp43
 70
     1
102
RTVSPost2010Prop44ColorIndex
 90
        5
102
RTVSPost2010Prop44ColorRGB
 90
      255
102
RTVSPost2010PropOp44
 70
     1
102
RTVSPost2010Prop45
280
     0
102
RTVSPost2010PropOp45
 70
     1
102
RTVSPost2010Prop46
 90
       50
102
RTVSPost2010PropOp46
 70
     1
102
RTVSPost2010Prop47
 90
       50
102
RTVSPost2010PropOp47
 70
     1
102
RTVSPost2010Prop48
 90
       50
102
RTVSPost2010PropOp48
 70
     1
102
RTVSPost2010Prop49
280
     0
102
RTVSPost2010PropOp49
 70
     1
102
RTVSPost2010Prop50
 90
       50
102
RTVSPost2010PropOp50
 70
     1
102
RTVSPost2010Prop51ColorIndex
 90
      256
102
RTVSPost2010Prop51ColorRGB
 90
-16777216
102
RTVSPost2010PropOp51
 70
     0
102
RTVSPost2010Prop52
140
1.0
102
RTVSPost2010PropOp52
 70
     0
102
RTVSPost2010Prop53
 90
        2
102
RTVSPost2010PropOp53
 70
     1
102
RTVSPost2010Prop54
  1
strokes_ogs.tif
102
RTVSPost2010PropOp54
 70
     1
102
RTVSPost2010Prop55
280
     0
102
RTVSPost2010PropOp55
 70
     1
102
RTVSPost2010Prop56
140
1.0
102
RTVSPost2010PropOp56
 70
     1
102
RTVSPost2010Prop57
140
1.0
102
RTVSPost2010PropOp57
 70
     1
102
RTVSPropertyOp0
 70
     1
102
RTVSPropertyOp1
 70
     1
102
RTVSPropertyOp2
 70
     1
102
RTVSPropertyOp3
 70
     1
102
RTVSPropertyOp4
 70
     1
102
RTVSPropertyOp5
 70
     1
102
RTVSPropertyOp6
 70
     1
102
RTVSPropertyOp7
 70
     1
102
RTVSPropertyOp8
 70
     1
102
RTVSPropertyOp9
 70
     1
102
RTVSPropertyOp10
 70
     1
102
RTVSPropertyOp11
 70
     1
102
RTVSPropertyOp12
 70
     1
102
RTVSPropertyOp13
 70
     1
102
RTVSPropertyOp14
 70
     1
102
RTVSPropertyOp15
 70
     1
102
RTVSPropertyOp16
 70
     1
102
RTVSPropertyOp17
 70
     1
102
RTVSPropertyOp18
 70
     1
102
RTVSPropertyOp19
 70
     1
102
RTVSPropertyOp20
 70
     1
102
RTVSPropertyOp21
 70
     1
102
RTVSPropertyOp22
 70
     1
102
RTVSPropertyOp23
 70
     1
102
RTVSPropertyOp24
 70
     1
102
RTVSPropertyOp25
 70
     1
102
RTVSPropertyOp26
 70
     1
102
RTVSPropertyOp27
 70
     1
102
RTVSPropertyOp28
 70
     1
102
RTVSPropertyOp29
 70
     1
102
RTVSPropertyOp30
 70
     1
102
RTVSPropertyOp31
 70
     1
102
RTVSPropertyOp32
 70
     1
102
RTVSPropertyOp33
 70
     1
102
RTVSPropertyOp34
 70
     1
102
RTVSPropertyOp35
 70
     1
102
RTVSPropertyOp36
 70
     1
102
RTVSPropertyOp37
 70
     1
102
RTVSPropertyOp38
 70
     1
102
RTVSPropertyOp39
 70
     1
102
RTVSPropertyOp40
 70
     1
102
RTVSPropertyOp41
 70
     1
102
RTVSPropertyOp42
 70
     1
102
RTVSPropertyOp43
 70
     1
102
RTVSPropertyOp44
 70
     1
102
RTVSPropertyOp45
 70
     1
102
RTVSPropertyOp46
 70
     1
102
RTVSPropertyOp47
 70
     1
102
RTVSPropertyOp48
 70
     1
102
RTVSPropertyOp49
 70
     1
102
RTVSPropertyOp50
 70
     1
102
RTVSPropertyOp51
 70
     0
102
RTVSPropertyOp52
 70
     0
102
RTVSPropertyOp53
 70
     1
102
RTVSPropertyOp54
 70
     1
102
RTVSPropertyOp55
 70
     1
102
RTVSPropertyOp56
 70
     1
102
RTVSPropertyOp57
 70
     1
102
RTVSPropertyOp58
 70
     1
102
RTVSPropertyOp59
 70
     1
102
RTVSPropertyOp60
 70
     1
102
RTVSPropertyOp61
 70
     1
102
RTVSPropertyOp62
 70
     1
  0
XRECORD
  5
3457B
102
{ACAD_REACTORS
330
3457A
102
}
330
3457A
100
AcDbXrecord
280
     1
102
RTVSPost2010Prop28
280
     0
102
RTVSPost2010PropOp28
 70
     1
102
RTVSPost2010Prop29
280
     1
102
RTVSPost2010PropOp29
 70
     1
102
RTVSPost2010Prop30
280
     1
102
RTVSPost2010PropOp30
 70
     1
102
RTVSPost2010Prop31
280
     0
102
RTVSPost2010PropOp31
 70
     1
102
RTVSPost2010Prop32
280
     0
102
RTVSPost2010PropOp32
 70
     1
102
RTVSPost2010Prop33
280
     0
102
RTVSPost2010PropOp33
 70
     1
102
RTVSPost2010Prop34
280
     0
102
RTVSPost2010PropOp34
 70
     1
102
RTVSPost2010Prop35
280
     0
102
RTVSPost2010PropOp35
 70
     1
102
RTVSPost2010Prop36
280
     0
102
RTVSPost2010PropOp36
 70
     1
102
RTVSPost2010Prop37
 90
       50
102
RTVSPost2010PropOp37
 70
     1
102
RTVSPost2010Prop38
140
0.0
102
RTVSPost2010PropOp38
 70
     1
102
RTVSPost2010Prop39
140
1.0
102
RTVSPost2010PropOp39
 70
     1
102
RTVSPost2010Prop40
 90
        0
102
RTVSPost2010PropOp40
 70
     1
102
RTVSPost2010Prop41ColorIndex
 90
       18
102
RTVSPost2010Prop41ColorRGB
 90
        0
102
RTVSPost2010PropOp41
 70
     1
102
RTVSPost2010Prop42
 90
       50
102
RTVSPost2010PropOp42
 70
     1
102
RTVSPost2010Prop43
 90
        3
102
RTVSPost2010PropOp43
 70
     1
102
RTVSPost2010Prop44ColorIndex
 90
        5
102
RTVSPost2010Prop44ColorRGB
 90
      255
102
RTVSPost2010PropOp44
 70
     1
102
RTVSPost2010Prop45
280
     0
102
RTVSPost2010PropOp45
 70
     1
102
RTVSPost2010Prop46
 90
       50
102
RTVSPost2010PropOp46
 70
     1
102
RTVSPost2010Prop47
 90
       50
102
RTVSPost2010PropOp47
 70
     1
102
RTVSPost2010Prop48
 90
       50
102
RTVSPost2010PropOp48
 70
     1
102
RTVSPost2010Prop49
280
     0
102
RTVSPost2010PropOp49
 70
     1
102
RTVSPost2010Prop50
 90
       50
102
RTVSPost2010PropOp50
 70
     1
102
RTVSPost2010Prop51ColorIndex
 90
      256
102
RTVSPost2010Prop51ColorRGB
 90
-16777216
102
RTVSPost2010PropOp51
 70
     0
102
RTVSPost2010Prop52
140
1.0
102
RTVSPost2010PropOp52
 70
     0
102
RTVSPost2010Prop53
 90
        2
102
RTVSPost2010PropOp53
 70
     1
102
RTVSPost2010Prop54
  1
strokes_ogs.tif
102
RTVSPost2010PropOp54
 70
     1
102
RTVSPost2010Prop55
280
     0
102
RTVSPost2010PropOp55
 70
     1
102
RTVSPost2010Prop56
140
1.0
102
RTVSPost2010PropOp56
 70
     1
102
RTVSPost2010Prop57
140
1.0
102
RTVSPost2010PropOp57
 70
     1
102
RTVSPropertyOp0
 70
     1
102
RTVSPropertyOp1
 70
     1
102
RTVSPropertyOp2
 70
     1
102
RTVSPropertyOp3
 70
     1
102
RTVSPropertyOp4
 70
     1
102
RTVSPropertyOp5
 70
     1
102
RTVSPropertyOp6
 70
     1
102
RTVSPropertyOp7
 70
     1
102
RTVSPropertyOp8
 70
     1
102
RTVSPropertyOp9
 70
     1
102
RTVSPropertyOp10
 70
     1
102
RTVSPropertyOp11
 70
     1
102
RTVSPropertyOp12
 70
     1
102
RTVSPropertyOp13
 70
     1
102
RTVSPropertyOp14
 70
     1
102
RTVSPropertyOp15
 70
     1
102
RTVSPropertyOp16
 70
     1
102
RTVSPropertyOp17
 70
     1
102
RTVSPropertyOp18
 70
     1
102
RTVSPropertyOp19
 70
     1
102
RTVSPropertyOp20
 70
     1
102
RTVSPropertyOp21
 70
     1
102
RTVSPropertyOp22
 70
     1
102
RTVSPropertyOp23
 70
     1
102
RTVSPropertyOp24
 70
     1
102
RTVSPropertyOp25
 70
     1
102
RTVSPropertyOp26
 70
     1
102
RTVSPropertyOp27
 70
     1
102
RTVSPropertyOp28
 70
     1
102
RTVSPropertyOp29
 70
     1
102
RTVSPropertyOp30
 70
     1
102
RTVSPropertyOp31
 70
     1
102
RTVSPropertyOp32
 70
     1
102
RTVSPropertyOp33
 70
     1
102
RTVSPropertyOp34
 70
     1
102
RTVSPropertyOp35
 70
     1
102
RTVSPropertyOp36
 70
     1
102
RTVSPropertyOp37
 70
     1
102
RTVSPropertyOp38
 70
     1
102
RTVSPropertyOp39
 70
     1
102
RTVSPropertyOp40
 70
     1
102
RTVSPropertyOp41
 70
     1
102
RTVSPropertyOp42
 70
     1
102
RTVSPropertyOp43
 70
     1
102
RTVSPropertyOp44
 70
     1
102
RTVSPropertyOp45
 70
     1
102
RTVSPropertyOp46
 70
     1
102
RTVSPropertyOp47
 70
     1
102
RTVSPropertyOp48
 70
     1
102
RTVSPropertyOp49
 70
     1
102
RTVSPropertyOp50
 70
     1
102
RTVSPropertyOp51
 70
     0
102
RTVSPropertyOp52
 70
     0
102
RTVSPropertyOp53
 70
     1
102
RTVSPropertyOp54
 70
     1
102
RTVSPropertyOp55
 70
     1
102
RTVSPropertyOp56
 70
     1
102
RTVSPropertyOp57
 70
     1
102
RTVSPropertyOp58
 70
     1
102
RTVSPropertyOp59
 70
     1
102
RTVSPropertyOp60
 70
     1
102
RTVSPropertyOp61
 70
     1
102
RTVSPropertyOp62
 70
     1
  0
XRECORD
  5
34595
102
{ACAD_REACTORS
330
34594
102
}
330
34594
100
AcDbXrecord
280
     1
102
RTVSPost2010Prop28
280
     0
102
RTVSPost2010PropOp28
 70
     0
102
RTVSPost2010Prop29
280
     1
102
RTVSPost2010PropOp29
 70
     0
102
RTVSPost2010Prop30
280
     1
102
RTVSPost2010PropOp30
 70
     0
102
RTVSPost2010Prop31
280
     0
102
RTVSPost2010PropOp31
 70
     0
102
RTVSPost2010Prop32
280
     0
102
RTVSPost2010PropOp32
 70
     0
102
RTVSPost2010Prop33
280
     0
102
RTVSPost2010PropOp33
 70
     0
102
RTVSPost2010Prop34
280
     0
102
RTVSPost2010PropOp34
 70
     0
102
RTVSPost2010Prop35
280
     0
102
RTVSPost2010PropOp35
 70
     0
102
RTVSPost2010Prop36
280
     0
102
RTVSPost2010PropOp36
 70
     0
102
RTVSPost2010Prop37
 90
       50
102
RTVSPost2010PropOp37
 70
     0
102
RTVSPost2010Prop38
140
0.0
102
RTVSPost2010PropOp38
 70
     0
102
RTVSPost2010Prop39
140
1.0
102
RTVSPost2010PropOp39
 70
     0
102
RTVSPost2010Prop40
 90
        0
102
RTVSPost2010PropOp40
 70
     0
102
RTVSPost2010Prop41ColorIndex
 90
       18
102
RTVSPost2010Prop41ColorRGB
 90
        0
102
RTVSPost2010PropOp41
 70
     0
102
RTVSPost2010Prop42
 90
       50
102
RTVSPost2010PropOp42
 70
     0
102
RTVSPost2010Prop43
 90
        3
102
RTVSPost2010PropOp43
 70
     0
102
RTVSPost2010Prop44ColorIndex
 90
        5
102
RTVSPost2010Prop44ColorRGB
 90
      255
102
RTVSPost2010PropOp44
 70
     0
102
RTVSPost2010Prop45
280
     0
102
RTVSPost2010PropOp45
 70
     0
102
RTVSPost2010Prop46
 90
       50
102
RTVSPost2010PropOp46
 70
     0
102
RTVSPost2010Prop47
 90
       50
102
RTVSPost2010PropOp47
 70
     0
102
RTVSPost2010Prop48
 90
       50
102
RTVSPost2010PropOp48
 70
     0
102
RTVSPost2010Prop49
280
     0
102
RTVSPost2010PropOp49
 70
     0
102
RTVSPost2010Prop50
 90
       50
102
RTVSPost2010PropOp50
 70
     0
102
RTVSPost2010Prop51ColorIndex
 90
      256
102
RTVSPost2010Prop51ColorRGB
 90
-16777216
102
RTVSPost2010PropOp51
 70
     0
102
RTVSPost2010Prop52
140
1.0
102
RTVSPost2010PropOp52
 70
     0
102
RTVSPost2010Prop53
 90
        2
102
RTVSPost2010PropOp53
 70
     0
102
RTVSPost2010Prop54
  1
strokes_ogs.tif
102
RTVSPost2010PropOp54
 70
     0
102
RTVSPost2010Prop55
280
     0
102
RTVSPost2010PropOp55
 70
     0
102
RTVSPost2010Prop56
140
1.0
102
RTVSPost2010PropOp56
 70
     0
102
RTVSPost2010Prop57
140
1.0
102
RTVSPost2010PropOp57
 70
     0
102
RTVSPropertyOp0
 70
     0
102
RTVSPropertyOp1
 70
     0
102
RTVSPropertyOp2
 70
     0
102
RTVSPropertyOp3
 70
     0
102
RTVSPropertyOp4
 70
     0
102
RTVSPropertyOp5
 70
     0
102
RTVSPropertyOp6
 70
     0
102
RTVSPropertyOp7
 70
     0
102
RTVSPropertyOp8
 70
     0
102
RTVSPropertyOp9
 70
     0
102
RTVSPropertyOp10
 70
     0
102
RTVSPropertyOp11
 70
     0
102
RTVSPropertyOp12
 70
     0
102
RTVSPropertyOp13
 70
     0
102
RTVSPropertyOp14
 70
     2
102
RTVSPropertyOp15
 70
     0
102
RTVSPropertyOp16
 70
     0
102
RTVSPropertyOp17
 70
     0
102
RTVSPropertyOp18
 70
     0
102
RTVSPropertyOp19
 70
     0
102
RTVSPropertyOp20
 70
     0
102
RTVSPropertyOp21
 70
     0
102
RTVSPropertyOp22
 70
     0
102
RTVSPropertyOp23
 70
     0
102
RTVSPropertyOp24
 70
     0
102
RTVSPropertyOp25
 70
     0
102
RTVSPropertyOp26
 70
     0
102
RTVSPropertyOp27
 70
     0
102
RTVSPropertyOp28
 70
     0
102
RTVSPropertyOp29
 70
     0
102
RTVSPropertyOp30
 70
     0
102
RTVSPropertyOp31
 70
     0
102
RTVSPropertyOp32
 70
     0
102
RTVSPropertyOp33
 70
     0
102
RTVSPropertyOp34
 70
     0
102
RTVSPropertyOp35
 70
     0
102
RTVSPropertyOp36
 70
     0
102
RTVSPropertyOp37
 70
     0
102
RTVSPropertyOp38
 70
     0
102
RTVSPropertyOp39
 70
     0
102
RTVSPropertyOp40
 70
     0
102
RTVSPropertyOp41
 70
     0
102
RTVSPropertyOp42
 70
     0
102
RTVSPropertyOp43
 70
     0
102
RTVSPropertyOp44
 70
     0
102
RTVSPropertyOp45
 70
     0
102
RTVSPropertyOp46
 70
     0
102
RTVSPropertyOp47
 70
     0
102
RTVSPropertyOp48
 70
     0
102
RTVSPropertyOp49
 70
     0
102
RTVSPropertyOp50
 70
     0
102
RTVSPropertyOp51
 70
     0
102
RTVSPropertyOp52
 70
     0
102
RTVSPropertyOp53
 70
     0
102
RTVSPropertyOp54
 70
     0
102
RTVSPropertyOp55
 70
     0
102
RTVSPropertyOp56
 70
     0
102
RTVSPropertyOp57
 70
     0
102
RTVSPropertyOp58
 70
     0
102
RTVSPropertyOp59
 70
     0
102
RTVSPropertyOp60
 70
     0
102
RTVSPropertyOp61
 70
     0
102
RTVSPropertyOp62
 70
     0
  0
XRECORD
  5
34583
102
{ACAD_REACTORS
330
34582
102
}
330
34582
100
AcDbXrecord
280
     1
102
RTVSPost2010Prop28
280
     0
102
RTVSPost2010PropOp28
 70
     1
102
RTVSPost2010Prop29
280
     1
102
RTVSPost2010PropOp29
 70
     1
102
RTVSPost2010Prop30
280
     1
102
RTVSPost2010PropOp30
 70
     1
102
RTVSPost2010Prop31
280
     0
102
RTVSPost2010PropOp31
 70
     1
102
RTVSPost2010Prop32
280
     0
102
RTVSPost2010PropOp32
 70
     1
102
RTVSPost2010Prop33
280
     0
102
RTVSPost2010PropOp33
 70
     1
102
RTVSPost2010Prop34
280
     0
102
RTVSPost2010PropOp34
 70
     1
102
RTVSPost2010Prop35
280
     0
102
RTVSPost2010PropOp35
 70
     1
102
RTVSPost2010Prop36
280
     0
102
RTVSPost2010PropOp36
 70
     1
102
RTVSPost2010Prop37
 90
       50
102
RTVSPost2010PropOp37
 70
     1
102
RTVSPost2010Prop38
140
0.0
102
RTVSPost2010PropOp38
 70
     1
102
RTVSPost2010Prop39
140
1.0
102
RTVSPost2010PropOp39
 70
     1
102
RTVSPost2010Prop40
 90
        0
102
RTVSPost2010PropOp40
 70
     1
102
RTVSPost2010Prop41ColorIndex
 90
       18
102
RTVSPost2010Prop41ColorRGB
 90
        0
102
RTVSPost2010PropOp41
 70
     1
102
RTVSPost2010Prop42
 90
       50
102
RTVSPost2010PropOp42
 70
     1
102
RTVSPost2010Prop43
 90
        3
102
RTVSPost2010PropOp43
 70
     1
102
RTVSPost2010Prop44ColorIndex
 90
        5
102
RTVSPost2010Prop44ColorRGB
 90
      255
102
RTVSPost2010PropOp44
 70
     1
102
RTVSPost2010Prop45
280
     0
102
RTVSPost2010PropOp45
 70
     1
102
RTVSPost2010Prop46
 90
       50
102
RTVSPost2010PropOp46
 70
     1
102
RTVSPost2010Prop47
 90
       50
102
RTVSPost2010PropOp47
 70
     1
102
RTVSPost2010Prop48
 90
       50
102
RTVSPost2010PropOp48
 70
     1
102
RTVSPost2010Prop49
280
     0
102
RTVSPost2010PropOp49
 70
     1
102
RTVSPost2010Prop50
 90
       50
102
RTVSPost2010PropOp50
 70
     1
102
RTVSPost2010Prop51ColorIndex
 90
      256
102
RTVSPost2010Prop51ColorRGB
 90
-16777216
102
RTVSPost2010PropOp51
 70
     0
102
RTVSPost2010Prop52
140
1.0
102
RTVSPost2010PropOp52
 70
     0
102
RTVSPost2010Prop53
 90
        2
102
RTVSPost2010PropOp53
 70
     1
102
RTVSPost2010Prop54
  1
strokes_ogs.tif
102
RTVSPost2010PropOp54
 70
     1
102
RTVSPost2010Prop55
280
     0
102
RTVSPost2010PropOp55
 70
     1
102
RTVSPost2010Prop56
140
1.0
102
RTVSPost2010PropOp56
 70
     1
102
RTVSPost2010Prop57
140
1.0
102
RTVSPost2010PropOp57
 70
     1
102
RTVSPropertyOp0
 70
     1
102
RTVSPropertyOp1
 70
     1
102
RTVSPropertyOp2
 70
     1
102
RTVSPropertyOp3
 70
     1
102
RTVSPropertyOp4
 70
     1
102
RTVSPropertyOp5
 70
     1
102
RTVSPropertyOp6
 70
     1
102
RTVSPropertyOp7
 70
     1
102
RTVSPropertyOp8
 70
     1
102
RTVSPropertyOp9
 70
     1
102
RTVSPropertyOp10
 70
     1
102
RTVSPropertyOp11
 70
     1
102
RTVSPropertyOp12
 70
     1
102
RTVSPropertyOp13
 70
     1
102
RTVSPropertyOp14
 70
     1
102
RTVSPropertyOp15
 70
     1
102
RTVSPropertyOp16
 70
     1
102
RTVSPropertyOp17
 70
     1
102
RTVSPropertyOp18
 70
     1
102
RTVSPropertyOp19
 70
     1
102
RTVSPropertyOp20
 70
     1
102
RTVSPropertyOp21
 70
     1
102
RTVSPropertyOp22
 70
     1
102
RTVSPropertyOp23
 70
     1
102
RTVSPropertyOp24
 70
     1
102
RTVSPropertyOp25
 70
     1
102
RTVSPropertyOp26
 70
     1
102
RTVSPropertyOp27
 70
     1
102
RTVSPropertyOp28
 70
     1
102
RTVSPropertyOp29
 70
     1
102
RTVSPropertyOp30
 70
     1
102
RTVSPropertyOp31
 70
     1
102
RTVSPropertyOp32
 70
     1
102
RTVSPropertyOp33
 70
     1
102
RTVSPropertyOp34
 70
     1
102
RTVSPropertyOp35
 70
     1
102
RTVSPropertyOp36
 70
     1
102
RTVSPropertyOp37
 70
     1
102
RTVSPropertyOp38
 70
     1
102
RTVSPropertyOp39
 70
     1
102
RTVSPropertyOp40
 70
     1
102
RTVSPropertyOp41
 70
     1
102
RTVSPropertyOp42
 70
     1
102
RTVSPropertyOp43
 70
     1
102
RTVSPropertyOp44
 70
     1
102
RTVSPropertyOp45
 70
     1
102
RTVSPropertyOp46
 70
     1
102
RTVSPropertyOp47
 70
     1
102
RTVSPropertyOp48
 70
     1
102
RTVSPropertyOp49
 70
     1
102
RTVSPropertyOp50
 70
     1
102
RTVSPropertyOp51
 70
     0
102
RTVSPropertyOp52
 70
     0
102
RTVSPropertyOp53
 70
     1
102
RTVSPropertyOp54
 70
     1
102
RTVSPropertyOp55
 70
     1
102
RTVSPropertyOp56
 70
     1
102
RTVSPropertyOp57
 70
     1
102
RTVSPropertyOp58
 70
     1
102
RTVSPropertyOp59
 70
     1
102
RTVSPropertyOp60
 70
     1
102
RTVSPropertyOp61
 70
     1
102
RTVSPropertyOp62
 70
     1
  0
XRECORD
  5
34567
102
{ACAD_REACTORS
330
34566
102
}
330
34566
100
AcDbXrecord
280
     1
102
RTVSPost2010Prop28
280
     0
102
RTVSPost2010PropOp28
 70
     1
102
RTVSPost2010Prop29
280
     1
102
RTVSPost2010PropOp29
 70
     1
102
RTVSPost2010Prop30
280
     1
102
RTVSPost2010PropOp30
 70
     1
102
RTVSPost2010Prop31
280
     0
102
RTVSPost2010PropOp31
 70
     1
102
RTVSPost2010Prop32
280
     0
102
RTVSPost2010PropOp32
 70
     1
102
RTVSPost2010Prop33
280
     0
102
RTVSPost2010PropOp33
 70
     1
102
RTVSPost2010Prop34
280
     0
102
RTVSPost2010PropOp34
 70
     1
102
RTVSPost2010Prop35
280
     0
102
RTVSPost2010PropOp35
 70
     1
102
RTVSPost2010Prop36
280
     0
102
RTVSPost2010PropOp36
 70
     1
102
RTVSPost2010Prop37
 90
       50
102
RTVSPost2010PropOp37
 70
     1
102
RTVSPost2010Prop38
140
0.0
102
RTVSPost2010PropOp38
 70
     1
102
RTVSPost2010Prop39
140
1.0
102
RTVSPost2010PropOp39
 70
     1
102
RTVSPost2010Prop40
 90
        0
102
RTVSPost2010PropOp40
 70
     1
102
RTVSPost2010Prop41ColorIndex
 90
       18
102
RTVSPost2010Prop41ColorRGB
 90
        0
102
RTVSPost2010PropOp41
 70
     1
102
RTVSPost2010Prop42
 90
       50
102
RTVSPost2010PropOp42
 70
     1
102
RTVSPost2010Prop43
 90
        3
102
RTVSPost2010PropOp43
 70
     1
102
RTVSPost2010Prop44ColorIndex
 90
        5
102
RTVSPost2010Prop44ColorRGB
 90
      255
102
RTVSPost2010PropOp44
 70
     1
102
RTVSPost2010Prop45
280
     0
102
RTVSPost2010PropOp45
 70
     1
102
RTVSPost2010Prop46
 90
       50
102
RTVSPost2010PropOp46
 70
     1
102
RTVSPost2010Prop47
 90
       50
102
RTVSPost2010PropOp47
 70
     1
102
RTVSPost2010Prop48
 90
       50
102
RTVSPost2010PropOp48
 70
     1
102
RTVSPost2010Prop49
280
     0
102
RTVSPost2010PropOp49
 70
     1
102
RTVSPost2010Prop50
 90
       50
102
RTVSPost2010PropOp50
 70
     1
102
RTVSPost2010Prop51ColorIndex
 90
      256
102
RTVSPost2010Prop51ColorRGB
 90
-16777216
102
RTVSPost2010PropOp51
 70
     0
102
RTVSPost2010Prop52
140
1.0
102
RTVSPost2010PropOp52
 70
     0
102
RTVSPost2010Prop53
 90
        2
102
RTVSPost2010PropOp53
 70
     1
102
RTVSPost2010Prop54
  1
strokes_ogs.tif
102
RTVSPost2010PropOp54
 70
     1
102
RTVSPost2010Prop55
280
     0
102
RTVSPost2010PropOp55
 70
     1
102
RTVSPost2010Prop56
140
1.0
102
RTVSPost2010PropOp56
 70
     1
102
RTVSPost2010Prop57
140
1.0
102
RTVSPost2010PropOp57
 70
     1
102
RTVSPropertyOp0
 70
     1
102
RTVSPropertyOp1
 70
     1
102
RTVSPropertyOp2
 70
     1
102
RTVSPropertyOp3
 70
     1
102
RTVSPropertyOp4
 70
     1
102
RTVSPropertyOp5
 70
     1
102
RTVSPropertyOp6
 70
     1
102
RTVSPropertyOp7
 70
     1
102
RTVSPropertyOp8
 70
     1
102
RTVSPropertyOp9
 70
     1
102
RTVSPropertyOp10
 70
     1
102
RTVSPropertyOp11
 70
     1
102
RTVSPropertyOp12
 70
     1
102
RTVSPropertyOp13
 70
     1
102
RTVSPropertyOp14
 70
     1
102
RTVSPropertyOp15
 70
     1
102
RTVSPropertyOp16
 70
     1
102
RTVSPropertyOp17
 70
     1
102
RTVSPropertyOp18
 70
     1
102
RTVSPropertyOp19
 70
     1
102
RTVSPropertyOp20
 70
     1
102
RTVSPropertyOp21
 70
     1
102
RTVSPropertyOp22
 70
     1
102
RTVSPropertyOp23
 70
     1
102
RTVSPropertyOp24
 70
     1
102
RTVSPropertyOp25
 70
     1
102
RTVSPropertyOp26
 70
     1
102
RTVSPropertyOp27
 70
     1
102
RTVSPropertyOp28
 70
     1
102
RTVSPropertyOp29
 70
     1
102
RTVSPropertyOp30
 70
     1
102
RTVSPropertyOp31
 70
     1
102
RTVSPropertyOp32
 70
     1
102
RTVSPropertyOp33
 70
     1
102
RTVSPropertyOp34
 70
     1
102
RTVSPropertyOp35
 70
     1
102
RTVSPropertyOp36
 70
     1
102
RTVSPropertyOp37
 70
     1
102
RTVSPropertyOp38
 70
     1
102
RTVSPropertyOp39
 70
     1
102
RTVSPropertyOp40
 70
     1
102
RTVSPropertyOp41
 70
     1
102
RTVSPropertyOp42
 70
     1
102
RTVSPropertyOp43
 70
     1
102
RTVSPropertyOp44
 70
     1
102
RTVSPropertyOp45
 70
     1
102
RTVSPropertyOp46
 70
     1
102
RTVSPropertyOp47
 70
     1
102
RTVSPropertyOp48
 70
     1
102
RTVSPropertyOp49
 70
     1
102
RTVSPropertyOp50
 70
     1
102
RTVSPropertyOp51
 70
     0
102
RTVSPropertyOp52
 70
     0
102
RTVSPropertyOp53
 70
     1
102
RTVSPropertyOp54
 70
     1
102
RTVSPropertyOp55
 70
     1
102
RTVSPropertyOp56
 70
     1
102
RTVSPropertyOp57
 70
     1
102
RTVSPropertyOp58
 70
     1
102
RTVSPropertyOp59
 70
     1
102
RTVSPropertyOp60
 70
     1
102
RTVSPropertyOp61
 70
     1
102
RTVSPropertyOp62
 70
     1
  0
XRECORD
  5
34569
102
{ACAD_REACTORS
330
34568
102
}
330
34568
100
AcDbXrecord
280
     1
102
RTVSPost2010Prop28
280
     0
102
RTVSPost2010PropOp28
 70
     1
102
RTVSPost2010Prop29
280
     1
102
RTVSPost2010PropOp29
 70
     1
102
RTVSPost2010Prop30
280
     1
102
RTVSPost2010PropOp30
 70
     1
102
RTVSPost2010Prop31
280
     0
102
RTVSPost2010PropOp31
 70
     1
102
RTVSPost2010Prop32
280
     0
102
RTVSPost2010PropOp32
 70
     1
102
RTVSPost2010Prop33
280
     0
102
RTVSPost2010PropOp33
 70
     1
102
RTVSPost2010Prop34
280
     0
102
RTVSPost2010PropOp34
 70
     1
102
RTVSPost2010Prop35
280
     0
102
RTVSPost2010PropOp35
 70
     1
102
RTVSPost2010Prop36
280
     0
102
RTVSPost2010PropOp36
 70
     1
102
RTVSPost2010Prop37
 90
       50
102
RTVSPost2010PropOp37
 70
     1
102
RTVSPost2010Prop38
140
0.0
102
RTVSPost2010PropOp38
 70
     1
102
RTVSPost2010Prop39
140
1.0
102
RTVSPost2010PropOp39
 70
     1
102
RTVSPost2010Prop40
 90
        0
102
RTVSPost2010PropOp40
 70
     1
102
RTVSPost2010Prop41ColorIndex
 90
       18
102
RTVSPost2010Prop41ColorRGB
 90
        0
102
RTVSPost2010PropOp41
 70
     1
102
RTVSPost2010Prop42
 90
       50
102
RTVSPost2010PropOp42
 70
     1
102
RTVSPost2010Prop43
 90
        3
102
RTVSPost2010PropOp43
 70
     1
102
RTVSPost2010Prop44ColorIndex
 90
        5
102
RTVSPost2010Prop44ColorRGB
 90
      255
102
RTVSPost2010PropOp44
 70
     1
102
RTVSPost2010Prop45
280
     0
102
RTVSPost2010PropOp45
 70
     1
102
RTVSPost2010Prop46
 90
       50
102
RTVSPost2010PropOp46
 70
     1
102
RTVSPost2010Prop47
 90
       50
102
RTVSPost2010PropOp47
 70
     1
102
RTVSPost2010Prop48
 90
       50
102
RTVSPost2010PropOp48
 70
     1
102
RTVSPost2010Prop49
280
     0
102
RTVSPost2010PropOp49
 70
     1
102
RTVSPost2010Prop50
 90
       50
102
RTVSPost2010PropOp50
 70
     1
102
RTVSPost2010Prop51ColorIndex
 90
      256
102
RTVSPost2010Prop51ColorRGB
 90
-16777216
102
RTVSPost2010PropOp51
 70
     0
102
RTVSPost2010Prop52
140
1.0
102
RTVSPost2010PropOp52
 70
     0
102
RTVSPost2010Prop53
 90
        2
102
RTVSPost2010PropOp53
 70
     1
102
RTVSPost2010Prop54
  1
strokes_ogs.tif
102
RTVSPost2010PropOp54
 70
     1
102
RTVSPost2010Prop55
280
     0
102
RTVSPost2010PropOp55
 70
     1
102
RTVSPost2010Prop56
140
1.0
102
RTVSPost2010PropOp56
 70
     1
102
RTVSPost2010Prop57
140
1.0
102
RTVSPost2010PropOp57
 70
     1
102
RTVSPropertyOp0
 70
     1
102
RTVSPropertyOp1
 70
     1
102
RTVSPropertyOp2
 70
     1
102
RTVSPropertyOp3
 70
     1
102
RTVSPropertyOp4
 70
     1
102
RTVSPropertyOp5
 70
     1
102
RTVSPropertyOp6
 70
     1
102
RTVSPropertyOp7
 70
     1
102
RTVSPropertyOp8
 70
     1
102
RTVSPropertyOp9
 70
     1
102
RTVSPropertyOp10
 70
     1
102
RTVSPropertyOp11
 70
     1
102
RTVSPropertyOp12
 70
     1
102
RTVSPropertyOp13
 70
     1
102
RTVSPropertyOp14
 70
     1
102
RTVSPropertyOp15
 70
     1
102
RTVSPropertyOp16
 70
     1
102
RTVSPropertyOp17
 70
     1
102
RTVSPropertyOp18
 70
     1
102
RTVSPropertyOp19
 70
     1
102
RTVSPropertyOp20
 70
     1
102
RTVSPropertyOp21
 70
     1
102
RTVSPropertyOp22
 70
     1
102
RTVSPropertyOp23
 70
     1
102
RTVSPropertyOp24
 70
     1
102
RTVSPropertyOp25
 70
     1
102
RTVSPropertyOp26
 70
     1
102
RTVSPropertyOp27
 70
     1
102
RTVSPropertyOp28
 70
     1
102
RTVSPropertyOp29
 70
     1
102
RTVSPropertyOp30
 70
     1
102
RTVSPropertyOp31
 70
     1
102
RTVSPropertyOp32
 70
     1
102
RTVSPropertyOp33
 70
     1
102
RTVSPropertyOp34
 70
     1
102
RTVSPropertyOp35
 70
     1
102
RTVSPropertyOp36
 70
     1
102
RTVSPropertyOp37
 70
     1
102
RTVSPropertyOp38
 70
     1
102
RTVSPropertyOp39
 70
     1
102
RTVSPropertyOp40
 70
     1
102
RTVSPropertyOp41
 70
     1
102
RTVSPropertyOp42
 70
     1
102
RTVSPropertyOp43
 70
     1
102
RTVSPropertyOp44
 70
     1
102
RTVSPropertyOp45
 70
     1
102
RTVSPropertyOp46
 70
     1
102
RTVSPropertyOp47
 70
     1
102
RTVSPropertyOp48
 70
     1
102
RTVSPropertyOp49
 70
     1
102
RTVSPropertyOp50
 70
     1
102
RTVSPropertyOp51
 70
     0
102
RTVSPropertyOp52
 70
     0
102
RTVSPropertyOp53
 70
     1
102
RTVSPropertyOp54
 70
     1
102
RTVSPropertyOp55
 70
     1
102
RTVSPropertyOp56
 70
     1
102
RTVSPropertyOp57
 70
     1
102
RTVSPropertyOp58
 70
     1
102
RTVSPropertyOp59
 70
     1
102
RTVSPropertyOp60
 70
     1
102
RTVSPropertyOp61
 70
     1
102
RTVSPropertyOp62
 70
     1
  0
XRECORD
  5
3456B
102
{ACAD_REACTORS
330
3456A
102
}
330
3456A
100
AcDbXrecord
280
     1
102
RTVSPost2010Prop28
280
     0
102
RTVSPost2010PropOp28
 70
     1
102
RTVSPost2010Prop29
280
     1
102
RTVSPost2010PropOp29
 70
     1
102
RTVSPost2010Prop30
280
     1
102
RTVSPost2010PropOp30
 70
     1
102
RTVSPost2010Prop31
280
     0
102
RTVSPost2010PropOp31
 70
     1
102
RTVSPost2010Prop32
280
     0
102
RTVSPost2010PropOp32
 70
     1
102
RTVSPost2010Prop33
280
     0
102
RTVSPost2010PropOp33
 70
     1
102
RTVSPost2010Prop34
280
     0
102
RTVSPost2010PropOp34
 70
     1
102
RTVSPost2010Prop35
280
     0
102
RTVSPost2010PropOp35
 70
     1
102
RTVSPost2010Prop36
280
     0
102
RTVSPost2010PropOp36
 70
     1
102
RTVSPost2010Prop37
 90
       50
102
RTVSPost2010PropOp37
 70
     1
102
RTVSPost2010Prop38
140
0.0
102
RTVSPost2010PropOp38
 70
     1
102
RTVSPost2010Prop39
140
1.0
102
RTVSPost2010PropOp39
 70
     1
102
RTVSPost2010Prop40
 90
        0
102
RTVSPost2010PropOp40
 70
     1
102
RTVSPost2010Prop41ColorIndex
 90
       18
102
RTVSPost2010Prop41ColorRGB
 90
        0
102
RTVSPost2010PropOp41
 70
     1
102
RTVSPost2010Prop42
 90
       50
102
RTVSPost2010PropOp42
 70
     1
102
RTVSPost2010Prop43
 90
        3
102
RTVSPost2010PropOp43
 70
     1
102
RTVSPost2010Prop44ColorIndex
 90
        5
102
RTVSPost2010Prop44ColorRGB
 90
      255
102
RTVSPost2010PropOp44
 70
     1
102
RTVSPost2010Prop45
280
     0
102
RTVSPost2010PropOp45
 70
     1
102
RTVSPost2010Prop46
 90
       50
102
RTVSPost2010PropOp46
 70
     1
102
RTVSPost2010Prop47
 90
       50
102
RTVSPost2010PropOp47
 70
     1
102
RTVSPost2010Prop48
 90
       50
102
RTVSPost2010PropOp48
 70
     1
102
RTVSPost2010Prop49
280
     0
102
RTVSPost2010PropOp49
 70
     1
102
RTVSPost2010Prop50
 90
       50
102
RTVSPost2010PropOp50
 70
     1
102
RTVSPost2010Prop51ColorIndex
 90
      256
102
RTVSPost2010Prop51ColorRGB
 90
-16777216
102
RTVSPost2010PropOp51
 70
     0
102
RTVSPost2010Prop52
140
1.0
102
RTVSPost2010PropOp52
 70
     0
102
RTVSPost2010Prop53
 90
        2
102
RTVSPost2010PropOp53
 70
     1
102
RTVSPost2010Prop54
  1
strokes_ogs.tif
102
RTVSPost2010PropOp54
 70
     1
102
RTVSPost2010Prop55
280
     0
102
RTVSPost2010PropOp55
 70
     1
102
RTVSPost2010Prop56
140
1.0
102
RTVSPost2010PropOp56
 70
     1
102
RTVSPost2010Prop57
140
1.0
102
RTVSPost2010PropOp57
 70
     1
102
RTVSPropertyOp0
 70
     1
102
RTVSPropertyOp1
 70
     1
102
RTVSPropertyOp2
 70
     1
102
RTVSPropertyOp3
 70
     1
102
RTVSPropertyOp4
 70
     1
102
RTVSPropertyOp5
 70
     1
102
RTVSPropertyOp6
 70
     1
102
RTVSPropertyOp7
 70
     1
102
RTVSPropertyOp8
 70
     1
102
RTVSPropertyOp9
 70
     1
102
RTVSPropertyOp10
 70
     1
102
RTVSPropertyOp11
 70
     1
102
RTVSPropertyOp12
 70
     1
102
RTVSPropertyOp13
 70
     1
102
RTVSPropertyOp14
 70
     1
102
RTVSPropertyOp15
 70
     1
102
RTVSPropertyOp16
 70
     1
102
RTVSPropertyOp17
 70
     1
102
RTVSPropertyOp18
 70
     1
102
RTVSPropertyOp19
 70
     1
102
RTVSPropertyOp20
 70
     1
102
RTVSPropertyOp21
 70
     1
102
RTVSPropertyOp22
 70
     1
102
RTVSPropertyOp23
 70
     1
102
RTVSPropertyOp24
 70
     1
102
RTVSPropertyOp25
 70
     1
102
RTVSPropertyOp26
 70
     1
102
RTVSPropertyOp27
 70
     1
102
RTVSPropertyOp28
 70
     1
102
RTVSPropertyOp29
 70
     1
102
RTVSPropertyOp30
 70
     1
102
RTVSPropertyOp31
 70
     1
102
RTVSPropertyOp32
 70
     1
102
RTVSPropertyOp33
 70
     1
102
RTVSPropertyOp34
 70
     1
102
RTVSPropertyOp35
 70
     1
102
RTVSPropertyOp36
 70
     1
102
RTVSPropertyOp37
 70
     1
102
RTVSPropertyOp38
 70
     1
102
RTVSPropertyOp39
 70
     1
102
RTVSPropertyOp40
 70
     1
102
RTVSPropertyOp41
 70
     1
102
RTVSPropertyOp42
 70
     1
102
RTVSPropertyOp43
 70
     1
102
RTVSPropertyOp44
 70
     1
102
RTVSPropertyOp45
 70
     1
102
RTVSPropertyOp46
 70
     1
102
RTVSPropertyOp47
 70
     1
102
RTVSPropertyOp48
 70
     1
102
RTVSPropertyOp49
 70
     1
102
RTVSPropertyOp50
 70
     1
102
RTVSPropertyOp51
 70
     0
102
RTVSPropertyOp52
 70
     0
102
RTVSPropertyOp53
 70
     1
102
RTVSPropertyOp54
 70
     1
102
RTVSPropertyOp55
 70
     1
102
RTVSPropertyOp56
 70
     1
102
RTVSPropertyOp57
 70
     1
102
RTVSPropertyOp58
 70
     1
102
RTVSPropertyOp59
 70
     1
102
RTVSPropertyOp60
 70
     1
102
RTVSPropertyOp61
 70
     1
102
RTVSPropertyOp62
 70
     1
  0
XRECORD
  5
3456D
102
{ACAD_REACTORS
330
3456C
102
}
330
3456C
100
AcDbXrecord
280
     1
102
RTVSPost2010Prop28
280
     0
102
RTVSPost2010PropOp28
 70
     1
102
RTVSPost2010Prop29
280
     1
102
RTVSPost2010PropOp29
 70
     1
102
RTVSPost2010Prop30
280
     1
102
RTVSPost2010PropOp30
 70
     1
102
RTVSPost2010Prop31
280
     0
102
RTVSPost2010PropOp31
 70
     1
102
RTVSPost2010Prop32
280
     0
102
RTVSPost2010PropOp32
 70
     1
102
RTVSPost2010Prop33
280
     0
102
RTVSPost2010PropOp33
 70
     1
102
RTVSPost2010Prop34
280
     0
102
RTVSPost2010PropOp34
 70
     1
102
RTVSPost2010Prop35
280
     0
102
RTVSPost2010PropOp35
 70
     1
102
RTVSPost2010Prop36
280
     0
102
RTVSPost2010PropOp36
 70
     1
102
RTVSPost2010Prop37
 90
       50
102
RTVSPost2010PropOp37
 70
     1
102
RTVSPost2010Prop38
140
0.0
102
RTVSPost2010PropOp38
 70
     1
102
RTVSPost2010Prop39
140
1.0
102
RTVSPost2010PropOp39
 70
     1
102
RTVSPost2010Prop40
 90
        0
102
RTVSPost2010PropOp40
 70
     1
102
RTVSPost2010Prop41ColorIndex
 90
       18
102
RTVSPost2010Prop41ColorRGB
 90
        0
102
RTVSPost2010PropOp41
 70
     1
102
RTVSPost2010Prop42
 90
       50
102
RTVSPost2010PropOp42
 70
     1
102
RTVSPost2010Prop43
 90
        3
102
RTVSPost2010PropOp43
 70
     1
102
RTVSPost2010Prop44ColorIndex
 90
        5
102
RTVSPost2010Prop44ColorRGB
 90
      255
102
RTVSPost2010PropOp44
 70
     1
102
RTVSPost2010Prop45
280
     0
102
RTVSPost2010PropOp45
 70
     1
102
RTVSPost2010Prop46
 90
       50
102
RTVSPost2010PropOp46
 70
     1
102
RTVSPost2010Prop47
 90
       50
102
RTVSPost2010PropOp47
 70
     1
102
RTVSPost2010Prop48
 90
       50
102
RTVSPost2010PropOp48
 70
     1
102
RTVSPost2010Prop49
280
     0
102
RTVSPost2010PropOp49
 70
     1
102
RTVSPost2010Prop50
 90
       50
102
RTVSPost2010PropOp50
 70
     1
102
RTVSPost2010Prop51ColorIndex
 90
      256
102
RTVSPost2010Prop51ColorRGB
 90
-16777216
102
RTVSPost2010PropOp51
 70
     0
102
RTVSPost2010Prop52
140
1.0
102
RTVSPost2010PropOp52
 70
     0
102
RTVSPost2010Prop53
 90
        2
102
RTVSPost2010PropOp53
 70
     1
102
RTVSPost2010Prop54
  1
strokes_ogs.tif
102
RTVSPost2010PropOp54
 70
     1
102
RTVSPost2010Prop55
280
     0
102
RTVSPost2010PropOp55
 70
     1
102
RTVSPost2010Prop56
140
1.0
102
RTVSPost2010PropOp56
 70
     1
102
RTVSPost2010Prop57
140
1.0
102
RTVSPost2010PropOp57
 70
     1
102
RTVSPropertyOp0
 70
     1
102
RTVSPropertyOp1
 70
     1
102
RTVSPropertyOp2
 70
     1
102
RTVSPropertyOp3
 70
     1
102
RTVSPropertyOp4
 70
     1
102
RTVSPropertyOp5
 70
     1
102
RTVSPropertyOp6
 70
     1
102
RTVSPropertyOp7
 70
     1
102
RTVSPropertyOp8
 70
     1
102
RTVSPropertyOp9
 70
     1
102
RTVSPropertyOp10
 70
     1
102
RTVSPropertyOp11
 70
     1
102
RTVSPropertyOp12
 70
     1
102
RTVSPropertyOp13
 70
     1
102
RTVSPropertyOp14
 70
     1
102
RTVSPropertyOp15
 70
     1
102
RTVSPropertyOp16
 70
     1
102
RTVSPropertyOp17
 70
     1
102
RTVSPropertyOp18
 70
     1
102
RTVSPropertyOp19
 70
     1
102
RTVSPropertyOp20
 70
     1
102
RTVSPropertyOp21
 70
     1
102
RTVSPropertyOp22
 70
     1
102
RTVSPropertyOp23
 70
     1
102
RTVSPropertyOp24
 70
     1
102
RTVSPropertyOp25
 70
     1
102
RTVSPropertyOp26
 70
     1
102
RTVSPropertyOp27
 70
     1
102
RTVSPropertyOp28
 70
     1
102
RTVSPropertyOp29
 70
     1
102
RTVSPropertyOp30
 70
     1
102
RTVSPropertyOp31
 70
     1
102
RTVSPropertyOp32
 70
     1
102
RTVSPropertyOp33
 70
     1
102
RTVSPropertyOp34
 70
     1
102
RTVSPropertyOp35
 70
     1
102
RTVSPropertyOp36
 70
     1
102
RTVSPropertyOp37
 70
     1
102
RTVSPropertyOp38
 70
     1
102
RTVSPropertyOp39
 70
     1
102
RTVSPropertyOp40
 70
     1
102
RTVSPropertyOp41
 70
     1
102
RTVSPropertyOp42
 70
     1
102
RTVSPropertyOp43
 70
     1
102
RTVSPropertyOp44
 70
     1
102
RTVSPropertyOp45
 70
     1
102
RTVSPropertyOp46
 70
     1
102
RTVSPropertyOp47
 70
     1
102
RTVSPropertyOp48
 70
     1
102
RTVSPropertyOp49
 70
     1
102
RTVSPropertyOp50
 70
     1
102
RTVSPropertyOp51
 70
     0
102
RTVSPropertyOp52
 70
     0
102
RTVSPropertyOp53
 70
     1
102
RTVSPropertyOp54
 70
     1
102
RTVSPropertyOp55
 70
     1
102
RTVSPropertyOp56
 70
     1
102
RTVSPropertyOp57
 70
     1
102
RTVSPropertyOp58
 70
     1
102
RTVSPropertyOp59
 70
     1
102
RTVSPropertyOp60
 70
     1
102
RTVSPropertyOp61
 70
     1
102
RTVSPropertyOp62
 70
     1
  0
XRECORD
  5
34575
102
{ACAD_REACTORS
330
34574
102
}
330
34574
100
AcDbXrecord
280
     1
102
RTVSPost2010Prop28
280
     0
102
RTVSPost2010PropOp28
 70
     1
102
RTVSPost2010Prop29
280
     1
102
RTVSPost2010PropOp29
 70
     1
102
RTVSPost2010Prop30
280
     1
102
RTVSPost2010PropOp30
 70
     1
102
RTVSPost2010Prop31
280
     0
102
RTVSPost2010PropOp31
 70
     1
102
RTVSPost2010Prop32
280
     0
102
RTVSPost2010PropOp32
 70
     1
102
RTVSPost2010Prop33
280
     0
102
RTVSPost2010PropOp33
 70
     1
102
RTVSPost2010Prop34
280
     0
102
RTVSPost2010PropOp34
 70
     1
102
RTVSPost2010Prop35
280
     0
102
RTVSPost2010PropOp35
 70
     1
102
RTVSPost2010Prop36
280
     0
102
RTVSPost2010PropOp36
 70
     1
102
RTVSPost2010Prop37
 90
       50
102
RTVSPost2010PropOp37
 70
     1
102
RTVSPost2010Prop38
140
0.0
102
RTVSPost2010PropOp38
 70
     1
102
RTVSPost2010Prop39
140
1.0
102
RTVSPost2010PropOp39
 70
     1
102
RTVSPost2010Prop40
 90
        0
102
RTVSPost2010PropOp40
 70
     1
102
RTVSPost2010Prop41ColorIndex
 90
       18
102
RTVSPost2010Prop41ColorRGB
 90
        0
102
RTVSPost2010PropOp41
 70
     1
102
RTVSPost2010Prop42
 90
       50
102
RTVSPost2010PropOp42
 70
     1
102
RTVSPost2010Prop43
 90
        3
102
RTVSPost2010PropOp43
 70
     1
102
RTVSPost2010Prop44ColorIndex
 90
        5
102
RTVSPost2010Prop44ColorRGB
 90
      255
102
RTVSPost2010PropOp44
 70
     1
102
RTVSPost2010Prop45
280
     0
102
RTVSPost2010PropOp45
 70
     1
102
RTVSPost2010Prop46
 90
       50
102
RTVSPost2010PropOp46
 70
     1
102
RTVSPost2010Prop47
 90
       50
102
RTVSPost2010PropOp47
 70
     1
102
RTVSPost2010Prop48
 90
       50
102
RTVSPost2010PropOp48
 70
     1
102
RTVSPost2010Prop49
280
     0
102
RTVSPost2010PropOp49
 70
     1
102
RTVSPost2010Prop50
 90
       50
102
RTVSPost2010PropOp50
 70
     1
102
RTVSPost2010Prop51ColorIndex
 90
      256
102
RTVSPost2010Prop51ColorRGB
 90
-16777216
102
RTVSPost2010PropOp51
 70
     0
102
RTVSPost2010Prop52
140
1.0
102
RTVSPost2010PropOp52
 70
     0
102
RTVSPost2010Prop53
 90
        2
102
RTVSPost2010PropOp53
 70
     1
102
RTVSPost2010Prop54
  1
strokes_ogs.tif
102
RTVSPost2010PropOp54
 70
     1
102
RTVSPost2010Prop55
280
     0
102
RTVSPost2010PropOp55
 70
     1
102
RTVSPost2010Prop56
140
1.0
102
RTVSPost2010PropOp56
 70
     1
102
RTVSPost2010Prop57
140
1.0
102
RTVSPost2010PropOp57
 70
     1
102
RTVSPropertyOp0
 70
     1
102
RTVSPropertyOp1
 70
     1
102
RTVSPropertyOp2
 70
     1
102
RTVSPropertyOp3
 70
     1
102
RTVSPropertyOp4
 70
     1
102
RTVSPropertyOp5
 70
     1
102
RTVSPropertyOp6
 70
     1
102
RTVSPropertyOp7
 70
     1
102
RTVSPropertyOp8
 70
     1
102
RTVSPropertyOp9
 70
     1
102
RTVSPropertyOp10
 70
     1
102
RTVSPropertyOp11
 70
     1
102
RTVSPropertyOp12
 70
     1
102
RTVSPropertyOp13
 70
     1
102
RTVSPropertyOp14
 70
     1
102
RTVSPropertyOp15
 70
     1
102
RTVSPropertyOp16
 70
     1
102
RTVSPropertyOp17
 70
     1
102
RTVSPropertyOp18
 70
     1
102
RTVSPropertyOp19
 70
     1
102
RTVSPropertyOp20
 70
     1
102
RTVSPropertyOp21
 70
     1
102
RTVSPropertyOp22
 70
     1
102
RTVSPropertyOp23
 70
     1
102
RTVSPropertyOp24
 70
     1
102
RTVSPropertyOp25
 70
     1
102
RTVSPropertyOp26
 70
     1
102
RTVSPropertyOp27
 70
     1
102
RTVSPropertyOp28
 70
     1
102
RTVSPropertyOp29
 70
     1
102
RTVSPropertyOp30
 70
     1
102
RTVSPropertyOp31
 70
     1
102
RTVSPropertyOp32
 70
     1
102
RTVSPropertyOp33
 70
     1
102
RTVSPropertyOp34
 70
     1
102
RTVSPropertyOp35
 70
     1
102
RTVSPropertyOp36
 70
     1
102
RTVSPropertyOp37
 70
     1
102
RTVSPropertyOp38
 70
     1
102
RTVSPropertyOp39
 70
     1
102
RTVSPropertyOp40
 70
     1
102
RTVSPropertyOp41
 70
     1
102
RTVSPropertyOp42
 70
     1
102
RTVSPropertyOp43
 70
     1
102
RTVSPropertyOp44
 70
     1
102
RTVSPropertyOp45
 70
     1
102
RTVSPropertyOp46
 70
     1
102
RTVSPropertyOp47
 70
     1
102
RTVSPropertyOp48
 70
     1
102
RTVSPropertyOp49
 70
     1
102
RTVSPropertyOp50
 70
     1
102
RTVSPropertyOp51
 70
     0
102
RTVSPropertyOp52
 70
     0
102
RTVSPropertyOp53
 70
     1
102
RTVSPropertyOp54
 70
     1
102
RTVSPropertyOp55
 70
     1
102
RTVSPropertyOp56
 70
     1
102
RTVSPropertyOp57
 70
     1
102
RTVSPropertyOp58
 70
     1
102
RTVSPropertyOp59
 70
     1
102
RTVSPropertyOp60
 70
     1
102
RTVSPropertyOp61
 70
     1
102
RTVSPropertyOp62
 70
     1
  0
XRECORD
  5
34591
102
{ACAD_REACTORS
330
34590
102
}
330
34590
100
AcDbXrecord
280
     1
102
RTVSPost2010Prop28
280
     0
102
RTVSPost2010PropOp28
 70
     0
102
RTVSPost2010Prop29
280
     1
102
RTVSPost2010PropOp29
 70
     0
102
RTVSPost2010Prop30
280
     1
102
RTVSPost2010PropOp30
 70
     0
102
RTVSPost2010Prop31
280
     0
102
RTVSPost2010PropOp31
 70
     0
102
RTVSPost2010Prop32
280
     0
102
RTVSPost2010PropOp32
 70
     0
102
RTVSPost2010Prop33
280
     0
102
RTVSPost2010PropOp33
 70
     0
102
RTVSPost2010Prop34
280
     0
102
RTVSPost2010PropOp34
 70
     0
102
RTVSPost2010Prop35
280
     0
102
RTVSPost2010PropOp35
 70
     0
102
RTVSPost2010Prop36
280
     0
102
RTVSPost2010PropOp36
 70
     0
102
RTVSPost2010Prop37
 90
       50
102
RTVSPost2010PropOp37
 70
     0
102
RTVSPost2010Prop38
140
0.0
102
RTVSPost2010PropOp38
 70
     0
102
RTVSPost2010Prop39
140
1.0
102
RTVSPost2010PropOp39
 70
     0
102
RTVSPost2010Prop40
 90
        0
102
RTVSPost2010PropOp40
 70
     0
102
RTVSPost2010Prop41ColorIndex
 90
       18
102
RTVSPost2010Prop41ColorRGB
 90
        0
102
RTVSPost2010PropOp41
 70
     0
102
RTVSPost2010Prop42
 90
       50
102
RTVSPost2010PropOp42
 70
     0
102
RTVSPost2010Prop43
 90
        3
102
RTVSPost2010PropOp43
 70
     0
102
RTVSPost2010Prop44ColorIndex
 90
        5
102
RTVSPost2010Prop44ColorRGB
 90
      255
102
RTVSPost2010PropOp44
 70
     0
102
RTVSPost2010Prop45
280
     0
102
RTVSPost2010PropOp45
 70
     0
102
RTVSPost2010Prop46
 90
       50
102
RTVSPost2010PropOp46
 70
     0
102
RTVSPost2010Prop47
 90
       50
102
RTVSPost2010PropOp47
 70
     0
102
RTVSPost2010Prop48
 90
       50
102
RTVSPost2010PropOp48
 70
     0
102
RTVSPost2010Prop49
280
     0
102
RTVSPost2010PropOp49
 70
     0
102
RTVSPost2010Prop50
 90
       50
102
RTVSPost2010PropOp50
 70
     0
102
RTVSPost2010Prop51ColorIndex
 90
      256
102
RTVSPost2010Prop51ColorRGB
 90
-16777216
102
RTVSPost2010PropOp51
 70
     0
102
RTVSPost2010Prop52
140
1.0
102
RTVSPost2010PropOp52
 70
     0
102
RTVSPost2010Prop53
 90
        2
102
RTVSPost2010PropOp53
 70
     0
102
RTVSPost2010Prop54
  1
strokes_ogs.tif
102
RTVSPost2010PropOp54
 70
     0
102
RTVSPost2010Prop55
280
     0
102
RTVSPost2010PropOp55
 70
     0
102
RTVSPost2010Prop56
140
1.0
102
RTVSPost2010PropOp56
 70
     0
102
RTVSPost2010Prop57
140
1.0
102
RTVSPost2010PropOp57
 70
     0
102
RTVSPropertyOp0
 70
     0
102
RTVSPropertyOp1
 70
     0
102
RTVSPropertyOp2
 70
     0
102
RTVSPropertyOp3
 70
     0
102
RTVSPropertyOp4
 70
     0
102
RTVSPropertyOp5
 70
     0
102
RTVSPropertyOp6
 70
     0
102
RTVSPropertyOp7
 70
     0
102
RTVSPropertyOp8
 70
     0
102
RTVSPropertyOp9
 70
     0
102
RTVSPropertyOp10
 70
     0
102
RTVSPropertyOp11
 70
     0
102
RTVSPropertyOp12
 70
     0
102
RTVSPropertyOp13
 70
     0
102
RTVSPropertyOp14
 70
     2
102
RTVSPropertyOp15
 70
     0
102
RTVSPropertyOp16
 70
     0
102
RTVSPropertyOp17
 70
     0
102
RTVSPropertyOp18
 70
     0
102
RTVSPropertyOp19
 70
     0
102
RTVSPropertyOp20
 70
     0
102
RTVSPropertyOp21
 70
     0
102
RTVSPropertyOp22
 70
     0
102
RTVSPropertyOp23
 70
     0
102
RTVSPropertyOp24
 70
     0
102
RTVSPropertyOp25
 70
     0
102
RTVSPropertyOp26
 70
     0
102
RTVSPropertyOp27
 70
     0
102
RTVSPropertyOp28
 70
     0
102
RTVSPropertyOp29
 70
     0
102
RTVSPropertyOp30
 70
     0
102
RTVSPropertyOp31
 70
     0
102
RTVSPropertyOp32
 70
     0
102
RTVSPropertyOp33
 70
     0
102
RTVSPropertyOp34
 70
     0
102
RTVSPropertyOp35
 70
     0
102
RTVSPropertyOp36
 70
     0
102
RTVSPropertyOp37
 70
     0
102
RTVSPropertyOp38
 70
     0
102
RTVSPropertyOp39
 70
     0
102
RTVSPropertyOp40
 70
     0
102
RTVSPropertyOp41
 70
     0
102
RTVSPropertyOp42
 70
     0
102
RTVSPropertyOp43
 70
     0
102
RTVSPropertyOp44
 70
     0
102
RTVSPropertyOp45
 70
     0
102
RTVSPropertyOp46
 70
     0
102
RTVSPropertyOp47
 70
     0
102
RTVSPropertyOp48
 70
     0
102
RTVSPropertyOp49
 70
     0
102
RTVSPropertyOp50
 70
     0
102
RTVSPropertyOp51
 70
     0
102
RTVSPropertyOp52
 70
     0
102
RTVSPropertyOp53
 70
     0
102
RTVSPropertyOp54
 70
     0
102
RTVSPropertyOp55
 70
     0
102
RTVSPropertyOp56
 70
     0
102
RTVSPropertyOp57
 70
     0
102
RTVSPropertyOp58
 70
     0
102
RTVSPropertyOp59
 70
     0
102
RTVSPropertyOp60
 70
     0
102
RTVSPropertyOp61
 70
     0
102
RTVSPropertyOp62
 70
     0
  0
XRECORD
  5
34581
102
{ACAD_REACTORS
330
34580
102
}
330
34580
100
AcDbXrecord
280
     1
102
RTVSPost2010Prop28
280
     0
102
RTVSPost2010PropOp28
 70
     1
102
RTVSPost2010Prop29
280
     1
102
RTVSPost2010PropOp29
 70
     1
102
RTVSPost2010Prop30
280
     1
102
RTVSPost2010PropOp30
 70
     1
102
RTVSPost2010Prop31
280
     0
102
RTVSPost2010PropOp31
 70
     1
102
RTVSPost2010Prop32
280
     0
102
RTVSPost2010PropOp32
 70
     1
102
RTVSPost2010Prop33
280
     0
102
RTVSPost2010PropOp33
 70
     1
102
RTVSPost2010Prop34
280
     0
102
RTVSPost2010PropOp34
 70
     1
102
RTVSPost2010Prop35
280
     0
102
RTVSPost2010PropOp35
 70
     1
102
RTVSPost2010Prop36
280
     0
102
RTVSPost2010PropOp36
 70
     1
102
RTVSPost2010Prop37
 90
       50
102
RTVSPost2010PropOp37
 70
     1
102
RTVSPost2010Prop38
140
0.0
102
RTVSPost2010PropOp38
 70
     1
102
RTVSPost2010Prop39
140
1.0
102
RTVSPost2010PropOp39
 70
     1
102
RTVSPost2010Prop40
 90
        0
102
RTVSPost2010PropOp40
 70
     1
102
RTVSPost2010Prop41ColorIndex
 90
       18
102
RTVSPost2010Prop41ColorRGB
 90
        0
102
RTVSPost2010PropOp41
 70
     1
102
RTVSPost2010Prop42
 90
       50
102
RTVSPost2010PropOp42
 70
     1
102
RTVSPost2010Prop43
 90
        3
102
RTVSPost2010PropOp43
 70
     1
102
RTVSPost2010Prop44ColorIndex
 90
        5
102
RTVSPost2010Prop44ColorRGB
 90
      255
102
RTVSPost2010PropOp44
 70
     1
102
RTVSPost2010Prop45
280
     0
102
RTVSPost2010PropOp45
 70
     1
102
RTVSPost2010Prop46
 90
       50
102
RTVSPost2010PropOp46
 70
     1
102
RTVSPost2010Prop47
 90
       50
102
RTVSPost2010PropOp47
 70
     1
102
RTVSPost2010Prop48
 90
       50
102
RTVSPost2010PropOp48
 70
     1
102
RTVSPost2010Prop49
280
     0
102
RTVSPost2010PropOp49
 70
     1
102
RTVSPost2010Prop50
 90
       50
102
RTVSPost2010PropOp50
 70
     1
102
RTVSPost2010Prop51ColorIndex
 90
      256
102
RTVSPost2010Prop51ColorRGB
 90
-16777216
102
RTVSPost2010PropOp51
 70
     0
102
RTVSPost2010Prop52
140
1.0
102
RTVSPost2010PropOp52
 70
     0
102
RTVSPost2010Prop53
 90
        2
102
RTVSPost2010PropOp53
 70
     1
102
RTVSPost2010Prop54
  1
strokes_ogs.tif
102
RTVSPost2010PropOp54
 70
     1
102
RTVSPost2010Prop55
280
     0
102
RTVSPost2010PropOp55
 70
     1
102
RTVSPost2010Prop56
140
1.0
102
RTVSPost2010PropOp56
 70
     1
102
RTVSPost2010Prop57
140
1.0
102
RTVSPost2010PropOp57
 70
     1
102
RTVSPropertyOp0
 70
     1
102
RTVSPropertyOp1
 70
     1
102
RTVSPropertyOp2
 70
     1
102
RTVSPropertyOp3
 70
     1
102
RTVSPropertyOp4
 70
     1
102
RTVSPropertyOp5
 70
     1
102
RTVSPropertyOp6
 70
     1
102
RTVSPropertyOp7
 70
     1
102
RTVSPropertyOp8
 70
     1
102
RTVSPropertyOp9
 70
     1
102
RTVSPropertyOp10
 70
     1
102
RTVSPropertyOp11
 70
     1
102
RTVSPropertyOp12
 70
     1
102
RTVSPropertyOp13
 70
     1
102
RTVSPropertyOp14
 70
     1
102
RTVSPropertyOp15
 70
     1
102
RTVSPropertyOp16
 70
     1
102
RTVSPropertyOp17
 70
     1
102
RTVSPropertyOp18
 70
     1
102
RTVSPropertyOp19
 70
     1
102
RTVSPropertyOp20
 70
     1
102
RTVSPropertyOp21
 70
     1
102
RTVSPropertyOp22
 70
     1
102
RTVSPropertyOp23
 70
     1
102
RTVSPropertyOp24
 70
     1
102
RTVSPropertyOp25
 70
     1
102
RTVSPropertyOp26
 70
     1
102
RTVSPropertyOp27
 70
     1
102
RTVSPropertyOp28
 70
     1
102
RTVSPropertyOp29
 70
     1
102
RTVSPropertyOp30
 70
     1
102
RTVSPropertyOp31
 70
     1
102
RTVSPropertyOp32
 70
     1
102
RTVSPropertyOp33
 70
     1
102
RTVSPropertyOp34
 70
     1
102
RTVSPropertyOp35
 70
     1
102
RTVSPropertyOp36
 70
     1
102
RTVSPropertyOp37
 70
     1
102
RTVSPropertyOp38
 70
     1
102
RTVSPropertyOp39
 70
     1
102
RTVSPropertyOp40
 70
     1
102
RTVSPropertyOp41
 70
     1
102
RTVSPropertyOp42
 70
     1
102
RTVSPropertyOp43
 70
     1
102
RTVSPropertyOp44
 70
     1
102
RTVSPropertyOp45
 70
     1
102
RTVSPropertyOp46
 70
     1
102
RTVSPropertyOp47
 70
     1
102
RTVSPropertyOp48
 70
     1
102
RTVSPropertyOp49
 70
     1
102
RTVSPropertyOp50
 70
     1
102
RTVSPropertyOp51
 70
     0
102
RTVSPropertyOp52
 70
     0
102
RTVSPropertyOp53
 70
     1
102
RTVSPropertyOp54
 70
     1
102
RTVSPropertyOp55
 70
     1
102
RTVSPropertyOp56
 70
     1
102
RTVSPropertyOp57
 70
     1
102
RTVSPropertyOp58
 70
     1
102
RTVSPropertyOp59
 70
     1
102
RTVSPropertyOp60
 70
     1
102
RTVSPropertyOp61
 70
     1
102
RTVSPropertyOp62
 70
     1
  0
XRECORD
  5
34593
102
{ACAD_REACTORS
330
34592
102
}
330
34592
100
AcDbXrecord
280
     1
102
RTVSPost2010Prop28
280
     0
102
RTVSPost2010PropOp28
 70
     0
102
RTVSPost2010Prop29
280
     1
102
RTVSPost2010PropOp29
 70
     0
102
RTVSPost2010Prop30
280
     1
102
RTVSPost2010PropOp30
 70
     0
102
RTVSPost2010Prop31
280
     0
102
RTVSPost2010PropOp31
 70
     0
102
RTVSPost2010Prop32
280
     0
102
RTVSPost2010PropOp32
 70
     0
102
RTVSPost2010Prop33
280
     0
102
RTVSPost2010PropOp33
 70
     0
102
RTVSPost2010Prop34
280
     0
102
RTVSPost2010PropOp34
 70
     0
102
RTVSPost2010Prop35
280
     0
102
RTVSPost2010PropOp35
 70
     0
102
RTVSPost2010Prop36
280
     0
102
RTVSPost2010PropOp36
 70
     0
102
RTVSPost2010Prop37
 90
       50
102
RTVSPost2010PropOp37
 70
     0
102
RTVSPost2010Prop38
140
0.0
102
RTVSPost2010PropOp38
 70
     0
102
RTVSPost2010Prop39
140
1.0
102
RTVSPost2010PropOp39
 70
     0
102
RTVSPost2010Prop40
 90
        0
102
RTVSPost2010PropOp40
 70
     0
102
RTVSPost2010Prop41ColorIndex
 90
       18
102
RTVSPost2010Prop41ColorRGB
 90
        0
102
RTVSPost2010PropOp41
 70
     0
102
RTVSPost2010Prop42
 90
       50
102
RTVSPost2010PropOp42
 70
     0
102
RTVSPost2010Prop43
 90
        3
102
RTVSPost2010PropOp43
 70
     0
102
RTVSPost2010Prop44ColorIndex
 90
        5
102
RTVSPost2010Prop44ColorRGB
 90
      255
102
RTVSPost2010PropOp44
 70
     0
102
RTVSPost2010Prop45
280
     0
102
RTVSPost2010PropOp45
 70
     0
102
RTVSPost2010Prop46
 90
       50
102
RTVSPost2010PropOp46
 70
     0
102
RTVSPost2010Prop47
 90
       50
102
RTVSPost2010PropOp47
 70
     0
102
RTVSPost2010Prop48
 90
       50
102
RTVSPost2010PropOp48
 70
     0
102
RTVSPost2010Prop49
280
     0
102
RTVSPost2010PropOp49
 70
     0
102
RTVSPost2010Prop50
 90
       50
102
RTVSPost2010PropOp50
 70
     0
102
RTVSPost2010Prop51ColorIndex
 90
      256
102
RTVSPost2010Prop51ColorRGB
 90
-16777216
102
RTVSPost2010PropOp51
 70
     0
102
RTVSPost2010Prop52
140
1.0
102
RTVSPost2010PropOp52
 70
     0
102
RTVSPost2010Prop53
 90
        2
102
RTVSPost2010PropOp53
 70
     0
102
RTVSPost2010Prop54
  1
strokes_ogs.tif
102
RTVSPost2010PropOp54
 70
     0
102
RTVSPost2010Prop55
280
     0
102
RTVSPost2010PropOp55
 70
     0
102
RTVSPost2010Prop56
140
1.0
102
RTVSPost2010PropOp56
 70
     0
102
RTVSPost2010Prop57
140
1.0
102
RTVSPost2010PropOp57
 70
     0
102
RTVSPropertyOp0
 70
     0
102
RTVSPropertyOp1
 70
     0
102
RTVSPropertyOp2
 70
     0
102
RTVSPropertyOp3
 70
     0
102
RTVSPropertyOp4
 70
     0
102
RTVSPropertyOp5
 70
     0
102
RTVSPropertyOp6
 70
     0
102
RTVSPropertyOp7
 70
     0
102
RTVSPropertyOp8
 70
     0
102
RTVSPropertyOp9
 70
     0
102
RTVSPropertyOp10
 70
     0
102
RTVSPropertyOp11
 70
     0
102
RTVSPropertyOp12
 70
     0
102
RTVSPropertyOp13
 70
     0
102
RTVSPropertyOp14
 70
     2
102
RTVSPropertyOp15
 70
     0
102
RTVSPropertyOp16
 70
     0
102
RTVSPropertyOp17
 70
     0
102
RTVSPropertyOp18
 70
     0
102
RTVSPropertyOp19
 70
     0
102
RTVSPropertyOp20
 70
     0
102
RTVSPropertyOp21
 70
     0
102
RTVSPropertyOp22
 70
     0
102
RTVSPropertyOp23
 70
     0
102
RTVSPropertyOp24
 70
     0
102
RTVSPropertyOp25
 70
     0
102
RTVSPropertyOp26
 70
     0
102
RTVSPropertyOp27
 70
     0
102
RTVSPropertyOp28
 70
     0
102
RTVSPropertyOp29
 70
     0
102
RTVSPropertyOp30
 70
     0
102
RTVSPropertyOp31
 70
     0
102
RTVSPropertyOp32
 70
     0
102
RTVSPropertyOp33
 70
     0
102
RTVSPropertyOp34
 70
     0
102
RTVSPropertyOp35
 70
     0
102
RTVSPropertyOp36
 70
     0
102
RTVSPropertyOp37
 70
     0
102
RTVSPropertyOp38
 70
     0
102
RTVSPropertyOp39
 70
     0
102
RTVSPropertyOp40
 70
     0
102
RTVSPropertyOp41
 70
     0
102
RTVSPropertyOp42
 70
     0
102
RTVSPropertyOp43
 70
     0
102
RTVSPropertyOp44
 70
     0
102
RTVSPropertyOp45
 70
     0
102
RTVSPropertyOp46
 70
     0
102
RTVSPropertyOp47
 70
     0
102
RTVSPropertyOp48
 70
     0
102
RTVSPropertyOp49
 70
     0
102
RTVSPropertyOp50
 70
     0
102
RTVSPropertyOp51
 70
     0
102
RTVSPropertyOp52
 70
     0
102
RTVSPropertyOp53
 70
     0
102
RTVSPropertyOp54
 70
     0
102
RTVSPropertyOp55
 70
     0
102
RTVSPropertyOp56
 70
     0
102
RTVSPropertyOp57
 70
     0
102
RTVSPropertyOp58
 70
     0
102
RTVSPropertyOp59
 70
     0
102
RTVSPropertyOp60
 70
     0
102
RTVSPropertyOp61
 70
     0
102
RTVSPropertyOp62
 70
     0
  0
XRECORD
  5
34579
102
{ACAD_REACTORS
330
34578
102
}
330
34578
100
AcDbXrecord
280
     1
102
RTVSPost2010Prop28
280
     0
102
RTVSPost2010PropOp28
 70
     1
102
RTVSPost2010Prop29
280
     1
102
RTVSPost2010PropOp29
 70
     1
102
RTVSPost2010Prop30
280
     1
102
RTVSPost2010PropOp30
 70
     1
102
RTVSPost2010Prop31
280
     0
102
RTVSPost2010PropOp31
 70
     1
102
RTVSPost2010Prop32
280
     0
102
RTVSPost2010PropOp32
 70
     1
102
RTVSPost2010Prop33
280
     0
102
RTVSPost2010PropOp33
 70
     1
102
RTVSPost2010Prop34
280
     0
102
RTVSPost2010PropOp34
 70
     1
102
RTVSPost2010Prop35
280
     0
102
RTVSPost2010PropOp35
 70
     1
102
RTVSPost2010Prop36
280
     0
102
RTVSPost2010PropOp36
 70
     1
102
RTVSPost2010Prop37
 90
       50
102
RTVSPost2010PropOp37
 70
     1
102
RTVSPost2010Prop38
140
0.0
102
RTVSPost2010PropOp38
 70
     1
102
RTVSPost2010Prop39
140
1.0
102
RTVSPost2010PropOp39
 70
     1
102
RTVSPost2010Prop40
 90
        0
102
RTVSPost2010PropOp40
 70
     1
102
RTVSPost2010Prop41ColorIndex
 90
       18
102
RTVSPost2010Prop41ColorRGB
 90
        0
102
RTVSPost2010PropOp41
 70
     1
102
RTVSPost2010Prop42
 90
       50
102
RTVSPost2010PropOp42
 70
     1
102
RTVSPost2010Prop43
 90
        3
102
RTVSPost2010PropOp43
 70
     1
102
RTVSPost2010Prop44ColorIndex
 90
        5
102
RTVSPost2010Prop44ColorRGB
 90
      255
102
RTVSPost2010PropOp44
 70
     1
102
RTVSPost2010Prop45
280
     0
102
RTVSPost2010PropOp45
 70
     1
102
RTVSPost2010Prop46
 90
       50
102
RTVSPost2010PropOp46
 70
     1
102
RTVSPost2010Prop47
 90
       50
102
RTVSPost2010PropOp47
 70
     1
102
RTVSPost2010Prop48
 90
       50
102
RTVSPost2010PropOp48
 70
     1
102
RTVSPost2010Prop49
280
     0
102
RTVSPost2010PropOp49
 70
     1
102
RTVSPost2010Prop50
 90
       50
102
RTVSPost2010PropOp50
 70
     1
102
RTVSPost2010Prop51ColorIndex
 90
      256
102
RTVSPost2010Prop51ColorRGB
 90
-16777216
102
RTVSPost2010PropOp51
 70
     0
102
RTVSPost2010Prop52
140
1.0
102
RTVSPost2010PropOp52
 70
     0
102
RTVSPost2010Prop53
 90
        2
102
RTVSPost2010PropOp53
 70
     1
102
RTVSPost2010Prop54
  1
strokes_ogs.tif
102
RTVSPost2010PropOp54
 70
     1
102
RTVSPost2010Prop55
280
     0
102
RTVSPost2010PropOp55
 70
     1
102
RTVSPost2010Prop56
140
1.0
102
RTVSPost2010PropOp56
 70
     1
102
RTVSPost2010Prop57
140
1.0
102
RTVSPost2010PropOp57
 70
     1
102
RTVSPropertyOp0
 70
     1
102
RTVSPropertyOp1
 70
     1
102
RTVSPropertyOp2
 70
     1
102
RTVSPropertyOp3
 70
     1
102
RTVSPropertyOp4
 70
     1
102
RTVSPropertyOp5
 70
     1
102
RTVSPropertyOp6
 70
     1
102
RTVSPropertyOp7
 70
     1
102
RTVSPropertyOp8
 70
     1
102
RTVSPropertyOp9
 70
     1
102
RTVSPropertyOp10
 70
     1
102
RTVSPropertyOp11
 70
     1
102
RTVSPropertyOp12
 70
     1
102
RTVSPropertyOp13
 70
     1
102
RTVSPropertyOp14
 70
     1
102
RTVSPropertyOp15
 70
     1
102
RTVSPropertyOp16
 70
     1
102
RTVSPropertyOp17
 70
     1
102
RTVSPropertyOp18
 70
     1
102
RTVSPropertyOp19
 70
     1
102
RTVSPropertyOp20
 70
     1
102
RTVSPropertyOp21
 70
     1
102
RTVSPropertyOp22
 70
     1
102
RTVSPropertyOp23
 70
     1
102
RTVSPropertyOp24
 70
     1
102
RTVSPropertyOp25
 70
     1
102
RTVSPropertyOp26
 70
     1
102
RTVSPropertyOp27
 70
     1
102
RTVSPropertyOp28
 70
     1
102
RTVSPropertyOp29
 70
     1
102
RTVSPropertyOp30
 70
     1
102
RTVSPropertyOp31
 70
     1
102
RTVSPropertyOp32
 70
     1
102
RTVSPropertyOp33
 70
     1
102
RTVSPropertyOp34
 70
     1
102
RTVSPropertyOp35
 70
     1
102
RTVSPropertyOp36
 70
     1
102
RTVSPropertyOp37
 70
     1
102
RTVSPropertyOp38
 70
     1
102
RTVSPropertyOp39
 70
     1
102
RTVSPropertyOp40
 70
     1
102
RTVSPropertyOp41
 70
     1
102
RTVSPropertyOp42
 70
     1
102
RTVSPropertyOp43
 70
     1
102
RTVSPropertyOp44
 70
     1
102
RTVSPropertyOp45
 70
     1
102
RTVSPropertyOp46
 70
     1
102
RTVSPropertyOp47
 70
     1
102
RTVSPropertyOp48
 70
     1
102
RTVSPropertyOp49
 70
     1
102
RTVSPropertyOp50
 70
     1
102
RTVSPropertyOp51
 70
     0
102
RTVSPropertyOp52
 70
     0
102
RTVSPropertyOp53
 70
     1
102
RTVSPropertyOp54
 70
     1
102
RTVSPropertyOp55
 70
     1
102
RTVSPropertyOp56
 70
     1
102
RTVSPropertyOp57
 70
     1
102
RTVSPropertyOp58
 70
     1
102
RTVSPropertyOp59
 70
     1
102
RTVSPropertyOp60
 70
     1
102
RTVSPropertyOp61
 70
     1
102
RTVSPropertyOp62
 70
     1
  0
XRECORD
  5
3458F
102
{ACAD_REACTORS
330
3458E
102
}
330
3458E
100
AcDbXrecord
280
     1
102
RTVSPost2010Prop28
280
     0
102
RTVSPost2010PropOp28
 70
     1
102
RTVSPost2010Prop29
280
     1
102
RTVSPost2010PropOp29
 70
     1
102
RTVSPost2010Prop30
280
     1
102
RTVSPost2010PropOp30
 70
     1
102
RTVSPost2010Prop31
280
     0
102
RTVSPost2010PropOp31
 70
     1
102
RTVSPost2010Prop32
280
     0
102
RTVSPost2010PropOp32
 70
     1
102
RTVSPost2010Prop33
280
     0
102
RTVSPost2010PropOp33
 70
     1
102
RTVSPost2010Prop34
280
     0
102
RTVSPost2010PropOp34
 70
     1
102
RTVSPost2010Prop35
280
     0
102
RTVSPost2010PropOp35
 70
     1
102
RTVSPost2010Prop36
280
     0
102
RTVSPost2010PropOp36
 70
     1
102
RTVSPost2010Prop37
 90
       50
102
RTVSPost2010PropOp37
 70
     1
102
RTVSPost2010Prop38
140
0.0
102
RTVSPost2010PropOp38
 70
     1
102
RTVSPost2010Prop39
140
1.0
102
RTVSPost2010PropOp39
 70
     1
102
RTVSPost2010Prop40
 90
        0
102
RTVSPost2010PropOp40
 70
     1
102
RTVSPost2010Prop41ColorIndex
 90
       18
102
RTVSPost2010Prop41ColorRGB
 90
        0
102
RTVSPost2010PropOp41
 70
     1
102
RTVSPost2010Prop42
 90
       50
102
RTVSPost2010PropOp42
 70
     1
102
RTVSPost2010Prop43
 90
        3
102
RTVSPost2010PropOp43
 70
     1
102
RTVSPost2010Prop44ColorIndex
 90
        5
102
RTVSPost2010Prop44ColorRGB
 90
      255
102
RTVSPost2010PropOp44
 70
     1
102
RTVSPost2010Prop45
280
     0
102
RTVSPost2010PropOp45
 70
     1
102
RTVSPost2010Prop46
 90
       50
102
RTVSPost2010PropOp46
 70
     1
102
RTVSPost2010Prop47
 90
       50
102
RTVSPost2010PropOp47
 70
     1
102
RTVSPost2010Prop48
 90
       50
102
RTVSPost2010PropOp48
 70
     1
102
RTVSPost2010Prop49
280
     0
102
RTVSPost2010PropOp49
 70
     1
102
RTVSPost2010Prop50
 90
       50
102
RTVSPost2010PropOp50
 70
     1
102
RTVSPost2010Prop51ColorIndex
 90
      256
102
RTVSPost2010Prop51ColorRGB
 90
-16777216
102
RTVSPost2010PropOp51
 70
     0
102
RTVSPost2010Prop52
140
1.0
102
RTVSPost2010PropOp52
 70
     0
102
RTVSPost2010Prop53
 90
        2
102
RTVSPost2010PropOp53
 70
     1
102
RTVSPost2010Prop54
  1
strokes_ogs.tif
102
RTVSPost2010PropOp54
 70
     1
102
RTVSPost2010Prop55
280
     0
102
RTVSPost2010PropOp55
 70
     1
102
RTVSPost2010Prop56
140
1.0
102
RTVSPost2010PropOp56
 70
     1
102
RTVSPost2010Prop57
140
1.0
102
RTVSPost2010PropOp57
 70
     1
102
RTVSPropertyOp0
 70
     1
102
RTVSPropertyOp1
 70
     1
102
RTVSPropertyOp2
 70
     1
102
RTVSPropertyOp3
 70
     1
102
RTVSPropertyOp4
 70
     1
102
RTVSPropertyOp5
 70
     1
102
RTVSPropertyOp6
 70
     1
102
RTVSPropertyOp7
 70
     1
102
RTVSPropertyOp8
 70
     1
102
RTVSPropertyOp9
 70
     1
102
RTVSPropertyOp10
 70
     1
102
RTVSPropertyOp11
 70
     1
102
RTVSPropertyOp12
 70
     1
102
RTVSPropertyOp13
 70
     1
102
RTVSPropertyOp14
 70
     1
102
RTVSPropertyOp15
 70
     1
102
RTVSPropertyOp16
 70
     1
102
RTVSPropertyOp17
 70
     1
102
RTVSPropertyOp18
 70
     1
102
RTVSPropertyOp19
 70
     1
102
RTVSPropertyOp20
 70
     1
102
RTVSPropertyOp21
 70
     1
102
RTVSPropertyOp22
 70
     1
102
RTVSPropertyOp23
 70
     1
102
RTVSPropertyOp24
 70
     1
102
RTVSPropertyOp25
 70
     1
102
RTVSPropertyOp26
 70
     1
102
RTVSPropertyOp27
 70
     1
102
RTVSPropertyOp28
 70
     1
102
RTVSPropertyOp29
 70
     1
102
RTVSPropertyOp30
 70
     1
102
RTVSPropertyOp31
 70
     1
102
RTVSPropertyOp32
 70
     1
102
RTVSPropertyOp33
 70
     1
102
RTVSPropertyOp34
 70
     1
102
RTVSPropertyOp35
 70
     1
102
RTVSPropertyOp36
 70
     1
102
RTVSPropertyOp37
 70
     1
102
RTVSPropertyOp38
 70
     1
102
RTVSPropertyOp39
 70
     1
102
RTVSPropertyOp40
 70
     1
102
RTVSPropertyOp41
 70
     1
102
RTVSPropertyOp42
 70
     1
102
RTVSPropertyOp43
 70
     1
102
RTVSPropertyOp44
 70
     1
102
RTVSPropertyOp45
 70
     1
102
RTVSPropertyOp46
 70
     1
102
RTVSPropertyOp47
 70
     1
102
RTVSPropertyOp48
 70
     1
102
RTVSPropertyOp49
 70
     1
102
RTVSPropertyOp50
 70
     1
102
RTVSPropertyOp51
 70
     0
102
RTVSPropertyOp52
 70
     0
102
RTVSPropertyOp53
 70
     1
102
RTVSPropertyOp54
 70
     1
102
RTVSPropertyOp55
 70
     1
102
RTVSPropertyOp56
 70
     1
102
RTVSPropertyOp57
 70
     1
102
RTVSPropertyOp58
 70
     1
102
RTVSPropertyOp59
 70
     1
102
RTVSPropertyOp60
 70
     1
102
RTVSPropertyOp61
 70
     1
102
RTVSPropertyOp62
 70
     1
  0
XRECORD
  5
3458D
102
{ACAD_REACTORS
330
3458C
102
}
330
3458C
100
AcDbXrecord
280
     1
102
RTVSPost2010Prop28
280
     0
102
RTVSPost2010PropOp28
 70
     1
102
RTVSPost2010Prop29
280
     1
102
RTVSPost2010PropOp29
 70
     1
102
RTVSPost2010Prop30
280
     1
102
RTVSPost2010PropOp30
 70
     1
102
RTVSPost2010Prop31
280
     0
102
RTVSPost2010PropOp31
 70
     1
102
RTVSPost2010Prop32
280
     0
102
RTVSPost2010PropOp32
 70
     1
102
RTVSPost2010Prop33
280
     0
102
RTVSPost2010PropOp33
 70
     1
102
RTVSPost2010Prop34
280
     0
102
RTVSPost2010PropOp34
 70
     1
102
RTVSPost2010Prop35
280
     0
102
RTVSPost2010PropOp35
 70
     1
102
RTVSPost2010Prop36
280
     0
102
RTVSPost2010PropOp36
 70
     1
102
RTVSPost2010Prop37
 90
       50
102
RTVSPost2010PropOp37
 70
     1
102
RTVSPost2010Prop38
140
0.0
102
RTVSPost2010PropOp38
 70
     1
102
RTVSPost2010Prop39
140
1.0
102
RTVSPost2010PropOp39
 70
     1
102
RTVSPost2010Prop40
 90
        0
102
RTVSPost2010PropOp40
 70
     1
102
RTVSPost2010Prop41ColorIndex
 90
       18
102
RTVSPost2010Prop41ColorRGB
 90
        0
102
RTVSPost2010PropOp41
 70
     1
102
RTVSPost2010Prop42
 90
       50
102
RTVSPost2010PropOp42
 70
     1
102
RTVSPost2010Prop43
 90
        3
102
RTVSPost2010PropOp43
 70
     1
102
RTVSPost2010Prop44ColorIndex
 90
        5
102
RTVSPost2010Prop44ColorRGB
 90
      255
102
RTVSPost2010PropOp44
 70
     1
102
RTVSPost2010Prop45
280
     0
102
RTVSPost2010PropOp45
 70
     1
102
RTVSPost2010Prop46
 90
       50
102
RTVSPost2010PropOp46
 70
     1
102
RTVSPost2010Prop47
 90
       50
102
RTVSPost2010PropOp47
 70
     1
102
RTVSPost2010Prop48
 90
       50
102
RTVSPost2010PropOp48
 70
     1
102
RTVSPost2010Prop49
280
     0
102
RTVSPost2010PropOp49
 70
     1
102
RTVSPost2010Prop50
 90
       50
102
RTVSPost2010PropOp50
 70
     1
102
RTVSPost2010Prop51ColorIndex
 90
      256
102
RTVSPost2010Prop51ColorRGB
 90
-16777216
102
RTVSPost2010PropOp51
 70
     0
102
RTVSPost2010Prop52
140
1.0
102
RTVSPost2010PropOp52
 70
     0
102
RTVSPost2010Prop53
 90
        2
102
RTVSPost2010PropOp53
 70
     1
102
RTVSPost2010Prop54
  1
strokes_ogs.tif
102
RTVSPost2010PropOp54
 70
     1
102
RTVSPost2010Prop55
280
     0
102
RTVSPost2010PropOp55
 70
     1
102
RTVSPost2010Prop56
140
1.0
102
RTVSPost2010PropOp56
 70
     1
102
RTVSPost2010Prop57
140
1.0
102
RTVSPost2010PropOp57
 70
     1
102
RTVSPropertyOp0
 70
     1
102
RTVSPropertyOp1
 70
     1
102
RTVSPropertyOp2
 70
     1
102
RTVSPropertyOp3
 70
     1
102
RTVSPropertyOp4
 70
     1
102
RTVSPropertyOp5
 70
     1
102
RTVSPropertyOp6
 70
     1
102
RTVSPropertyOp7
 70
     1
102
RTVSPropertyOp8
 70
     1
102
RTVSPropertyOp9
 70
     1
102
RTVSPropertyOp10
 70
     1
102
RTVSPropertyOp11
 70
     1
102
RTVSPropertyOp12
 70
     1
102
RTVSPropertyOp13
 70
     1
102
RTVSPropertyOp14
 70
     1
102
RTVSPropertyOp15
 70
     1
102
RTVSPropertyOp16
 70
     1
102
RTVSPropertyOp17
 70
     1
102
RTVSPropertyOp18
 70
     1
102
RTVSPropertyOp19
 70
     1
102
RTVSPropertyOp20
 70
     1
102
RTVSPropertyOp21
 70
     1
102
RTVSPropertyOp22
 70
     1
102
RTVSPropertyOp23
 70
     1
102
RTVSPropertyOp24
 70
     1
102
RTVSPropertyOp25
 70
     1
102
RTVSPropertyOp26
 70
     1
102
RTVSPropertyOp27
 70
     1
102
RTVSPropertyOp28
 70
     1
102
RTVSPropertyOp29
 70
     1
102
RTVSPropertyOp30
 70
     1
102
RTVSPropertyOp31
 70
     1
102
RTVSPropertyOp32
 70
     1
102
RTVSPropertyOp33
 70
     1
102
RTVSPropertyOp34
 70
     1
102
RTVSPropertyOp35
 70
     1
102
RTVSPropertyOp36
 70
     1
102
RTVSPropertyOp37
 70
     1
102
RTVSPropertyOp38
 70
     1
102
RTVSPropertyOp39
 70
     1
102
RTVSPropertyOp40
 70
     1
102
RTVSPropertyOp41
 70
     1
102
RTVSPropertyOp42
 70
     1
102
RTVSPropertyOp43
 70
     1
102
RTVSPropertyOp44
 70
     1
102
RTVSPropertyOp45
 70
     1
102
RTVSPropertyOp46
 70
     1
102
RTVSPropertyOp47
 70
     1
102
RTVSPropertyOp48
 70
     1
102
RTVSPropertyOp49
 70
     1
102
RTVSPropertyOp50
 70
     1
102
RTVSPropertyOp51
 70
     0
102
RTVSPropertyOp52
 70
     0
102
RTVSPropertyOp53
 70
     1
102
RTVSPropertyOp54
 70
     1
102
RTVSPropertyOp55
 70
     1
102
RTVSPropertyOp56
 70
     1
102
RTVSPropertyOp57
 70
     1
102
RTVSPropertyOp58
 70
     1
102
RTVSPropertyOp59
 70
     1
102
RTVSPropertyOp60
 70
     1
102
RTVSPropertyOp61
 70
     1
102
RTVSPropertyOp62
 70
     1
  0
XRECORD
  5
34587
102
{ACAD_REACTORS
330
34586
102
}
330
34586
100
AcDbXrecord
280
     1
102
RTVSPost2010Prop28
280
     0
102
RTVSPost2010PropOp28
 70
     1
102
RTVSPost2010Prop29
280
     1
102
RTVSPost2010PropOp29
 70
     1
102
RTVSPost2010Prop30
280
     1
102
RTVSPost2010PropOp30
 70
     1
102
RTVSPost2010Prop31
280
     0
102
RTVSPost2010PropOp31
 70
     1
102
RTVSPost2010Prop32
280
     0
102
RTVSPost2010PropOp32
 70
     1
102
RTVSPost2010Prop33
280
     0
102
RTVSPost2010PropOp33
 70
     1
102
RTVSPost2010Prop34
280
     0
102
RTVSPost2010PropOp34
 70
     1
102
RTVSPost2010Prop35
280
     0
102
RTVSPost2010PropOp35
 70
     1
102
RTVSPost2010Prop36
280
     0
102
RTVSPost2010PropOp36
 70
     1
102
RTVSPost2010Prop37
 90
       50
102
RTVSPost2010PropOp37
 70
     1
102
RTVSPost2010Prop38
140
0.0
102
RTVSPost2010PropOp38
 70
     1
102
RTVSPost2010Prop39
140
1.0
102
RTVSPost2010PropOp39
 70
     1
102
RTVSPost2010Prop40
 90
        0
102
RTVSPost2010PropOp40
 70
     1
102
RTVSPost2010Prop41ColorIndex
 90
       18
102
RTVSPost2010Prop41ColorRGB
 90
        0
102
RTVSPost2010PropOp41
 70
     1
102
RTVSPost2010Prop42
 90
       50
102
RTVSPost2010PropOp42
 70
     1
102
RTVSPost2010Prop43
 90
        3
102
RTVSPost2010PropOp43
 70
     1
102
RTVSPost2010Prop44ColorIndex
 90
        5
102
RTVSPost2010Prop44ColorRGB
 90
      255
102
RTVSPost2010PropOp44
 70
     1
102
RTVSPost2010Prop45
280
     0
102
RTVSPost2010PropOp45
 70
     1
102
RTVSPost2010Prop46
 90
       50
102
RTVSPost2010PropOp46
 70
     1
102
RTVSPost2010Prop47
 90
       50
102
RTVSPost2010PropOp47
 70
     1
102
RTVSPost2010Prop48
 90
       50
102
RTVSPost2010PropOp48
 70
     1
102
RTVSPost2010Prop49
280
     0
102
RTVSPost2010PropOp49
 70
     1
102
RTVSPost2010Prop50
 90
       50
102
RTVSPost2010PropOp50
 70
     1
102
RTVSPost2010Prop51ColorIndex
 90
      256
102
RTVSPost2010Prop51ColorRGB
 90
-16777216
102
RTVSPost2010PropOp51
 70
     0
102
RTVSPost2010Prop52
140
1.0
102
RTVSPost2010PropOp52
 70
     0
102
RTVSPost2010Prop53
 90
        2
102
RTVSPost2010PropOp53
 70
     1
102
RTVSPost2010Prop54
  1
strokes_ogs.tif
102
RTVSPost2010PropOp54
 70
     1
102
RTVSPost2010Prop55
280
     0
102
RTVSPost2010PropOp55
 70
     1
102
RTVSPost2010Prop56
140
1.0
102
RTVSPost2010PropOp56
 70
     1
102
RTVSPost2010Prop57
140
1.0
102
RTVSPost2010PropOp57
 70
     1
102
RTVSPropertyOp0
 70
     1
102
RTVSPropertyOp1
 70
     1
102
RTVSPropertyOp2
 70
     1
102
RTVSPropertyOp3
 70
     1
102
RTVSPropertyOp4
 70
     1
102
RTVSPropertyOp5
 70
     1
102
RTVSPropertyOp6
 70
     1
102
RTVSPropertyOp7
 70
     1
102
RTVSPropertyOp8
 70
     1
102
RTVSPropertyOp9
 70
     1
102
RTVSPropertyOp10
 70
     1
102
RTVSPropertyOp11
 70
     1
102
RTVSPropertyOp12
 70
     1
102
RTVSPropertyOp13
 70
     1
102
RTVSPropertyOp14
 70
     1
102
RTVSPropertyOp15
 70
     1
102
RTVSPropertyOp16
 70
     1
102
RTVSPropertyOp17
 70
     1
102
RTVSPropertyOp18
 70
     1
102
RTVSPropertyOp19
 70
     1
102
RTVSPropertyOp20
 70
     1
102
RTVSPropertyOp21
 70
     1
102
RTVSPropertyOp22
 70
     1
102
RTVSPropertyOp23
 70
     1
102
RTVSPropertyOp24
 70
     1
102
RTVSPropertyOp25
 70
     1
102
RTVSPropertyOp26
 70
     1
102
RTVSPropertyOp27
 70
     1
102
RTVSPropertyOp28
 70
     1
102
RTVSPropertyOp29
 70
     1
102
RTVSPropertyOp30
 70
     1
102
RTVSPropertyOp31
 70
     1
102
RTVSPropertyOp32
 70
     1
102
RTVSPropertyOp33
 70
     1
102
RTVSPropertyOp34
 70
     1
102
RTVSPropertyOp35
 70
     1
102
RTVSPropertyOp36
 70
     1
102
RTVSPropertyOp37
 70
     1
102
RTVSPropertyOp38
 70
     1
102
RTVSPropertyOp39
 70
     1
102
RTVSPropertyOp40
 70
     1
102
RTVSPropertyOp41
 70
     1
102
RTVSPropertyOp42
 70
     1
102
RTVSPropertyOp43
 70
     1
102
RTVSPropertyOp44
 70
     1
102
RTVSPropertyOp45
 70
     1
102
RTVSPropertyOp46
 70
     1
102
RTVSPropertyOp47
 70
     1
102
RTVSPropertyOp48
 70
     1
102
RTVSPropertyOp49
 70
     1
102
RTVSPropertyOp50
 70
     1
102
RTVSPropertyOp51
 70
     0
102
RTVSPropertyOp52
 70
     0
102
RTVSPropertyOp53
 70
     1
102
RTVSPropertyOp54
 70
     1
102
RTVSPropertyOp55
 70
     1
102
RTVSPropertyOp56
 70
     1
102
RTVSPropertyOp57
 70
     1
102
RTVSPropertyOp58
 70
     1
102
RTVSPropertyOp59
 70
     1
102
RTVSPropertyOp60
 70
     1
102
RTVSPropertyOp61
 70
     1
102
RTVSPropertyOp62
 70
     1
  0
XRECORD
  5
34589
102
{ACAD_REACTORS
330
34588
102
}
330
34588
100
AcDbXrecord
280
     1
102
RTVSPost2010Prop28
280
     0
102
RTVSPost2010PropOp28
 70
     1
102
RTVSPost2010Prop29
280
     1
102
RTVSPost2010PropOp29
 70
     1
102
RTVSPost2010Prop30
280
     1
102
RTVSPost2010PropOp30
 70
     1
102
RTVSPost2010Prop31
280
     0
102
RTVSPost2010PropOp31
 70
     1
102
RTVSPost2010Prop32
280
     0
102
RTVSPost2010PropOp32
 70
     1
102
RTVSPost2010Prop33
280
     0
102
RTVSPost2010PropOp33
 70
     1
102
RTVSPost2010Prop34
280
     0
102
RTVSPost2010PropOp34
 70
     1
102
RTVSPost2010Prop35
280
     0
102
RTVSPost2010PropOp35
 70
     1
102
RTVSPost2010Prop36
280
     0
102
RTVSPost2010PropOp36
 70
     1
102
RTVSPost2010Prop37
 90
       50
102
RTVSPost2010PropOp37
 70
     1
102
RTVSPost2010Prop38
140
0.0
102
RTVSPost2010PropOp38
 70
     1
102
RTVSPost2010Prop39
140
1.0
102
RTVSPost2010PropOp39
 70
     1
102
RTVSPost2010Prop40
 90
        0
102
RTVSPost2010PropOp40
 70
     1
102
RTVSPost2010Prop41ColorIndex
 90
       18
102
RTVSPost2010Prop41ColorRGB
 90
        0
102
RTVSPost2010PropOp41
 70
     1
102
RTVSPost2010Prop42
 90
       50
102
RTVSPost2010PropOp42
 70
     1
102
RTVSPost2010Prop43
 90
        3
102
RTVSPost2010PropOp43
 70
     1
102
RTVSPost2010Prop44ColorIndex
 90
        5
102
RTVSPost2010Prop44ColorRGB
 90
      255
102
RTVSPost2010PropOp44
 70
     1
102
RTVSPost2010Prop45
280
     0
102
RTVSPost2010PropOp45
 70
     1
102
RTVSPost2010Prop46
 90
       50
102
RTVSPost2010PropOp46
 70
     1
102
RTVSPost2010Prop47
 90
       50
102
RTVSPost2010PropOp47
 70
     1
102
RTVSPost2010Prop48
 90
       50
102
RTVSPost2010PropOp48
 70
     1
102
RTVSPost2010Prop49
280
     0
102
RTVSPost2010PropOp49
 70
     1
102
RTVSPost2010Prop50
 90
       50
102
RTVSPost2010PropOp50
 70
     1
102
RTVSPost2010Prop51ColorIndex
 90
      256
102
RTVSPost2010Prop51ColorRGB
 90
-16777216
102
RTVSPost2010PropOp51
 70
     0
102
RTVSPost2010Prop52
140
1.0
102
RTVSPost2010PropOp52
 70
     0
102
RTVSPost2010Prop53
 90
        2
102
RTVSPost2010PropOp53
 70
     1
102
RTVSPost2010Prop54
  1
strokes_ogs.tif
102
RTVSPost2010PropOp54
 70
     1
102
RTVSPost2010Prop55
280
     0
102
RTVSPost2010PropOp55
 70
     1
102
RTVSPost2010Prop56
140
1.0
102
RTVSPost2010PropOp56
 70
     1
102
RTVSPost2010Prop57
140
1.0
102
RTVSPost2010PropOp57
 70
     1
102
RTVSPropertyOp0
 70
     1
102
RTVSPropertyOp1
 70
     1
102
RTVSPropertyOp2
 70
     1
102
RTVSPropertyOp3
 70
     1
102
RTVSPropertyOp4
 70
     1
102
RTVSPropertyOp5
 70
     1
102
RTVSPropertyOp6
 70
     1
102
RTVSPropertyOp7
 70
     1
102
RTVSPropertyOp8
 70
     1
102
RTVSPropertyOp9
 70
     1
102
RTVSPropertyOp10
 70
     1
102
RTVSPropertyOp11
 70
     1
102
RTVSPropertyOp12
 70
     1
102
RTVSPropertyOp13
 70
     1
102
RTVSPropertyOp14
 70
     1
102
RTVSPropertyOp15
 70
     1
102
RTVSPropertyOp16
 70
     1
102
RTVSPropertyOp17
 70
     1
102
RTVSPropertyOp18
 70
     1
102
RTVSPropertyOp19
 70
     1
102
RTVSPropertyOp20
 70
     1
102
RTVSPropertyOp21
 70
     1
102
RTVSPropertyOp22
 70
     1
102
RTVSPropertyOp23
 70
     1
102
RTVSPropertyOp24
 70
     1
102
RTVSPropertyOp25
 70
     1
102
RTVSPropertyOp26
 70
     1
102
RTVSPropertyOp27
 70
     1
102
RTVSPropertyOp28
 70
     1
102
RTVSPropertyOp29
 70
     1
102
RTVSPropertyOp30
 70
     1
102
RTVSPropertyOp31
 70
     1
102
RTVSPropertyOp32
 70
     1
102
RTVSPropertyOp33
 70
     1
102
RTVSPropertyOp34
 70
     1
102
RTVSPropertyOp35
 70
     1
102
RTVSPropertyOp36
 70
     1
102
RTVSPropertyOp37
 70
     1
102
RTVSPropertyOp38
 70
     1
102
RTVSPropertyOp39
 70
     1
102
RTVSPropertyOp40
 70
     1
102
RTVSPropertyOp41
 70
     1
102
RTVSPropertyOp42
 70
     1
102
RTVSPropertyOp43
 70
     1
102
RTVSPropertyOp44
 70
     1
102
RTVSPropertyOp45
 70
     1
102
RTVSPropertyOp46
 70
     1
102
RTVSPropertyOp47
 70
     1
102
RTVSPropertyOp48
 70
     1
102
RTVSPropertyOp49
 70
     1
102
RTVSPropertyOp50
 70
     1
102
RTVSPropertyOp51
 70
     0
102
RTVSPropertyOp52
 70
     0
102
RTVSPropertyOp53
 70
     1
102
RTVSPropertyOp54
 70
     1
102
RTVSPropertyOp55
 70
     1
102
RTVSPropertyOp56
 70
     1
102
RTVSPropertyOp57
 70
     1
102
RTVSPropertyOp58
 70
     1
102
RTVSPropertyOp59
 70
     1
102
RTVSPropertyOp60
 70
     1
102
RTVSPropertyOp61
 70
     1
102
RTVSPropertyOp62
 70
     1
  0
XRECORD
  5
3457F
102
{ACAD_REACTORS
330
3457E
102
}
330
3457E
100
AcDbXrecord
280
     1
102
RTVSPost2010Prop28
280
     0
102
RTVSPost2010PropOp28
 70
     1
102
RTVSPost2010Prop29
280
     1
102
RTVSPost2010PropOp29
 70
     1
102
RTVSPost2010Prop30
280
     1
102
RTVSPost2010PropOp30
 70
     1
102
RTVSPost2010Prop31
280
     0
102
RTVSPost2010PropOp31
 70
     1
102
RTVSPost2010Prop32
280
     0
102
RTVSPost2010PropOp32
 70
     1
102
RTVSPost2010Prop33
280
     0
102
RTVSPost2010PropOp33
 70
     1
102
RTVSPost2010Prop34
280
     0
102
RTVSPost2010PropOp34
 70
     1
102
RTVSPost2010Prop35
280
     0
102
RTVSPost2010PropOp35
 70
     1
102
RTVSPost2010Prop36
280
     0
102
RTVSPost2010PropOp36
 70
     1
102
RTVSPost2010Prop37
 90
       50
102
RTVSPost2010PropOp37
 70
     1
102
RTVSPost2010Prop38
140
0.0
102
RTVSPost2010PropOp38
 70
     1
102
RTVSPost2010Prop39
140
1.0
102
RTVSPost2010PropOp39
 70
     1
102
RTVSPost2010Prop40
 90
        0
102
RTVSPost2010PropOp40
 70
     1
102
RTVSPost2010Prop41ColorIndex
 90
       18
102
RTVSPost2010Prop41ColorRGB
 90
        0
102
RTVSPost2010PropOp41
 70
     1
102
RTVSPost2010Prop42
 90
       50
102
RTVSPost2010PropOp42
 70
     1
102
RTVSPost2010Prop43
 90
        3
102
RTVSPost2010PropOp43
 70
     1
102
RTVSPost2010Prop44ColorIndex
 90
        5
102
RTVSPost2010Prop44ColorRGB
 90
      255
102
RTVSPost2010PropOp44
 70
     1
102
RTVSPost2010Prop45
280
     0
102
RTVSPost2010PropOp45
 70
     1
102
RTVSPost2010Prop46
 90
       50
102
RTVSPost2010PropOp46
 70
     1
102
RTVSPost2010Prop47
 90
       50
102
RTVSPost2010PropOp47
 70
     1
102
RTVSPost2010Prop48
 90
       50
102
RTVSPost2010PropOp48
 70
     1
102
RTVSPost2010Prop49
280
     0
102
RTVSPost2010PropOp49
 70
     1
102
RTVSPost2010Prop50
 90
       50
102
RTVSPost2010PropOp50
 70
     1
102
RTVSPost2010Prop51ColorIndex
 90
      256
102
RTVSPost2010Prop51ColorRGB
 90
-16777216
102
RTVSPost2010PropOp51
 70
     0
102
RTVSPost2010Prop52
140
1.0
102
RTVSPost2010PropOp52
 70
     0
102
RTVSPost2010Prop53
 90
        2
102
RTVSPost2010PropOp53
 70
     1
102
RTVSPost2010Prop54
  1
strokes_ogs.tif
102
RTVSPost2010PropOp54
 70
     1
102
RTVSPost2010Prop55
280
     0
102
RTVSPost2010PropOp55
 70
     1
102
RTVSPost2010Prop56
140
1.0
102
RTVSPost2010PropOp56
 70
     1
102
RTVSPost2010Prop57
140
1.0
102
RTVSPost2010PropOp57
 70
     1
102
RTVSPropertyOp0
 70
     1
102
RTVSPropertyOp1
 70
     1
102
RTVSPropertyOp2
 70
     1
102
RTVSPropertyOp3
 70
     1
102
RTVSPropertyOp4
 70
     1
102
RTVSPropertyOp5
 70
     1
102
RTVSPropertyOp6
 70
     1
102
RTVSPropertyOp7
 70
     1
102
RTVSPropertyOp8
 70
     1
102
RTVSPropertyOp9
 70
     1
102
RTVSPropertyOp10
 70
     1
102
RTVSPropertyOp11
 70
     1
102
RTVSPropertyOp12
 70
     1
102
RTVSPropertyOp13
 70
     1
102
RTVSPropertyOp14
 70
     1
102
RTVSPropertyOp15
 70
     1
102
RTVSPropertyOp16
 70
     1
102
RTVSPropertyOp17
 70
     1
102
RTVSPropertyOp18
 70
     1
102
RTVSPropertyOp19
 70
     1
102
RTVSPropertyOp20
 70
     1
102
RTVSPropertyOp21
 70
     1
102
RTVSPropertyOp22
 70
     1
102
RTVSPropertyOp23
 70
     1
102
RTVSPropertyOp24
 70
     1
102
RTVSPropertyOp25
 70
     1
102
RTVSPropertyOp26
 70
     1
102
RTVSPropertyOp27
 70
     1
102
RTVSPropertyOp28
 70
     1
102
RTVSPropertyOp29
 70
     1
102
RTVSPropertyOp30
 70
     1
102
RTVSPropertyOp31
 70
     1
102
RTVSPropertyOp32
 70
     1
102
RTVSPropertyOp33
 70
     1
102
RTVSPropertyOp34
 70
     1
102
RTVSPropertyOp35
 70
     1
102
RTVSPropertyOp36
 70
     1
102
RTVSPropertyOp37
 70
     1
102
RTVSPropertyOp38
 70
     1
102
RTVSPropertyOp39
 70
     1
102
RTVSPropertyOp40
 70
     1
102
RTVSPropertyOp41
 70
     1
102
RTVSPropertyOp42
 70
     1
102
RTVSPropertyOp43
 70
     1
102
RTVSPropertyOp44
 70
     1
102
RTVSPropertyOp45
 70
     1
102
RTVSPropertyOp46
 70
     1
102
RTVSPropertyOp47
 70
     1
102
RTVSPropertyOp48
 70
     1
102
RTVSPropertyOp49
 70
     1
102
RTVSPropertyOp50
 70
     1
102
RTVSPropertyOp51
 70
     0
102
RTVSPropertyOp52
 70
     0
102
RTVSPropertyOp53
 70
     1
102
RTVSPropertyOp54
 70
     1
102
RTVSPropertyOp55
 70
     1
102
RTVSPropertyOp56
 70
     1
102
RTVSPropertyOp57
 70
     1
102
RTVSPropertyOp58
 70
     1
102
RTVSPropertyOp59
 70
     1
102
RTVSPropertyOp60
 70
     1
102
RTVSPropertyOp61
 70
     1
102
RTVSPropertyOp62
 70
     1
  0
XRECORD
  5
34573
102
{ACAD_REACTORS
330
34572
102
}
330
34572
100
AcDbXrecord
280
     1
102
RTVSPost2010Prop28
280
     0
102
RTVSPost2010PropOp28
 70
     1
102
RTVSPost2010Prop29
280
     1
102
RTVSPost2010PropOp29
 70
     1
102
RTVSPost2010Prop30
280
     1
102
RTVSPost2010PropOp30
 70
     1
102
RTVSPost2010Prop31
280
     0
102
RTVSPost2010PropOp31
 70
     1
102
RTVSPost2010Prop32
280
     0
102
RTVSPost2010PropOp32
 70
     1
102
RTVSPost2010Prop33
280
     0
102
RTVSPost2010PropOp33
 70
     1
102
RTVSPost2010Prop34
280
     0
102
RTVSPost2010PropOp34
 70
     1
102
RTVSPost2010Prop35
280
     0
102
RTVSPost2010PropOp35
 70
     1
102
RTVSPost2010Prop36
280
     0
102
RTVSPost2010PropOp36
 70
     1
102
RTVSPost2010Prop37
 90
       50
102
RTVSPost2010PropOp37
 70
     1
102
RTVSPost2010Prop38
140
0.0
102
RTVSPost2010PropOp38
 70
     1
102
RTVSPost2010Prop39
140
1.0
102
RTVSPost2010PropOp39
 70
     1
102
RTVSPost2010Prop40
 90
        0
102
RTVSPost2010PropOp40
 70
     1
102
RTVSPost2010Prop41ColorIndex
 90
       18
102
RTVSPost2010Prop41ColorRGB
 90
        0
102
RTVSPost2010PropOp41
 70
     1
102
RTVSPost2010Prop42
 90
       50
102
RTVSPost2010PropOp42
 70
     1
102
RTVSPost2010Prop43
 90
        3
102
RTVSPost2010PropOp43
 70
     1
102
RTVSPost2010Prop44ColorIndex
 90
        5
102
RTVSPost2010Prop44ColorRGB
 90
      255
102
RTVSPost2010PropOp44
 70
     1
102
RTVSPost2010Prop45
280
     0
102
RTVSPost2010PropOp45
 70
     1
102
RTVSPost2010Prop46
 90
       50
102
RTVSPost2010PropOp46
 70
     1
102
RTVSPost2010Prop47
 90
       50
102
RTVSPost2010PropOp47
 70
     1
102
RTVSPost2010Prop48
 90
       50
102
RTVSPost2010PropOp48
 70
     1
102
RTVSPost2010Prop49
280
     0
102
RTVSPost2010PropOp49
 70
     1
102
RTVSPost2010Prop50
 90
       50
102
RTVSPost2010PropOp50
 70
     1
102
RTVSPost2010Prop51ColorIndex
 90
      256
102
RTVSPost2010Prop51ColorRGB
 90
-16777216
102
RTVSPost2010PropOp51
 70
     0
102
RTVSPost2010Prop52
140
1.0
102
RTVSPost2010PropOp52
 70
     0
102
RTVSPost2010Prop53
 90
        2
102
RTVSPost2010PropOp53
 70
     1
102
RTVSPost2010Prop54
  1
strokes_ogs.tif
102
RTVSPost2010PropOp54
 70
     1
102
RTVSPost2010Prop55
280
     0
102
RTVSPost2010PropOp55
 70
     1
102
RTVSPost2010Prop56
140
1.0
102
RTVSPost2010PropOp56
 70
     1
102
RTVSPost2010Prop57
140
1.0
102
RTVSPost2010PropOp57
 70
     1
102
RTVSPropertyOp0
 70
     1
102
RTVSPropertyOp1
 70
     1
102
RTVSPropertyOp2
 70
     1
102
RTVSPropertyOp3
 70
     1
102
RTVSPropertyOp4
 70
     1
102
RTVSPropertyOp5
 70
     1
102
RTVSPropertyOp6
 70
     1
102
RTVSPropertyOp7
 70
     1
102
RTVSPropertyOp8
 70
     1
102
RTVSPropertyOp9
 70
     1
102
RTVSPropertyOp10
 70
     1
102
RTVSPropertyOp11
 70
     1
102
RTVSPropertyOp12
 70
     1
102
RTVSPropertyOp13
 70
     1
102
RTVSPropertyOp14
 70
     1
102
RTVSPropertyOp15
 70
     1
102
RTVSPropertyOp16
 70
     1
102
RTVSPropertyOp17
 70
     1
102
RTVSPropertyOp18
 70
     1
102
RTVSPropertyOp19
 70
     1
102
RTVSPropertyOp20
 70
     1
102
RTVSPropertyOp21
 70
     1
102
RTVSPropertyOp22
 70
     1
102
RTVSPropertyOp23
 70
     1
102
RTVSPropertyOp24
 70
     1
102
RTVSPropertyOp25
 70
     1
102
RTVSPropertyOp26
 70
     1
102
RTVSPropertyOp27
 70
     1
102
RTVSPropertyOp28
 70
     1
102
RTVSPropertyOp29
 70
     1
102
RTVSPropertyOp30
 70
     1
102
RTVSPropertyOp31
 70
     1
102
RTVSPropertyOp32
 70
     1
102
RTVSPropertyOp33
 70
     1
102
RTVSPropertyOp34
 70
     1
102
RTVSPropertyOp35
 70
     1
102
RTVSPropertyOp36
 70
     1
102
RTVSPropertyOp37
 70
     1
102
RTVSPropertyOp38
 70
     1
102
RTVSPropertyOp39
 70
     1
102
RTVSPropertyOp40
 70
     1
102
RTVSPropertyOp41
 70
     1
102
RTVSPropertyOp42
 70
     1
102
RTVSPropertyOp43
 70
     1
102
RTVSPropertyOp44
 70
     1
102
RTVSPropertyOp45
 70
     1
102
RTVSPropertyOp46
 70
     1
102
RTVSPropertyOp47
 70
     1
102
RTVSPropertyOp48
 70
     1
102
RTVSPropertyOp49
 70
     1
102
RTVSPropertyOp50
 70
     1
102
RTVSPropertyOp51
 70
     0
102
RTVSPropertyOp52
 70
     0
102
RTVSPropertyOp53
 70
     1
102
RTVSPropertyOp54
 70
     1
102
RTVSPropertyOp55
 70
     1
102
RTVSPropertyOp56
 70
     1
102
RTVSPropertyOp57
 70
     1
102
RTVSPropertyOp58
 70
     1
102
RTVSPropertyOp59
 70
     1
102
RTVSPropertyOp60
 70
     1
102
RTVSPropertyOp61
 70
     1
102
RTVSPropertyOp62
 70
     1
  0
XRECORD
  5
3458B
102
{ACAD_REACTORS
330
3458A
102
}
330
3458A
100
AcDbXrecord
280
     1
102
RTVSPost2010Prop28
280
     0
102
RTVSPost2010PropOp28
 70
     1
102
RTVSPost2010Prop29
280
     1
102
RTVSPost2010PropOp29
 70
     1
102
RTVSPost2010Prop30
280
     1
102
RTVSPost2010PropOp30
 70
     1
102
RTVSPost2010Prop31
280
     0
102
RTVSPost2010PropOp31
 70
     1
102
RTVSPost2010Prop32
280
     0
102
RTVSPost2010PropOp32
 70
     1
102
RTVSPost2010Prop33
280
     0
102
RTVSPost2010PropOp33
 70
     1
102
RTVSPost2010Prop34
280
     0
102
RTVSPost2010PropOp34
 70
     1
102
RTVSPost2010Prop35
280
     0
102
RTVSPost2010PropOp35
 70
     1
102
RTVSPost2010Prop36
280
     0
102
RTVSPost2010PropOp36
 70
     1
102
RTVSPost2010Prop37
 90
       50
102
RTVSPost2010PropOp37
 70
     1
102
RTVSPost2010Prop38
140
0.0
102
RTVSPost2010PropOp38
 70
     1
102
RTVSPost2010Prop39
140
1.0
102
RTVSPost2010PropOp39
 70
     1
102
RTVSPost2010Prop40
 90
        0
102
RTVSPost2010PropOp40
 70
     1
102
RTVSPost2010Prop41ColorIndex
 90
       18
102
RTVSPost2010Prop41ColorRGB
 90
        0
102
RTVSPost2010PropOp41
 70
     1
102
RTVSPost2010Prop42
 90
       50
102
RTVSPost2010PropOp42
 70
     1
102
RTVSPost2010Prop43
 90
        3
102
RTVSPost2010PropOp43
 70
     1
102
RTVSPost2010Prop44ColorIndex
 90
        5
102
RTVSPost2010Prop44ColorRGB
 90
      255
102
RTVSPost2010PropOp44
 70
     1
102
RTVSPost2010Prop45
280
     0
102
RTVSPost2010PropOp45
 70
     1
102
RTVSPost2010Prop46
 90
       50
102
RTVSPost2010PropOp46
 70
     1
102
RTVSPost2010Prop47
 90
       50
102
RTVSPost2010PropOp47
 70
     1
102
RTVSPost2010Prop48
 90
       50
102
RTVSPost2010PropOp48
 70
     1
102
RTVSPost2010Prop49
280
     0
102
RTVSPost2010PropOp49
 70
     1
102
RTVSPost2010Prop50
 90
       50
102
RTVSPost2010PropOp50
 70
     1
102
RTVSPost2010Prop51ColorIndex
 90
      256
102
RTVSPost2010Prop51ColorRGB
 90
-16777216
102
RTVSPost2010PropOp51
 70
     0
102
RTVSPost2010Prop52
140
1.0
102
RTVSPost2010PropOp52
 70
     0
102
RTVSPost2010Prop53
 90
        2
102
RTVSPost2010PropOp53
 70
     1
102
RTVSPost2010Prop54
  1
strokes_ogs.tif
102
RTVSPost2010PropOp54
 70
     1
102
RTVSPost2010Prop55
280
     0
102
RTVSPost2010PropOp55
 70
     1
102
RTVSPost2010Prop56
140
1.0
102
RTVSPost2010PropOp56
 70
     1
102
RTVSPost2010Prop57
140
1.0
102
RTVSPost2010PropOp57
 70
     1
102
RTVSPropertyOp0
 70
     1
102
RTVSPropertyOp1
 70
     1
102
RTVSPropertyOp2
 70
     1
102
RTVSPropertyOp3
 70
     1
102
RTVSPropertyOp4
 70
     1
102
RTVSPropertyOp5
 70
     1
102
RTVSPropertyOp6
 70
     1
102
RTVSPropertyOp7
 70
     1
102
RTVSPropertyOp8
 70
     1
102
RTVSPropertyOp9
 70
     1
102
RTVSPropertyOp10
 70
     1
102
RTVSPropertyOp11
 70
     1
102
RTVSPropertyOp12
 70
     1
102
RTVSPropertyOp13
 70
     1
102
RTVSPropertyOp14
 70
     1
102
RTVSPropertyOp15
 70
     1
102
RTVSPropertyOp16
 70
     1
102
RTVSPropertyOp17
 70
     1
102
RTVSPropertyOp18
 70
     1
102
RTVSPropertyOp19
 70
     1
102
RTVSPropertyOp20
 70
     1
102
RTVSPropertyOp21
 70
     1
102
RTVSPropertyOp22
 70
     1
102
RTVSPropertyOp23
 70
     1
102
RTVSPropertyOp24
 70
     1
102
RTVSPropertyOp25
 70
     1
102
RTVSPropertyOp26
 70
     1
102
RTVSPropertyOp27
 70
     1
102
RTVSPropertyOp28
 70
     1
102
RTVSPropertyOp29
 70
     1
102
RTVSPropertyOp30
 70
     1
102
RTVSPropertyOp31
 70
     1
102
RTVSPropertyOp32
 70
     1
102
RTVSPropertyOp33
 70
     1
102
RTVSPropertyOp34
 70
     1
102
RTVSPropertyOp35
 70
     1
102
RTVSPropertyOp36
 70
     1
102
RTVSPropertyOp37
 70
     1
102
RTVSPropertyOp38
 70
     1
102
RTVSPropertyOp39
 70
     1
102
RTVSPropertyOp40
 70
     1
102
RTVSPropertyOp41
 70
     1
102
RTVSPropertyOp42
 70
     1
102
RTVSPropertyOp43
 70
     1
102
RTVSPropertyOp44
 70
     1
102
RTVSPropertyOp45
 70
     1
102
RTVSPropertyOp46
 70
     1
102
RTVSPropertyOp47
 70
     1
102
RTVSPropertyOp48
 70
     1
102
RTVSPropertyOp49
 70
     1
102
RTVSPropertyOp50
 70
     1
102
RTVSPropertyOp51
 70
     0
102
RTVSPropertyOp52
 70
     0
102
RTVSPropertyOp53
 70
     1
102
RTVSPropertyOp54
 70
     1
102
RTVSPropertyOp55
 70
     1
102
RTVSPropertyOp56
 70
     1
102
RTVSPropertyOp57
 70
     1
102
RTVSPropertyOp58
 70
     1
102
RTVSPropertyOp59
 70
     1
102
RTVSPropertyOp60
 70
     1
102
RTVSPropertyOp61
 70
     1
102
RTVSPropertyOp62
 70
     1
  0
ENDSEC
  0
EOF
