  0
SECTION
  2
HEADER
  9
$ACADVER
  1
AC1015
  9
$ACADMAINTVER
 70
    20
  9
$DWGCODEPAGE
  3
ANSI_932
  9
$INSBASE
 10
0.0
 20
0.0
 30
0.0
  9
$EXTMIN
 10
9765.834311945212
 20
16879.29564893371
 30
-0.0000000000000058
  9
$EXTMAX
 10
13967.51080789268
 20
19850.61865666525
 30
0.0000000000000104
  9
$LIMMIN
 10
0.0
 20
0.0
  9
$LIMMAX
 10
420.0
 20
297.0
  9
$ORTHOMODE
 70
     1
  9
$REGENMODE
 70
     1
  9
$FILLMODE
 70
     1
  9
$QTEXTMODE
 70
     0
  9
$MIRRTEXT
 70
     0
  9
$LTSCALE
 40
0.1
  9
$ATTMODE
 70
     1
  9
$TEXTSIZE
 40
2.5
  9
$TRACEWID
 40
1.0
  9
$TEXTSTYLE
  7
Standard
  9
$CLAYER
  8
0
  9
$CELTYPE
  6
ByLayer
  9
$CECOLOR
 62
   256
  9
$CELTSCALE
 40
1.0
  9
$DISPSILH
 70
     0
  9
$DIMSCALE
 40
10.0
  9
$DIMASZ
 40
1.0
  9
$DIMEXO
 40
3.0
  9
$DIMDLI
 40
7.0
  9
$DIMRND
 40
0.0
  9
$DIMDLE
 40
0.0
  9
$DIMEXE
 40
2.0
  9
$DIMTP
 40
0.0
  9
$DIMTM
 40
0.0
  9
$DIMTXT
 40
2.7
  9
$DIMCEN
 40
0.0
  9
$DIMTSZ
 40
0.0
  9
$DIMTOL
 70
     0
  9
$DIMLIM
 70
     0
  9
$DIMTIH
 70
     0
  9
$DIMTOH
 70
     0
  9
$DIMSE1
 70
     0
  9
$DIMSE2
 70
     0
  9
$DIMTAD
 70
     1
  9
$DIMZIN
 70
     8
  9
$DIMBLK
  1
OPEN
  9
$DIMASO
 70
     1
  9
$DIMSHO
 70
     1
  9
$DIMPOST
  1

  9
$DIMAPOST
  1

  9
$DIMALT
 70
     0
  9
$DIMALTD
 70
     2
  9
$DIMALTF
 40
25.4
  9
$DIMLFAC
 40
1.0
  9
$DIMTOFL
 70
     1
  9
$DIMTVP
 40
0.0
  9
$DIMTIX
 70
     1
  9
$DIMSOXD
 70
     0
  9
$DIMSAH
 70
     0
  9
$DIMBLK1
  1

  9
$DIMBLK2
  1

  9
$DIMSTYLE
  2
y-10
  9
$DIMCLRD
 70
     4
  9
$DIMCLRE
 70
     4
  9
$DIMCLRT
 70
     3
  9
$DIMTFAC
 40
1.0
  9
$DIMGAP
 40
1.0
  9
$DIMJUST
 70
     0
  9
$DIMSD1
 70
     0
  9
$DIMSD2
 70
     0
  9
$DIMTOLJ
 70
     1
  9
$DIMTZIN
 70
     0
  9
$DIMALTZ
 70
     0
  9
$DIMALTTZ
 70
     0
  9
$DIMUPT
 70
     0
  9
$DIMDEC
 70
     3
  9
$DIMTDEC
 70
     3
  9
$DIMALTU
 70
     2
  9
$DIMALTTD
 70
     2
  9
$DIMTXSTY
  7
Standard
  9
$DIMAUNIT
 70
     0
  9
$DIMADEC
 70
     3
  9
$DIMALTRND
 40
0.0
  9
$DIMAZIN
 70
     2
  9
$DIMDSEP
 70
    46
  9
$DIMATFIT
 70
     0
  9
$DIMFRAC
 70
     0
  9
$DIMLDRBLK
  1
OPEN
  9
$DIMLUNIT
 70
     2
  9
$DIMLWD
 70
    -2
  9
$DIMLWE
 70
    -2
  9
$DIMTMOVE
 70
     0
  9
$LUNITS
 70
     2
  9
$LUPREC
 70
     4
  9
$SKETCHINC
 40
1.0
  9
$FILLETRAD
 40
4.0
  9
$AUNITS
 70
     0
  9
$AUPREC
 70
     0
  9
$MENU
  1
.
  9
$ELEVATION
 40
0.0
  9
$PELEVATION
 40
0.0
  9
$THICKNESS
 40
0.0
  9
$LIMCHECK
 70
     0
  9
$CHAMFERA
 40
1.0
  9
$CHAMFERB
 40
1.0
  9
$CHAMFERC
 40
0.0
  9
$CHAMFERD
 40
0.0
  9
$SKPOLY
 70
     0
  9
$TDCREATE
 40
2456364.451757442
  9
$TDUCREATE
 40
2456364.076757442
  9
$TDUPDATE
 40
2458457.559078125
  9
$TDUUPDATE
 40
2458457.184078125
  9
$TDINDWG
 40
0.5855691782
  9
$TDUSRTIMER
 40
0.5855691782
  9
$USRTIMER
 70
     1
  9
$ANGBASE
 50
0.0
  9
$ANGDIR
 70
     0
  9
$PDMODE
 70
     0
  9
$PDSIZE
 40
0.0
  9
$PLINEWID
 40
0.0
  9
$SPLFRAME
 70
     0
  9
$SPLINETYPE
 70
     6
  9
$SPLINESEGS
 70
     8
  9
$HANDSEED
  5
324B1
  9
$SURFTAB1
 70
     6
  9
$SURFTAB2
 70
     6
  9
$SURFTYPE
 70
     6
  9
$SURFU
 70
     6
  9
$SURFV
 70
     6
  9
$UCSBASE
  2

  9
$UCSNAME
  2

  9
$UCSORG
 10
0.0
 20
0.0
 30
0.0
  9
$UCSXDIR
 10
1.0
 20
0.0
 30
0.0
  9
$UCSYDIR
 10
0.0
 20
1.0
 30
0.0
  9
$UCSORTHOREF
  2

  9
$UCSORTHOVIEW
 70
     0
  9
$UCSORGTOP
 10
0.0
 20
0.0
 30
0.0
  9
$UCSORGBOTTOM
 10
0.0
 20
0.0
 30
0.0
  9
$UCSORGLEFT
 10
0.0
 20
0.0
 30
0.0
  9
$UCSORGRIGHT
 10
0.0
 20
0.0
 30
0.0
  9
$UCSORGFRONT
 10
0.0
 20
0.0
 30
0.0
  9
$UCSORGBACK
 10
0.0
 20
0.0
 30
0.0
  9
$PUCSBASE
  2

  9
$PUCSNAME
  2

  9
$PUCSORG
 10
0.0
 20
0.0
 30
0.0
  9
$PUCSXDIR
 10
1.0
 20
0.0
 30
0.0
  9
$PUCSYDIR
 10
0.0
 20
1.0
 30
0.0
  9
$PUCSORTHOREF
  2

  9
$PUCSORTHOVIEW
 70
     0
  9
$PUCSORGTOP
 10
0.0
 20
0.0
 30
0.0
  9
$PUCSORGBOTTOM
 10
0.0
 20
0.0
 30
0.0
  9
$PUCSORGLEFT
 10
0.0
 20
0.0
 30
0.0
  9
$PUCSORGRIGHT
 10
0.0
 20
0.0
 30
0.0
  9
$PUCSORGFRONT
 10
0.0
 20
0.0
 30
0.0
  9
$PUCSORGBACK
 10
0.0
 20
0.0
 30
0.0
  9
$USERI1
 70
     0
  9
$USERI2
 70
     0
  9
$USERI3
 70
     0
  9
$USERI4
 70
     0
  9
$USERI5
 70
     0
  9
$USERR1
 40
0.0
  9
$USERR2
 40
0.0
  9
$USERR3
 40
0.0
  9
$USERR4
 40
0.0
  9
$USERR5
 40
0.0
  9
$WORLDVIEW
 70
     1
  9
$SHADEDGE
 70
     3
  9
$SHADEDIF
 70
    70
  9
$TILEMODE
 70
     1
  9
$MAXACTVP
 70
    64
  9
$PINSBASE
 10
0.0
 20
0.0
 30
0.0
  9
$PLIMCHECK
 70
     0
  9
$PEXTMIN
 10
0.0
 20
0.0
 30
0.0
  9
$PEXTMAX
 10
0.0
 20
0.0
 30
0.0
  9
$PLIMMIN
 10
0.0
 20
0.0
  9
$PLIMMAX
 10
12.0
 20
9.0
  9
$UNITMODE
 70
     0
  9
$VISRETAIN
 70
     1
  9
$PLINEGEN
 70
     0
  9
$PSLTSCALE
 70
     1
  9
$TREEDEPTH
 70
  3020
  9
$CMLSTYLE
  2
Standard
  9
$CMLJUST
 70
     0
  9
$CMLSCALE
 40
20.0
  9
$PROXYGRAPHICS
 70
     1
  9
$MEASUREMENT
 70
     1
  9
$CELWEIGHT
370
    -1
  9
$ENDCAPS
280
     0
  9
$JOINSTYLE
280
     0
  9
$LWDISPLAY
290
     0
  9
$INSUNITS
 70
     4
  9
$HYPERLINKBASE
  1

  9
$STYLESHEET
  1

  9
$XEDIT
290
     1
  9
$CEPSNTYPE
380
     0
  9
$PSTYLEMODE
290
     1
  9
$FINGERPRINTGUID
  2
{048D7377-A980-11D2-9A39-0060089B3A3F}
  9
$VERSIONGUID
  2
{C1FAA63C-4FA9-461D-9938-F1F324DDE8AF}
  9
$EXTNAMES
290
     1
  9
$PSVPSCALE
 40
0.0
  9
$OLESTARTUP
290
     0
  0
ENDSEC
  0
SECTION
  2
CLASSES
  0
CLASS
  1
ACDBDICTIONARYWDFLT
  2
AcDbDictionaryWithDefault
  3
ObjectDBX Classes
 90
        0
280
     0
281
     0
  0
CLASS
  1
ACDBPLACEHOLDER
  2
AcDbPlaceHolder
  3
ObjectDBX Classes
 90
        0
280
     0
281
     0
  0
CLASS
  1
LAYOUT
  2
AcDbLayout
  3
ObjectDBX Classes
 90
        0
280
     0
281
     0
  0
CLASS
  1
PLOTSETTINGS
  2
AcDbPlotSettings
  3
ObjectDBX Classes
 90
    32768
280
     0
281
     0
  0
CLASS
  1
DICTIONARYVAR
  2
AcDbDictionaryVar
  3
ObjectDBX Classes
 90
        0
280
     0
281
     0
  0
CLASS
  1
SORTENTSTABLE
  2
AcDbSortentsTable
  3
ObjectDBX Classes
 90
        0
280
     0
281
     0
  0
CLASS
  1
DIMASSOC
  2
AcDbDimAssoc
  3
"AcDbDimAssoc|Product Desc:     AcDim ARX App For Dimension|Company:          Autodesk, Inc.|WEB Address:      www.autodesk.com"
 90
    32768
280
     0
281
     0
  0
CLASS
  1
MATERIAL
  2
AcDbMaterial
  3
ObjectDBX Classes
 90
        0
280
     0
281
     0
  0
CLASS
  1
VISUALSTYLE
  2
AcDbVisualStyle
  3
ObjectDBX Classes
 90
     4095
280
     0
281
     0
  0
CLASS
  1
TABLESTYLE
  2
AcDbTableStyle
  3
ObjectDBX Classes
 90
     4095
280
     0
281
     0
  0
CLASS
  1
SCALE
  2
AcDbScale
  3
ObjectDBX Classes
 90
     1153
280
     0
281
     0
  0
CLASS
  1
MLEADERSTYLE
  2
AcDbMLeaderStyle
  3
ACDB_MLEADERSTYLE_CLASS
 90
     4095
280
     0
281
     0
  0
CLASS
  1
ACDBSECTIONVIEWSTYLE
  2
AcDbSectionViewStyle
  3
ObjectDBX Classes
 90
     1025
280
     0
281
     0
  0
CLASS
  1
ACDBDETAILVIEWSTYLE
  2
AcDbDetailViewStyle
  3
ObjectDBX Classes
 90
     1025
280
     0
281
     0
  0
CLASS
  1
CELLSTYLEMAP
  2
AcDbCellStyleMap
  3
ObjectDBX Classes
 90
     1152
280
     0
281
     0
  0
ENDSEC
  0
SECTION
  2
TABLES
  0
TABLE
  2
VPORT
  5
19
102
{ACAD_XDICTIONARY
360
2E535
102
}
330
0
100
AcDbSymbolTable
 70
     4
  0
VPORT
  5
324A9
330
19
100
AcDbSymbolTableRecord
100
AcDbViewportTableRecord
  2
*Active
 70
     0
 10
0.0
 20
0.0
 11
1.0
 21
1.0
 12
11866.67255991895
 22
18364.95715279948
 13
0.0
 23
0.0
 14
10.0
 24
10.0
 15
10.0
 25
10.0
 16
0.0
 26
0.0
 36
1.0
 17
0.0
 27
0.0
 37
0.0
 40
2993.804644612239
 41
2.029040404040403
 42
50.0
 43
0.0
 44
0.0
 50
0.0
 51
0.0
 71
     0
 72
  1000
 73
     1
 74
     3
 75
     0
 76
     0
 77
     0
 78
     1
281
     0
 65
     1
110
0.0
120
0.0
130
0.0
111
1.0
121
0.0
131
0.0
112
0.0
122
1.0
132
0.0
 79
     0
146
0.0
  0
ENDTAB
  0
TABLE
  2
LTYPE
  5
14
330
0
100
AcDbSymbolTable
 70
     7
  0
LTYPE
  5
15
330
14
100
AcDbSymbolTableRecord
100
AcDbLinetypeTableRecord
  2
ByBlock
 70
     0
  3

 72
    65
 73
     0
 40
0.0
  0
LTYPE
  5
16
330
14
100
AcDbSymbolTableRecord
100
AcDbLinetypeTableRecord
  2
ByLayer
 70
     0
  3

 72
    65
 73
     0
 40
0.0
  0
LTYPE
  5
8
330
14
100
AcDbSymbolTableRecord
100
AcDbLinetypeTableRecord
  2
Continuous
 70
     0
  3
Solid line
 72
    65
 73
     0
 40
0.0
  0
ENDTAB
  0
TABLE
  2
LAYER
  5
10
102
{ACAD_XDICTIONARY
360
988
102
}
330
0
100
AcDbSymbolTable
 70
    12
  0
LAYER
  5
4
102
{ACAD_XDICTIONARY
360
2E50F
102
}
330
10
100
AcDbSymbolTableRecord
100
AcDbLayerTableRecord
  2
0
 70
     0
 62
     7
  6
Continuous
370
    -3
390
5
  0
LAYER
  5
188
330
10
100
AcDbSymbolTableRecord
100
AcDbLayerTableRecord
  2
DEFPOINTS
 70
     0
 62
     7
  6
Continuous
290
     0
370
    -3
390
5
  0
ENDTAB
  0
TABLE
  2
STYLE
  5
11
330
0
100
AcDbSymbolTable
 70
     2
  0
STYLE
  5
12
330
11
100
AcDbSymbolTableRecord
100
AcDbTextStyleTableRecord
  2
Standard
 70
     0
 40
0.0
 41
0.8
 50
0.0
 71
     0
 42
2.5
  3
isocp.shx
  4
bigfont.shx
  0
ENDTAB
  0
TABLE
  2
VIEW
  5
17
330
0
100
AcDbSymbolTable
 70
     0
  0
ENDTAB
  0
TABLE
  2
UCS
  5
18
330
0
100
AcDbSymbolTable
 70
     0
  0
ENDTAB
  0
TABLE
  2
APPID
  5
1B
330
0
100
AcDbSymbolTable
 70
    10
  0
APPID
  5
1C
330
1B
100
AcDbSymbolTableRecord
100
AcDbRegAppTableRecord
  2
ACAD
 70
     0
  0
APPID
  5
AB6A
330
1B
100
AcDbSymbolTableRecord
100
AcDbRegAppTableRecord
  2
ACAD_PSEXT
 70
     0
  0
APPID
  5
AB6B
330
1B
100
AcDbSymbolTableRecord
100
AcDbRegAppTableRecord
  2
AcadAnnotative
 70
     0
  0
APPID
  5
2DB3C
330
1B
100
AcDbSymbolTableRecord
100
AcDbRegAppTableRecord
  2
ACAD_NAV_VCDISPLAY
 70
     0
  0
APPID
  5
2DB3D
330
1B
100
AcDbSymbolTableRecord
100
AcDbRegAppTableRecord
  2
ACAD_EXEMPT_FROM_CAD_STANDARDS
 70
     0
  0
APPID
  5
2E5E2
330
1B
100
AcDbSymbolTableRecord
100
AcDbRegAppTableRecord
  2
ACAD_MLEADERVER
 70
     0
  0
APPID
  5
2E5FC
330
1B
100
AcDbSymbolTableRecord
100
AcDbRegAppTableRecord
  2
ACAD_DSTYLE_DIMJAG
 70
     0
  0
APPID
  5
2E5FD
330
1B
100
AcDbSymbolTableRecord
100
AcDbRegAppTableRecord
  2
ACAD_DSTYLE_DIMTALN
 70
     0
  0
APPID
  5
2FE22
330
1B
100
AcDbSymbolTableRecord
100
AcDbRegAppTableRecord
  2
AcAecLayerStandard
 70
     0
  0
APPID
  5
2FE23
330
1B
100
AcDbSymbolTableRecord
100
AcDbRegAppTableRecord
  2
AcCmTransparency
 70
     0
  0
ENDTAB
  0
TABLE
  2
DIMSTYLE
  5
1D
330
0
100
AcDbSymbolTable
 70
    12
100
AcDbDimStyleTable
 71
     1
340
196
  0
DIMSTYLE
105
196
330
1D
100
AcDbSymbolTableRecord
100
AcDbDimStyleTableRecord
  2
y-10
 70
     0
 40
10.0
 41
1.0
 42
3.0
 43
7.0
 44
2.0
 73
     0
 74
     0
 77
     1
 78
     8
 79
     2
140
2.7
141
0.0
147
1.0
172
     1
174
     1
176
     4
177
     4
178
     3
179
     3
271
     3
272
     3
289
     0
340
12
341
105
342
105
  0
DIMSTYLE
105
31EE
330
1D
100
AcDbSymbolTableRecord
100
AcDbDimStyleTableRecord
  2
STANDARD
 70
     0
 41
2.5
 42
0.5
 43
8.0
 44
1.0
 77
     2
 78
     8
140
3.2
141
2.5
143
0.0394
147
0.625
279
     2
340
12
  0
ENDTAB
  0
TABLE
  2
BLOCK_RECORD
  5
1
330
0
100
AcDbSymbolTable
 70
    13
  0
BLOCK_RECORD
  5
2
102
{ACAD_XDICTIONARY
360
2DD28
102
}
330
1
100
AcDbSymbolTableRecord
100
AcDbBlockTableRecord
  2
*Model_Space
340
A
  0
BLOCK_RECORD
  5
2F49B
330
1
100
AcDbSymbolTableRecord
100
AcDbBlockTableRecord
  2
*Paper_Space
340
2F49C
  0
BLOCK_RECORD
  5
105
330
1
100
AcDbSymbolTableRecord
100
AcDbBlockTableRecord
  2
_OPEN
340
0
102
{BLKREFS
331
32358
331
32359
331
3236A
331
3236B
331
3239D
331
3239E
331
323A6
331
323A7
331
323AF
331
323B0
331
323BA
331
323BB
331
323C3
331
323C4
331
323CC
331
323CD
331
323D5
331
323D6
331
323DE
331
323DF
331
323E7
331
323E8
102
}
  0
ENDTAB
  0
ENDSEC
  0
SECTION
  2
BLOCKS
  0
BLOCK
  5
3
330
2
100
AcDbEntity
  8
0
100
AcDbBlockBegin
  2
*Model_Space
 70
     2
 10
0.0
 20
0.0
 30
0.0
  3
*Model_Space
  1

  0
ENDBLK
  5
9
330
2
100
AcDbEntity
  8
0
100
AcDbBlockEnd
  0
BLOCK
  5
2F49D
330
2F49B
100
AcDbEntity
 67
     1
  8
0
100
AcDbBlockBegin
  2
*Paper_Space
 70
     0
 10
0.0
 20
0.0
 30
0.0
  3
*Paper_Space
  1

  0
ENDBLK
  5
2F49E
330
2F49B
100
AcDbEntity
 67
     1
  8
0
100
AcDbBlockEnd
  0
BLOCK
  5
106
330
105
100
AcDbEntity
  8
0
100
AcDbBlockBegin
  2
_OPEN
 70
     0
 10
0.0
 20
0.0
 30
0.0
  3
_OPEN
  1

  0
LINE
  5
107
330
105
100
AcDbEntity
  8
0
  6
ByBlock
 62
     0
100
AcDbLine
 10
-1.0
 20
0.1666666666666666
 30
0.0
 11
0.0
 21
0.0
 31
0.0
  0
LINE
  5
108
330
105
100
AcDbEntity
  8
0
  6
ByBlock
 62
     0
100
AcDbLine
 10
0.0
 20
0.0
 30
0.0
 11
-1.0
 21
-0.1666666666666666
 31
0.0
  0
LINE
  5
109
330
105
100
AcDbEntity
  8
0
  6
ByBlock
 62
     0
100
AcDbLine
 10
0.0
 20
0.0
 30
0.0
 11
-1.0
 21
0.0
 31
0.0
  0
ENDBLK
  5
10A
330
105
100
AcDbEntity
  8
0
100
AcDbBlockEnd
  0
ENDSEC
  0
SECTION
  2
ENTITIES
  0
LINE
  5
3022F
330
2
100
AcDbEntity
  8
0
100
AcDbLine
 10
13966.87134469259
 20
19849.70985191796
 30
0.0
 11
13766.87134469259
 21
19849.70985191796
 31
0.0
  0
LINE
  5
30230
330
2
100
AcDbEntity
  8
0
100
AcDbLine
 10
13966.87134469259
 20
19849.70985191796
 30
0.0
 11
13966.87134469259
 21
19649.70985191796
 31
0.0
  0
LINE
  5
30231
330
2
100
AcDbEntity
  8
0
100
AcDbLine
 10
10016.87133469266
 20
18364.70974691789
 30
0.0
 11
9966.871334692664
 21
18364.70974691789
 31
0.0
  0
LINE
  5
30232
330
2
100
AcDbEntity
  8
0
100
AcDbLine
 10
9766.871344692596
 20
19849.70985191796
 30
0.0
 11
9766.871344692596
 21
19649.70985191796
 31
0.0
  0
LINE
  5
30233
330
2
100
AcDbEntity
  8
0
100
AcDbLine
 10
9766.871344692596
 20
19849.70985191796
 30
0.0
 11
9966.871344692595
 21
19849.70985191796
 31
0.0
  0
LINE
  5
30234
330
2
100
AcDbEntity
  8
0
100
AcDbLine
 10
10016.87133469266
 20
19749.7096519179
 30
0.0
 11
13866.87134469259
 21
19749.7096519179
 31
0.0
  0
LINE
  5
3023B
330
2
100
AcDbEntity
  8
0
100
AcDbLine
 10
10016.87133469266
 20
17159.70984191788
 30
0.0
 11
10016.87133469266
 21
16979.70984191788
 31
0.0
  0
LINE
  5
3023C
330
2
100
AcDbEntity
  8
0
100
AcDbLine
 10
12706.87142719264
 20
17259.70984191788
 30
0.0
 11
12706.87142719264
 21
17159.70984191788
 31
0.0
  0
LINE
  5
3023D
330
2
100
AcDbEntity
  8
0
100
AcDbLine
 10
13196.87134469259
 20
17179.70985016795
 30
0.0
 11
13866.87134469259
 21
17179.70985016795
 31
0.0
  0
LINE
  5
3023E
330
2
100
AcDbEntity
  8
0
100
AcDbLine
 10
13196.87134469259
 20
17099.70985016795
 30
0.0
 11
13866.87134469259
 21
17099.70985016795
 31
0.0
  0
LINE
  5
30240
330
2
100
AcDbEntity
  8
0
100
AcDbLine
 10
12636.87134469259
 20
17209.70984191789
 30
0.0
 11
13016.87159219258
 21
17209.70984191789
 31
0.0
  0
LINE
  5
30241
330
2
100
AcDbEntity
  8
0
100
AcDbLine
 10
13311.87134469259
 20
16999.70984604292
 30
0.0
 11
13341.87134469259
 21
16999.70984604292
 31
0.0
  0
LINE
  5
30242
330
2
100
AcDbEntity
  8
0
100
AcDbLine
 10
13471.87134469259
 20
16999.70984604292
 30
0.0
 11
13501.87134469259
 21
16999.70984604292
 31
0.0
  0
LINE
  5
30243
330
2
100
AcDbEntity
  8
0
100
AcDbLine
 10
13065.06115839027
 20
17209.77663884574
 30
0.0
 11
13189.44115839036
 21
17209.77663884574
 31
0.0
  0
LINE
  5
30244
330
2
100
AcDbEntity
  8
0
100
AcDbLine
 10
13179.72115839028
 20
17190.87663884575
 30
0.0
 11
13179.72115839028
 21
17228.67663884574
 31
0.0
  0
LINE
  5
30245
330
2
100
AcDbEntity
  8
0
100
AcDbLine
 10
13130.58115839038
 20
17198.43663884569
 30
0.0
 11
13130.58115839038
 21
17221.1166388458
 31
0.0
  0
CIRCLE
  5
30246
330
2
100
AcDbEntity
  8
0
100
AcDbCircle
 10
13087.74115839038
 20
17209.77663884574
 30
0.0
 40
11.34
  0
CIRCLE
  5
30247
330
2
100
AcDbEntity
  8
0
100
AcDbCircle
 10
13087.74115839038
 20
17209.77663884574
 30
0.0
 40
18.89999999999997
  0
LINE
  5
30248
330
2
100
AcDbEntity
  8
0
100
AcDbLine
 10
13087.74115839038
 20
17232.45663884571
 30
0.0
 11
13087.74115839038
 21
17187.09663884578
 31
0.0
  0
LINE
  5
30249
330
2
100
AcDbEntity
  8
0
100
AcDbLine
 10
13130.58115839038
 20
17221.1166388458
 30
0.0
 11
13179.72115839028
 21
17228.67663884574
 31
0.0
  0
LINE
  5
3024A
330
2
100
AcDbEntity
  8
0
100
AcDbLine
 10
13130.58115839038
 20
17198.43663884569
 30
0.0
 11
13179.72115839028
 21
17190.87663884575
 31
0.0
  0
LINE
  5
3024B
330
2
100
AcDbEntity
  8
0
100
AcDbLine
 10
12636.87134469259
 20
17159.70984191788
 30
0.0
 11
12636.87134469259
 21
16979.70984191788
 31
0.0
  0
LINE
  5
3024C
330
2
100
AcDbEntity
  8
0
100
AcDbLine
 10
13196.87134469259
 20
17159.70984191788
 30
0.0
 11
12636.87134469259
 21
17159.70984191788
 31
0.0
  0
TEXT
  5
3024D
330
2
100
AcDbEntity
  8
0
100
AcDbText
 10
13177.31180435552
 20
16939.00870878128
 30
0.0
 40
22.0
  1
Ｄｒａｗｉｎｇ　Ｓｈｅｅｔ　Ａ３（２９７ｍｍ×４２０ｍｍ）
 41
0.8
100
AcDbText
  0
LINE
  5
3024E
330
2
100
AcDbEntity
  8
0
100
AcDbLine
 10
13966.87134469259
 20
16879.70985191796
 30
0.0
 11
13766.87134469259
 21
16879.70985191796
 31
0.0
  0
LINE
  5
3024F
330
2
100
AcDbEntity
  8
0
100
AcDbLine
 10
13966.87134469259
 20
16879.70985191796
 30
0.0
 11
13966.87134469259
 21
17079.70985191796
 31
0.0
  0
LINE
  5
30250
330
2
100
AcDbEntity
  8
0
100
AcDbLine
 10
9766.871344692596
 20
16879.70985191796
 30
0.0
 11
9966.871344692595
 21
16879.70985191796
 31
0.0
  0
LINE
  5
30251
330
2
100
AcDbEntity
  8
0
100
AcDbLine
 10
9766.871344692596
 20
16879.70985191796
 30
0.0
 11
9766.871344692596
 21
17079.70985191796
 31
0.0
  0
LINE
  5
30252
330
2
100
AcDbEntity
  8
0
100
AcDbLine
 10
10016.87133469266
 20
16979.70984191788
 30
0.0
 11
13866.87134469259
 21
16979.70984191788
 31
0.0
  0
TEXT
  5
30253
330
2
100
AcDbEntity
  8
0
100
AcDbText
 10
12786.78159051178
 20
16993.52185166799
 30
0.0
 40
24.75
  1
日本フォームサービス株式会社
 41
0.9200000000000001
100
AcDbText
  0
LINE
  5
30254
330
2
100
AcDbEntity
  8
0
100
AcDbLine
 10
13110.69407680854
 20
17032.37673574835
 30
0.0
 11
13113.56301430842
 21
17033.88291349833
 31
0.0
  0
LINE
  5
30255
330
2
100
AcDbEntity
  8
0
100
AcDbLine
 10
13104.70465930845
 20
17030.13066499838
 30
0.0
 11
13110.69407680854
 21
17032.37673574835
 31
0.0
  0
LINE
  5
30256
330
2
100
AcDbEntity
  8
0
100
AcDbLine
 10
13098.38070430848
 20
17028.87203674845
 30
0.0
 11
13104.70465930845
 21
17030.13066499838
 31
0.0
  0
LINE
  5
30257
330
2
100
AcDbEntity
  8
0
100
AcDbLine
 10
13091.91443680855
 20
17028.63908974841
 30
0.0
 11
13098.38070430848
 21
17028.87203674845
 31
0.0
  0
LINE
  5
30258
330
2
100
AcDbEntity
  8
0
100
AcDbLine
 10
13085.50220680842
 20
17029.4388942484
 30
0.0
 11
13091.91443680855
 21
17028.63908974841
 31
0.0
  0
LINE
  5
30259
330
2
100
AcDbEntity
  8
0
100
AcDbLine
 10
13079.33887930845
 20
17031.24715399836
 30
0.0
 11
13085.50220680842
 21
17029.4388942484
 31
0.0
  0
LINE
  5
3025A
330
2
100
AcDbEntity
  8
0
100
AcDbLine
 10
13073.61181180848
 20
17034.00892399843
 30
0.0
 11
13079.33887930845
 21
17031.24715399836
 31
0.0
  0
LINE
  5
3025B
330
2
100
AcDbEntity
  8
0
100
AcDbLine
 10
13068.49499680855
 20
17037.64030174842
 30
0.0
 11
13073.61181180848
 21
17034.00892399843
 31
0.0
  0
LINE
  5
3025C
330
2
100
AcDbEntity
  8
0
100
AcDbLine
 10
13064.14386430854
 20
17042.03092699836
 30
0.0
 11
13068.49499680855
 21
17037.64030174842
 31
0.0
  0
LINE
  5
3025D
330
2
100
AcDbEntity
  8
0
100
AcDbLine
 10
13060.69057930854
 20
17047.04741374846
 30
0.0
 11
13064.14386430854
 21
17042.03092699836
 31
0.0
  0
LINE
  5
3025E
330
2
100
AcDbEntity
  8
0
100
AcDbLine
 10
13058.24016430848
 20
17052.53732674837
 30
0.0
 11
13060.69057930854
 21
17047.04741374846
 31
0.0
  0
LINE
  5
3025F
330
2
100
AcDbEntity
  8
0
100
AcDbLine
 10
13056.86695180844
 20
17058.33385924847
 30
0.0
 11
13058.24016430848
 21
17052.53732674837
 31
0.0
  0
LINE
  5
30260
330
2
100
AcDbEntity
  8
0
100
AcDbLine
 10
13056.61285180842
 20
17064.26089024835
 30
0.0
 11
13056.86695180844
 21
17058.33385924847
 31
0.0
  0
LINE
  5
30261
330
2
100
AcDbEntity
  8
0
100
AcDbLine
 10
13057.48545430845
 20
17070.1383304984
 30
0.0
 11
13056.61285180842
 21
17064.26089024835
 31
0.0
  0
LINE
  5
30262
330
2
100
AcDbEntity
  8
0
100
AcDbLine
 10
13059.4581943085
 20
17075.78758399841
 30
0.0
 11
13057.48545430845
 21
17070.1383304984
 31
0.0
  0
LINE
  5
30263
330
2
100
AcDbEntity
  8
0
100
AcDbLine
 10
13062.47125930848
 20
17081.03702599847
 30
0.0
 11
13059.4581943085
 21
17075.78758399841
 31
0.0
  0
LINE
  5
30264
330
2
100
AcDbEntity
  8
0
100
AcDbLine
 10
13066.43307430841
 20
17085.72712624833
 30
0.0
 11
13062.47125930848
 21
17081.03702599847
 31
0.0
  0
LINE
  5
30265
330
2
100
AcDbEntity
  8
0
100
AcDbLine
 10
13071.22318930848
 20
17089.71539899847
 30
0.0
 11
13066.43307430841
 21
17085.72712624833
 31
0.0
  0
LINE
  5
30266
330
2
100
AcDbEntity
  8
0
100
AcDbLine
 10
13076.69607430853
 20
17092.88065999843
 30
0.0
 11
13071.22318930848
 21
17089.71539899847
 31
0.0
  0
LINE
  5
30267
330
2
100
AcDbEntity
  8
0
100
AcDbLine
 10
13082.68557430853
 20
17095.12672249834
 30
0.0
 11
13076.69607430853
 21
17092.88065999843
 31
0.0
  0
LINE
  5
30268
330
2
100
AcDbEntity
  8
0
100
AcDbLine
 10
13089.0095293085
 20
17096.38535074841
 30
0.0
 11
13082.68557430853
 21
17095.12672249834
 31
0.0
  0
LINE
  5
30269
330
2
100
AcDbEntity
  8
0
100
AcDbLine
 10
13095.47579680842
 20
17096.61830599837
 30
0.0
 11
13089.0095293085
 21
17096.38535074841
 31
0.0
  0
LINE
  5
3026A
330
2
100
AcDbEntity
  8
0
100
AcDbLine
 10
13101.88802680841
 20
17095.81850149838
 30
0.0
 11
13095.47579680842
 21
17096.61830599837
 31
0.0
  0
LINE
  5
3026B
330
2
100
AcDbEntity
  8
0
100
AcDbLine
 10
13108.05127180847
 20
17094.01024174842
 30
0.0
 11
13101.88802680841
 21
17095.81850149838
 31
0.0
  0
LINE
  5
3026C
330
2
100
AcDbEntity
  8
0
100
AcDbLine
 10
13113.77833930845
 20
17091.24846349843
 30
0.0
 11
13108.05127180847
 21
17094.01024174842
 31
0.0
  0
ARC
  5
3026D
330
2
100
AcDbEntity
  8
0
100
AcDbCircle
 10
12955.00857430841
 20
17080.15994374839
 30
0.0
 40
17.53125
100
AcDbArc
 50
270.0
 51
90.0
  0
LINE
  5
3026E
330
2
100
AcDbEntity
  8
0
100
AcDbLine
 10
12870.62452180846
 20
17028.09887149846
 30
0.0
 11
12876.35447680845
 21
17027.56619374845
 31
0.0
  0
LINE
  5
3026F
330
2
100
AcDbEntity
  8
0
100
AcDbLine
 10
12865.06872430848
 20
17029.68072649843
 30
0.0
 11
12870.62452180846
 21
17028.09887149846
 31
0.0
  0
LINE
  5
30270
330
2
100
AcDbEntity
  8
0
100
AcDbLine
 10
12859.85579680852
 20
17032.26367774836
 30
0.0
 11
12865.06872430848
 21
17029.68072649843
 31
0.0
  0
LINE
  5
30271
330
2
100
AcDbEntity
  8
0
100
AcDbLine
 10
12855.1441393085
 20
17035.76925949843
 30
0.0
 11
12859.85579680852
 21
17032.26367774836
 31
0.0
  0
LINE
  5
30272
330
2
100
AcDbEntity
  8
0
100
AcDbLine
 10
12851.07705430852
 20
17040.09095599841
 30
0.0
 11
12855.1441393085
 21
17035.76925949843
 31
0.0
  0
LINE
  5
30273
330
2
100
AcDbEntity
  8
0
100
AcDbLine
 10
12847.77787930853
 20
17045.09744374833
 30
0.0
 11
12851.07705430852
 21
17040.09095599841
 31
0.0
  0
LINE
  5
30274
330
2
100
AcDbEntity
  8
0
100
AcDbLine
 10
12845.34709930853
 20
17050.63661749833
 30
0.0
 11
12847.77787930853
 21
17045.09744374833
 31
0.0
  0
LINE
  5
30275
330
2
100
AcDbEntity
  8
0
100
AcDbLine
 10
12843.85838680853
 20
17056.54016074836
 30
0.0
 11
12845.34709930853
 21
17050.63661749833
 31
0.0
  0
LINE
  5
30276
330
2
100
AcDbEntity
  8
0
100
AcDbLine
 10
12843.35711680844
 20
17062.62869374836
 30
0.0
 11
12843.85838680853
 21
17056.54016074836
 31
0.0
  0
LINE
  5
30277
330
2
100
AcDbEntity
  8
0
100
AcDbLine
 10
12843.85838680853
 20
17068.71723499842
 30
0.0
 11
12843.35711680844
 21
17062.62869374836
 31
0.0
  0
LINE
  5
30278
330
2
100
AcDbEntity
  8
0
100
AcDbLine
 10
12845.34709930853
 20
17074.62077824845
 30
0.0
 11
12843.85838680853
 21
17068.71723499842
 31
0.0
  0
LINE
  5
30279
330
2
100
AcDbEntity
  8
0
100
AcDbLine
 10
12847.77787930853
 20
17080.15994374839
 30
0.0
 11
12845.34709930853
 21
17074.62077824845
 31
0.0
  0
LINE
  5
3027A
330
2
100
AcDbEntity
  8
0
100
AcDbLine
 10
12851.07705430852
 20
17085.16643974838
 30
0.0
 11
12847.77787930853
 21
17080.15994374839
 31
0.0
  0
LINE
  5
3027B
330
2
100
AcDbEntity
  8
0
100
AcDbLine
 10
12855.1441393085
 20
17089.48812799843
 30
0.0
 11
12851.07705430852
 21
17085.16643974838
 31
0.0
  0
LINE
  5
3027C
330
2
100
AcDbEntity
  8
0
100
AcDbLine
 10
12859.85579680852
 20
17092.99370974835
 30
0.0
 11
12855.1441393085
 21
17089.48812799843
 31
0.0
  0
LINE
  5
3027D
330
2
100
AcDbEntity
  8
0
100
AcDbLine
 10
12865.06872430848
 20
17095.57666924835
 30
0.0
 11
12859.85579680852
 21
17092.99370974835
 31
0.0
  0
LINE
  5
3027E
330
2
100
AcDbEntity
  8
0
100
AcDbLine
 10
12870.62452180846
 20
17097.1585159984
 30
0.0
 11
12865.06872430848
 21
17095.57666924835
 31
0.0
  0
LINE
  5
3027F
330
2
100
AcDbEntity
  8
0
100
AcDbLine
 10
12876.35447680845
 20
17097.69119374842
 30
0.0
 11
12870.62452180846
 21
17097.1585159984
 31
0.0
  0
LINE
  5
30280
330
2
100
AcDbEntity
  8
0
100
AcDbLine
 10
12882.08434930854
 20
17097.1585159984
 30
0.0
 11
12876.35447680845
 21
17097.69119374842
 31
0.0
  0
LINE
  5
30281
330
2
100
AcDbEntity
  8
0
100
AcDbLine
 10
12887.64014680852
 20
17095.57666924835
 30
0.0
 11
12882.08434930854
 21
17097.1585159984
 31
0.0
  0
LINE
  5
30282
330
2
100
AcDbEntity
  8
0
100
AcDbLine
 10
12892.85307430848
 20
17092.99370974835
 30
0.0
 11
12887.64014680852
 21
17095.57666924835
 31
0.0
  0
LINE
  5
30283
330
2
100
AcDbEntity
  8
0
100
AcDbLine
 10
12897.56473180849
 20
17089.48812799843
 30
0.0
 11
12892.85307430848
 21
17092.99370974835
 31
0.0
  0
LINE
  5
30284
330
2
100
AcDbEntity
  8
0
100
AcDbLine
 10
12901.63181680848
 20
17085.16643974838
 30
0.0
 11
12897.56473180849
 21
17089.48812799843
 31
0.0
  0
LINE
  5
30285
330
2
100
AcDbEntity
  8
0
100
AcDbLine
 10
12904.93099180847
 20
17080.15994374839
 30
0.0
 11
12901.63181680848
 21
17085.16643974838
 31
0.0
  0
LINE
  5
30286
330
2
100
AcDbEntity
  8
0
100
AcDbLine
 10
12907.36177180846
 20
17074.62077824845
 30
0.0
 11
12904.93099180847
 21
17080.15994374839
 31
0.0
  0
LINE
  5
30287
330
2
100
AcDbEntity
  8
0
100
AcDbLine
 10
12908.85048430846
 20
17068.71723499842
 30
0.0
 11
12907.36177180846
 21
17074.62077824845
 31
0.0
  0
LINE
  5
30288
330
2
100
AcDbEntity
  8
0
100
AcDbLine
 10
12909.35175430841
 20
17062.62869374836
 30
0.0
 11
12908.85048430846
 21
17068.71723499842
 31
0.0
  0
LINE
  5
30289
330
2
100
AcDbEntity
  8
0
100
AcDbLine
 10
12908.85048430846
 20
17056.54016074836
 30
0.0
 11
12909.35175430841
 21
17062.62869374836
 31
0.0
  0
LINE
  5
3028A
330
2
100
AcDbEntity
  8
0
100
AcDbLine
 10
12907.36177180846
 20
17050.63661749833
 30
0.0
 11
12908.85048430846
 21
17056.54016074836
 31
0.0
  0
LINE
  5
3028B
330
2
100
AcDbEntity
  8
0
100
AcDbLine
 10
12904.93099180847
 20
17045.09744374833
 30
0.0
 11
12907.36177180846
 21
17050.63661749833
 31
0.0
  0
LINE
  5
3028C
330
2
100
AcDbEntity
  8
0
100
AcDbLine
 10
12901.63181680848
 20
17040.09095599841
 30
0.0
 11
12904.93099180847
 21
17045.09744374833
 31
0.0
  0
LINE
  5
3028D
330
2
100
AcDbEntity
  8
0
100
AcDbLine
 10
12897.56473180849
 20
17035.76925949843
 30
0.0
 11
12901.63181680848
 21
17040.09095599841
 31
0.0
  0
LINE
  5
3028E
330
2
100
AcDbEntity
  8
0
100
AcDbLine
 10
12892.85307430848
 20
17032.26367774836
 30
0.0
 11
12897.56473180849
 21
17035.76925949843
 31
0.0
  0
LINE
  5
3028F
330
2
100
AcDbEntity
  8
0
100
AcDbLine
 10
12887.64014680852
 20
17029.68072649843
 30
0.0
 11
12892.85307430848
 21
17032.26367774836
 31
0.0
  0
LINE
  5
30290
330
2
100
AcDbEntity
  8
0
100
AcDbLine
 10
12882.08434930854
 20
17028.09887149846
 30
0.0
 11
12887.64014680852
 21
17029.68072649843
 31
0.0
  0
LINE
  5
30291
330
2
100
AcDbEntity
  8
0
100
AcDbLine
 10
12876.35447680845
 20
17027.56619374845
 30
0.0
 11
12882.08434930854
 21
17028.09887149846
 31
0.0
  0
ARC
  5
30292
330
2
100
AcDbEntity
  8
0
100
AcDbCircle
 10
12724.30002915946
 20
17095.13332847835
 30
0.0
 40
52.27200980100001
100
AcDbArc
 50
90.0
 51
180.0
  0
LINE
  5
30293
330
2
100
AcDbEntity
  8
0
100
AcDbLine
 10
12636.87134469259
 20
17259.70984191788
 30
0.0
 11
12636.87134469259
 21
16979.70986666793
 31
0.0
  0
LINE
  5
30294
330
2
100
AcDbEntity
  8
0
100
AcDbLine
 10
12683.90161395942
 20
17128.30453855024
 30
0.0
 11
12691.12887135951
 21
17135.53176981435
 31
0.0
  0
LINE
  5
30295
330
2
100
AcDbEntity
  8
0
100
AcDbLine
 10
12681.13355019941
 20
17124.61229276227
 30
0.0
 11
12694.82110407942
 21
17138.29992505033
 31
0.0
  0
LINE
  5
30296
330
2
100
AcDbEntity
  8
0
100
AcDbLine
 10
12679.48443393947
 20
17122.03913822226
 30
0.0
 11
12697.39419327943
 21
17139.94894983431
 31
0.0
  0
LINE
  5
30297
330
2
100
AcDbEntity
  8
0
100
AcDbLine
 10
12678.2658429394
 20
17119.89653507824
 30
0.0
 11
12699.53675721943
 21
17141.16750816431
 31
0.0
  0
LINE
  5
30298
330
2
100
AcDbEntity
  8
0
100
AcDbLine
 10
12677.29645869938
 20
17118.00298841228
 30
0.0
 11
12701.43031041949
 21
17142.13694467626
 31
0.0
  0
LINE
  5
30299
330
2
100
AcDbEntity
  8
0
100
AcDbLine
 10
12676.49565165946
 20
17116.27824110236
 30
0.0
 11
12703.15509039949
 21
17142.93767330828
 31
0.0
  0
LINE
  5
3029A
330
2
100
AcDbEntity
  8
0
100
AcDbLine
 10
12675.8193826595
 20
17114.67779660825
 30
0.0
 11
12704.75552835949
 21
17143.61400764823
 31
0.0
  0
LINE
  5
3029B
330
2
100
AcDbEntity
  8
0
100
AcDbLine
 10
12675.24007821947
 20
17113.17438201435
 30
0.0
 11
12706.25900175943
 21
17144.19333822423
 31
0.0
  0
LINE
  5
3029C
330
2
100
AcDbEntity
  8
0
100
AcDbLine
 10
12674.73937779953
 20
17111.74968251837
 30
0.0
 11
12707.68367511944
 21
17144.69399290634
 31
0.0
  0
LINE
  5
3029D
330
2
100
AcDbEntity
  8
0
100
AcDbLine
 10
12674.3042787394
 20
17110.39047983834
 30
0.0
 11
12709.04287779948
 21
17145.12915077236
 31
0.0
  0
LINE
  5
3029E
330
2
100
AcDbEntity
  8
0
100
AcDbLine
 10
12673.92484935943
 20
17109.08703831427
 30
0.0
 11
12710.34634545951
 21
17145.50850174428
 31
0.0
  0
LINE
  5
3029F
330
2
100
AcDbEntity
  8
0
100
AcDbLine
 10
12673.5940329394
 20
17107.83202026427
 30
0.0
 11
12711.60146151942
 21
17145.83941617437
 31
0.0
  0
LINE
  5
302A0
330
2
100
AcDbEntity
  8
0
100
AcDbLine
 10
12673.30562217943
 20
17106.61968230235
 30
0.0
 11
12712.81371453948
 21
17146.12770932227
 31
0.0
  0
LINE
  5
302A1
330
2
100
AcDbEntity
  8
0
100
AcDbLine
 10
12673.0551739594
 20
17105.44516313234
 30
0.0
 11
12713.98813569944
 21
17146.37812487223
 31
0.0
  0
LINE
  5
302A2
330
2
100
AcDbEntity
  8
0
100
AcDbLine
 10
12672.83883321939
 20
17104.30482985024
 30
0.0
 11
12715.1285800595
 21
17146.59444601037
 31
0.0
  0
LINE
  5
302A3
330
2
100
AcDbEntity
  8
0
100
AcDbLine
 10
12672.65339829941
 20
17103.19523903827
 30
0.0
 11
12716.23818393939
 21
17146.77991360028
 31
0.0
  0
LINE
  5
302A4
330
2
100
AcDbEntity
  8
0
100
AcDbLine
 10
12672.49625559951
 20
17102.11398618436
 30
0.0
 11
12717.31929957951
 21
17146.93712164032
 31
0.0
  0
LINE
  5
302A5
330
2
100
AcDbEntity
  8
0
100
AcDbLine
 10
12672.36498753944
 20
17101.05857530036
 30
0.0
 11
12718.37473659947
 21
17147.0684223703
 31
0.0
  0
LINE
  5
302A6
330
2
100
AcDbEntity
  8
0
100
AcDbLine
 10
12672.25763391947
 20
17100.02723567226
 30
0.0
 11
12719.40606315951
 21
17147.17573678625
 31
0.0
  0
LINE
  5
302A7
330
2
100
AcDbEntity
  8
0
100
AcDbLine
 10
12672.17256123939
 20
17099.01808550823
 30
0.0
 11
12720.41523945951
 21
17147.26078333037
 31
0.0
  0
LINE
  5
302A8
330
2
100
AcDbEntity
  8
0
100
AcDbLine
 10
12672.10839735952
 20
17098.02971346429
 30
0.0
 11
12721.40357229943
 21
17147.32502561829
 31
0.0
  0
LINE
  5
302A9
330
2
100
AcDbEntity
  8
0
100
AcDbLine
 10
12672.06357411949
 20
17097.06094342031
 30
0.0
 11
12722.37236847952
 21
17147.36979005227
 31
0.0
  0
LINE
  5
302AA
330
2
100
AcDbEntity
  8
0
100
AcDbLine
 10
12672.03711141945
 20
17096.11050778034
 30
0.0
 11
12723.32286945948
 21
17147.39620701434
 31
0.0
  0
LINE
  5
302AB
330
2
100
AcDbEntity
  8
0
100
AcDbLine
 10
12672.02802915952
 20
17095.17728269633
 30
0.0
 11
12724.25605533947
 21
17147.40532194434
 31
0.0
  0
LINE
  5
302AC
330
2
100
AcDbEntity
  8
0
100
AcDbLine
 10
12672.02802915952
 20
17094.25313987225
 30
0.0
 11
12725.18022429951
 21
17147.40534154635
 31
0.0
  0
LINE
  5
302AD
330
2
100
AcDbEntity
  8
0
100
AcDbLine
 10
12672.02802915952
 20
17093.32911466025
 30
0.0
 11
12726.10419723944
 21
17147.40534154635
 31
0.0
  0
LINE
  5
302AE
330
2
100
AcDbEntity
  8
0
100
AcDbLine
 10
12672.02802915952
 20
17092.40498490423
 30
0.0
 11
12727.02836619949
 21
17147.40534154635
 31
0.0
  0
LINE
  5
302AF
330
2
100
AcDbEntity
  8
0
100
AcDbLine
 10
12672.02802915952
 20
17091.48097929423
 30
0.0
 11
12727.95246981939
 21
17147.40534154635
 31
0.0
  0
LINE
  5
302B0
330
2
100
AcDbEntity
  8
0
100
AcDbLine
 10
12672.02802915952
 20
17090.55687567432
 30
0.0
 11
12728.87650809946
 21
17147.40534154635
 31
0.0
  0
LINE
  5
302B1
330
2
100
AcDbEntity
  8
0
100
AcDbLine
 10
12672.02802915952
 20
17089.63277205427
 30
0.0
 11
12729.80061171951
 21
17147.40534154635
 31
0.0
  0
LINE
  5
302B2
330
2
100
AcDbEntity
  8
0
100
AcDbLine
 10
12672.02802915952
 20
17088.70872070629
 30
0.0
 11
12730.72458465944
 21
17147.40534154635
 31
0.0
  0
LINE
  5
302B3
330
2
100
AcDbEntity
  8
0
100
AcDbLine
 10
12672.02802915952
 20
17087.7847150963
 30
0.0
 11
12731.6486229395
 21
17147.40534154635
 31
0.0
  0
LINE
  5
302B4
330
2
100
AcDbEntity
  8
0
100
AcDbLine
 10
12672.02802915952
 20
17086.86059187423
 30
0.0
 11
12732.57272655941
 21
17147.40534154635
 31
0.0
  0
LINE
  5
302B5
330
2
100
AcDbEntity
  8
0
100
AcDbLine
 10
12672.02802915952
 20
17085.93648825432
 30
0.0
 11
12733.49689551946
 21
17147.40534154635
 31
0.0
  0
LINE
  5
302B6
330
2
100
AcDbEntity
  8
0
100
AcDbLine
 10
12672.02802915952
 20
17085.01243690635
 30
0.0
 11
12734.42086845939
 21
17147.40534154635
 31
0.0
  0
LINE
  5
302B7
330
2
100
AcDbEntity
  8
0
100
AcDbLine
 10
12672.02802915952
 20
17084.08843129635
 30
0.0
 11
12735.34503741943
 21
17147.40534154635
 31
0.0
  0
LINE
  5
302B8
330
2
100
AcDbEntity
  8
0
100
AcDbLine
 10
12672.02802915952
 20
17083.1643276763
 30
0.0
 11
12736.2690103595
 21
17147.40534154635
 31
0.0
  0
LINE
  5
302B9
330
2
100
AcDbEntity
  8
0
100
AcDbLine
 10
12672.02802915952
 20
17082.24019792027
 30
0.0
 11
12737.1931793194
 21
17147.40534154635
 31
0.0
  0
LINE
  5
302BA
330
2
100
AcDbEntity
  8
0
100
AcDbLine
 10
12672.02802915952
 20
17081.31615310626
 30
0.0
 11
12738.11715225948
 21
17147.40534154635
 31
0.0
  0
LINE
  5
302BB
330
2
100
AcDbEntity
  8
0
100
AcDbLine
 10
12672.02802915952
 20
17080.39204948635
 30
0.0
 11
12739.04125587938
 21
17147.40534154635
 31
0.0
  0
LINE
  5
302BC
330
2
100
AcDbEntity
  8
0
100
AcDbLine
 10
12672.02802915952
 20
17079.46804387635
 30
0.0
 11
12739.96542483943
 21
17147.40534154635
 31
0.0
  0
LINE
  5
302BD
330
2
100
AcDbEntity
  8
0
100
AcDbLine
 10
12672.02802915952
 20
17078.5439402563
 30
0.0
 11
12740.8893977795
 21
17147.40534154635
 31
0.0
  0
LINE
  5
302BE
330
2
100
AcDbEntity
  8
0
100
AcDbLine
 10
12672.02802915952
 20
17077.61983010229
 30
0.0
 11
12741.8135667394
 21
17147.40534154635
 31
0.0
  0
LINE
  5
302BF
330
2
100
AcDbEntity
  8
0
100
AcDbLine
 10
12672.02802915952
 20
17076.69576568626
 30
0.0
 11
12742.73753967948
 21
17147.40534154635
 31
0.0
  0
LINE
  5
302C0
330
2
100
AcDbEntity
  8
0
100
AcDbLine
 10
12672.02802915952
 20
17075.77176007626
 30
0.0
 11
12743.66170863952
 21
17147.40534154635
 31
0.0
  0
LINE
  5
302C1
330
2
100
AcDbEntity
  8
0
100
AcDbLine
 10
12672.02802915952
 20
17074.84765645635
 30
0.0
 11
12744.58568157945
 21
17147.40534154635
 31
0.0
  0
LINE
  5
302C2
330
2
100
AcDbEntity
  8
0
100
AcDbLine
 10
12672.02802915952
 20
17073.92354630234
 30
0.0
 11
12745.50985053949
 21
17147.40534154635
 31
0.0
  0
LINE
  5
302C3
330
2
100
AcDbEntity
  8
0
100
AcDbLine
 10
12672.02802915952
 20
17072.99950148832
 30
0.0
 11
12746.43382347942
 21
17147.40534154635
 31
0.0
  0
LINE
  5
302C4
330
2
100
AcDbEntity
  8
0
100
AcDbLine
 10
12672.02802915952
 20
17072.07539786827
 30
0.0
 11
12747.35799243947
 21
17147.40534154635
 31
0.0
  0
LINE
  5
302C5
330
2
100
AcDbEntity
  8
0
100
AcDbLine
 10
12672.02802915952
 20
17071.15137265626
 30
0.0
 11
12748.28209605952
 21
17147.40534154635
 31
0.0
  0
LINE
  5
302C6
330
2
100
AcDbEntity
  8
0
100
AcDbLine
 10
12672.02802915952
 20
17070.22726250225
 30
0.0
 11
12749.20606899945
 21
17147.40534154635
 31
0.0
  0
LINE
  5
302C7
330
2
100
AcDbEntity
  8
0
100
AcDbLine
 10
12672.02802915952
 20
17069.30321768823
 30
0.0
 11
12750.13010727951
 21
17147.40534154635
 31
0.0
  0
LINE
  5
302C8
330
2
100
AcDbEntity
  8
0
100
AcDbLine
 10
12711.85027623938
 20
17108.20133501236
 30
0.0
 11
12751.05421089942
 21
17147.40534154635
 31
0.0
  0
LINE
  5
302C9
330
2
100
AcDbEntity
  8
0
100
AcDbLine
 10
12672.6462762395
 20
17068.99732194428
 30
0.0
 11
12711.2320291594
 21
17107.58310100029
 31
0.0
  0
LINE
  5
302CA
330
2
100
AcDbEntity
  8
0
100
AcDbLine
 10
12712.77424917946
 20
17108.20133501236
 30
0.0
 11
12751.97818383949
 21
17147.40534154635
 31
0.0
  0
LINE
  5
302CB
330
2
100
AcDbEntity
  8
0
100
AcDbLine
 10
12673.57024917943
 20
17068.99732194428
 30
0.0
 11
12711.2320291594
 21
17106.65905618627
 31
0.0
  0
LINE
  5
302CC
330
2
100
AcDbEntity
  8
0
100
AcDbLine
 10
12713.6984181395
 20
17108.20133501236
 30
0.0
 11
12752.90254881951
 21
17147.40534154635
 31
0.0
  0
LINE
  5
302CD
330
2
100
AcDbEntity
  8
0
100
AcDbLine
 10
12674.49441813948
 20
17068.99732194428
 30
0.0
 11
12711.2320291594
 21
17105.73492643025
 31
0.0
  0
LINE
  5
302CE
330
2
100
AcDbEntity
  8
0
100
AcDbLine
 10
12714.62252175941
 20
17108.20133501236
 30
0.0
 11
12753.82652175944
 21
17147.40534154635
 31
0.0
  0
LINE
  5
302CF
330
2
100
AcDbEntity
  8
0
100
AcDbLine
 10
12675.41858709952
 20
17068.99732194428
 30
0.0
 11
12711.2320291594
 21
17104.81082281034
 31
0.0
  0
LINE
  5
302D0
330
2
100
AcDbEntity
  8
0
100
AcDbLine
 10
12715.54649469949
 20
17108.20133501236
 30
0.0
 11
12754.75049469951
 21
17147.40534154635
 31
0.0
  0
LINE
  5
302D1
330
2
100
AcDbEntity
  8
0
100
AcDbLine
 10
12676.34256003945
 20
17068.99732194428
 30
0.0
 11
12711.2320291594
 21
17103.88681720035
 31
0.0
  0
LINE
  5
302D2
330
2
100
AcDbEntity
  8
0
100
AcDbLine
 10
12716.4705329794
 20
17108.20133501236
 30
0.0
 11
12755.67466365941
 21
17147.40534154635
 31
0.0
  0
LINE
  5
302D3
330
2
100
AcDbEntity
  8
0
100
AcDbLine
 10
12677.26653297952
 20
17068.99732194428
 30
0.0
 11
12711.2320291594
 21
17102.96279198834
 31
0.0
  0
LINE
  5
302D4
330
2
100
AcDbEntity
  8
0
100
AcDbLine
 10
12717.39463659946
 20
17108.20133501236
 30
0.0
 11
12756.59863659948
 21
17147.40534154635
 31
0.0
  0
LINE
  5
302D5
330
2
100
AcDbEntity
  8
0
100
AcDbLine
 10
12678.19070193942
 20
17068.99732194428
 30
0.0
 11
12711.2320291594
 21
17102.03868183433
 31
0.0
  0
LINE
  5
302D6
330
2
100
AcDbEntity
  8
0
100
AcDbLine
 10
12718.3188055595
 20
17108.20133501236
 30
0.0
 11
12757.52274021939
 21
17147.40534154635
 31
0.0
  0
LINE
  5
302D7
330
2
100
AcDbEntity
  8
0
100
AcDbLine
 10
12679.11480555948
 20
17068.99732194428
 30
0.0
 11
12711.2320291594
 21
17101.11455861226
 31
0.0
  0
LINE
  5
302D8
330
2
100
AcDbEntity
  8
0
100
AcDbLine
 10
12719.24277849943
 20
17108.20133501236
 30
0.0
 11
12758.44677849946
 21
17147.40534154635
 31
0.0
  0
LINE
  5
302D9
330
2
100
AcDbEntity
  8
0
100
AcDbLine
 10
12680.03884383939
 20
17068.99732194428
 30
0.0
 11
12711.2320291594
 21
17100.19053340026
 31
0.0
  0
LINE
  5
302DA
330
2
100
AcDbEntity
  8
0
100
AcDbLine
 10
12720.16694745948
 20
17108.20133501236
 30
0.0
 11
12759.37088211951
 21
17147.40534154635
 31
0.0
  0
LINE
  5
302DB
330
2
100
AcDbEntity
  8
0
100
AcDbLine
 10
12680.96294745945
 20
17068.99732194428
 30
0.0
 11
12711.2320291594
 21
17099.26642324625
 31
0.0
  0
LINE
  5
302DC
330
2
100
AcDbEntity
  8
0
100
AcDbLine
 10
12721.0909203994
 20
17108.20133501236
 30
0.0
 11
12760.29505107941
 21
17147.40534154635
 31
0.0
  0
LINE
  5
302DD
330
2
100
AcDbEntity
  8
0
100
AcDbLine
 10
12681.88692039952
 20
17068.99732194428
 30
0.0
 11
12711.2320291594
 21
17098.34239803424
 31
0.0
  0
LINE
  5
302DE
330
2
100
AcDbEntity
  8
0
100
AcDbLine
 10
12722.01508935945
 20
17108.20133501236
 30
0.0
 11
12761.21902401949
 21
17147.40534154635
 31
0.0
  0
LINE
  5
302DF
330
2
100
AcDbEntity
  8
0
100
AcDbLine
 10
12682.81108935942
 20
17068.99732194428
 30
0.0
 11
12711.2320291594
 21
17097.41827481232
 31
0.0
  0
LINE
  5
302E0
330
2
100
AcDbEntity
  8
0
100
AcDbLine
 10
12722.9391929795
 20
17108.20133501236
 30
0.0
 11
12762.14319297938
 21
17147.40534154635
 31
0.0
  0
LINE
  5
302E1
330
2
100
AcDbEntity
  8
0
100
AcDbLine
 10
12683.73506229949
 20
17068.99732194428
 30
0.0
 11
12711.2320291594
 21
17096.49418426032
 31
0.0
  0
LINE
  5
302E2
330
2
100
AcDbEntity
  8
0
100
AcDbLine
 10
12723.86316591943
 20
17108.20133501236
 30
0.0
 11
12763.06716591946
 21
17147.40534154635
 31
0.0
  0
LINE
  5
302E3
330
2
100
AcDbEntity
  8
0
100
AcDbLine
 10
12684.65923125939
 20
17068.99732194428
 30
0.0
 11
12711.2320291594
 21
17095.57015904831
 31
0.0
  0
LINE
  5
302E4
330
2
100
AcDbEntity
  8
0
100
AcDbLine
 10
12724.78720419949
 20
17108.20133501236
 30
0.0
 11
12763.50402915949
 21
17146.91810770028
 31
0.0
  0
LINE
  5
302E5
330
2
100
AcDbEntity
  8
0
100
AcDbLine
 10
12685.58320419947
 20
17068.99732194428
 30
0.0
 11
12711.2320291594
 21
17094.64609463228
 31
0.0
  0
LINE
  5
302E6
330
2
100
AcDbEntity
  8
0
100
AcDbLine
 10
12725.7113078194
 20
17108.20133501236
 30
0.0
 11
12763.50402915949
 21
17145.99399754627
 31
0.0
  0
LINE
  5
302E7
330
2
100
AcDbEntity
  8
0
100
AcDbLine
 10
12686.50737315951
 20
17068.99732194428
 30
0.0
 11
12711.2320291594
 21
17093.72201061424
 31
0.0
  0
LINE
  5
302E8
330
2
100
AcDbEntity
  8
0
100
AcDbLine
 10
12726.63547677945
 20
17108.20133501236
 30
0.0
 11
12763.50402915949
 21
17145.06989392636
 31
0.0
  0
LINE
  5
302E9
330
2
100
AcDbEntity
  8
0
100
AcDbLine
 10
12687.43147677942
 20
17068.99732194428
 30
0.0
 11
12711.2320291594
 21
17092.79788085836
 31
0.0
  0
LINE
  5
302EA
330
2
100
AcDbEntity
  8
0
100
AcDbLine
 10
12727.55944971952
 20
17108.20133501236
 30
0.0
 11
12763.50402915949
 21
17144.14590791823
 31
0.0
  0
LINE
  5
302EB
330
2
100
AcDbEntity
  8
0
100
AcDbLine
 10
12688.35551505949
 20
17068.99732194428
 30
0.0
 11
12711.2320291594
 21
17091.87387524837
 31
0.0
  0
LINE
  5
302EC
330
2
100
AcDbEntity
  8
0
100
AcDbLine
 10
12728.48361867942
 20
17108.20133501236
 30
0.0
 11
12763.50402915949
 21
17143.22180429832
 31
0.0
  0
LINE
  5
302ED
330
2
100
AcDbEntity
  8
0
100
AcDbLine
 10
12689.27961867939
 20
17068.99732194428
 30
0.0
 11
12711.2320291594
 21
17090.94977162831
 31
0.0
  0
LINE
  5
302EE
330
2
100
AcDbEntity
  8
0
100
AcDbLine
 10
12729.40759161949
 20
17108.20133501236
 30
0.0
 11
12763.50402915949
 21
17142.29769414431
 31
0.0
  0
LINE
  5
302EF
330
2
100
AcDbEntity
  8
0
100
AcDbLine
 10
12690.20359161947
 20
17068.99732194428
 30
0.0
 11
12711.2320291594
 21
17090.0257268143
 31
0.0
  0
LINE
  5
302F0
330
2
100
AcDbEntity
  8
0
100
AcDbLine
 10
12730.33176057939
 20
17108.20133501236
 30
0.0
 11
12763.50402915949
 21
17141.37359052426
 31
0.0
  0
LINE
  5
302F1
330
2
100
AcDbEntity
  8
0
100
AcDbLine
 10
12691.12776057951
 20
17068.99732194428
 30
0.0
 11
12711.2320291594
 21
17089.10161666028
 31
0.0
  0
LINE
  5
302F2
330
2
100
AcDbEntity
  8
0
100
AcDbLine
 10
12731.25573351947
 20
17108.20133501236
 30
0.0
 11
12763.50402915949
 21
17140.44962411828
 31
0.0
  0
LINE
  5
302F3
330
2
100
AcDbEntity
  8
0
100
AcDbLine
 10
12692.05173351944
 20
17068.99732194428
 30
0.0
 11
12711.2320291594
 21
17088.17759144828
 31
0.0
  0
LINE
  5
302F4
330
2
100
AcDbEntity
  8
0
100
AcDbLine
 10
12732.17983713952
 20
17108.20133501236
 30
0.0
 11
12763.50402915949
 21
17139.52552049823
 31
0.0
  0
LINE
  5
302F5
330
2
100
AcDbEntity
  8
0
100
AcDbLine
 10
12692.97590247949
 20
17068.99732194428
 30
0.0
 11
12711.2320291594
 21
17087.25348782837
 31
0.0
  0
LINE
  5
302F6
330
2
100
AcDbEntity
  8
0
100
AcDbLine
 10
12733.10387541944
 20
17108.20133501236
 30
0.0
 11
12763.50402915949
 21
17138.60144954824
 31
0.0
  0
LINE
  5
302F7
330
2
100
AcDbEntity
  8
0
100
AcDbLine
 10
12693.89987541941
 20
17068.99732194428
 30
0.0
 11
12711.2320291594
 21
17086.32946261636
 31
0.0
  0
LINE
  5
302F8
330
2
100
AcDbEntity
  8
0
100
AcDbLine
 10
12734.02797903949
 20
17108.20133501236
 30
0.0
 11
12763.50402915949
 21
17137.67734592833
 31
0.0
  0
LINE
  5
302F9
330
2
100
AcDbEntity
  8
0
100
AcDbLine
 10
12694.82404437946
 20
17068.99732194428
 30
0.0
 11
12711.2320291594
 21
17085.40535246235
 31
0.0
  0
LINE
  5
302FA
330
2
100
AcDbEntity
  8
0
100
AcDbLine
 10
12734.95214799939
 20
17108.20133501236
 30
0.0
 11
12763.50402915949
 21
17136.7531965703
 31
0.0
  0
LINE
  5
302FB
330
2
100
AcDbEntity
  8
0
100
AcDbLine
 10
12695.74814799951
 20
17068.99732194428
 30
0.0
 11
12711.2320291594
 21
17084.48122924028
 31
0.0
  0
LINE
  5
302FC
330
2
100
AcDbEntity
  8
0
100
AcDbLine
 10
12735.87612093947
 20
17108.20133501236
 30
0.0
 11
12763.50402915949
 21
17135.82923669829
 31
0.0
  0
LINE
  5
302FD
330
2
100
AcDbEntity
  8
0
100
AcDbLine
 10
12696.67218627943
 20
17068.99732194428
 30
0.0
 11
12711.2320291594
 21
17083.55720402828
 31
0.0
  0
LINE
  5
302FE
330
2
100
AcDbEntity
  8
0
100
AcDbLine
 10
12736.80009387939
 20
17108.20133501236
 30
0.0
 11
12763.50402915949
 21
17134.9051657483
 31
0.0
  0
LINE
  5
302FF
330
2
100
AcDbEntity
  8
0
100
AcDbLine
 10
12697.5961592195
 20
17068.99732194428
 30
0.0
 11
12711.2320291594
 21
17082.63315921426
 31
0.0
  0
LINE
  5
30300
330
2
100
AcDbEntity
  8
0
100
AcDbLine
 10
12737.72426283944
 20
17108.20133501236
 30
0.0
 11
12763.50402915949
 21
17133.98106212824
 31
0.0
  0
LINE
  5
30301
330
2
100
AcDbEntity
  8
0
100
AcDbLine
 10
12698.5203281794
 20
17068.99732194428
 30
0.0
 11
12711.2320291594
 21
17081.70904906025
 31
0.0
  0
LINE
  5
30302
330
2
100
AcDbEntity
  8
0
100
AcDbLine
 10
12738.64843179949
 20
17108.20133501236
 30
0.0
 11
12763.50402915949
 21
17133.05695850833
 31
0.0
  0
LINE
  5
30303
330
2
100
AcDbEntity
  8
0
100
AcDbLine
 10
12699.44443179946
 20
17068.99732194428
 30
0.0
 11
12711.2320291594
 21
17080.78496504235
 31
0.0
  0
LINE
  5
30304
330
2
100
AcDbEntity
  8
0
100
AcDbLine
 10
12739.57240473941
 20
17108.20133501236
 30
0.0
 11
12763.50402915949
 21
17132.13297250035
 31
0.0
  0
LINE
  5
30305
330
2
100
AcDbEntity
  8
0
100
AcDbLine
 10
12700.36840473939
 20
17068.99732194428
 30
0.0
 11
12711.2320291594
 21
17079.86093983034
 31
0.0
  0
LINE
  5
30306
330
2
100
AcDbEntity
  8
0
100
AcDbLine
 10
12740.49657369946
 20
17108.20133501236
 30
0.0
 11
12763.50402915949
 21
17131.20884274433
 31
0.0
  0
LINE
  5
30307
330
2
100
AcDbEntity
  8
0
100
AcDbLine
 10
12701.29257369943
 20
17068.99732194428
 30
0.0
 11
12711.2320291594
 21
17078.93681007432
 31
0.0
  0
LINE
  5
30308
330
2
100
AcDbEntity
  8
0
100
AcDbLine
 10
12741.42054663939
 20
17108.20133501236
 30
0.0
 11
12763.50402915949
 21
17130.28475872629
 31
0.0
  0
LINE
  5
30309
330
2
100
AcDbEntity
  8
0
100
AcDbLine
 10
12702.2165466395
 20
17068.99732194428
 30
0.0
 11
12711.2320291594
 21
17078.0127652603
 31
0.0
  0
LINE
  5
3030A
330
2
100
AcDbEntity
  8
0
100
AcDbLine
 10
12742.34465025944
 20
17108.20133501236
 30
0.0
 11
12763.50402915949
 21
17129.36064857228
 31
0.0
  0
LINE
  5
3030B
330
2
100
AcDbEntity
  8
0
100
AcDbLine
 10
12703.1407155994
 20
17068.99732194428
 30
0.0
 11
12711.2320291594
 21
17077.08868124226
 31
0.0
  0
LINE
  5
3030C
330
2
100
AcDbEntity
  8
0
100
AcDbLine
 10
12743.26881921949
 20
17108.20133501236
 30
0.0
 11
12763.50402915949
 21
17128.43656455423
 31
0.0
  0
LINE
  5
3030D
330
2
100
AcDbEntity
  8
0
100
AcDbLine
 10
12704.06468853948
 20
17068.99732194428
 30
0.0
 11
12711.2320291594
 21
17076.16457762235
 31
0.0
  0
LINE
  5
3030E
330
2
100
AcDbEntity
  8
0
100
AcDbLine
 10
12744.19279215941
 20
17108.20133501236
 30
0.0
 11
12763.50402915949
 21
17127.51257854625
 31
0.0
  0
LINE
  5
3030F
330
2
100
AcDbEntity
  8
0
100
AcDbLine
 10
12704.98885749952
 20
17068.99732194428
 30
0.0
 11
12711.2320291594
 21
17075.24052627423
 31
0.0
  0
LINE
  5
30310
330
2
100
AcDbEntity
  8
0
100
AcDbLine
 10
12745.11676509948
 20
17108.20133501236
 30
0.0
 11
12763.50402915949
 21
17126.58849452835
 31
0.0
  0
LINE
  5
30311
330
2
100
AcDbEntity
  8
0
100
AcDbLine
 10
12705.91283043945
 20
17068.99732194428
 30
0.0
 11
12711.2320291594
 21
17074.31650106237
 31
0.0
  0
LINE
  5
30312
330
2
100
AcDbEntity
  8
0
100
AcDbLine
 10
12746.04093405939
 20
17108.20133501236
 30
0.0
 11
12763.50402915949
 21
17125.66438437434
 31
0.0
  0
LINE
  5
30313
330
2
100
AcDbEntity
  8
0
100
AcDbLine
 10
12706.8369993995
 20
17068.99732194428
 30
0.0
 11
12711.2320291594
 21
17073.3923778403
 31
0.0
  0
LINE
  5
30314
330
2
100
AcDbEntity
  8
0
100
AcDbLine
 10
12746.96510301943
 20
17108.20133501236
 30
0.0
 11
12763.50402915949
 21
17124.74026115228
 31
0.0
  0
LINE
  5
30315
330
2
100
AcDbEntity
  8
0
100
AcDbLine
 10
12707.7611030194
 20
17068.99732194428
 30
0.0
 11
12711.2320291594
 21
17072.46826768629
 31
0.0
  0
LINE
  5
30316
330
2
100
AcDbEntity
  8
0
100
AcDbLine
 10
12747.8890759595
 20
17108.20133501236
 30
0.0
 11
12763.50402915949
 21
17123.81629474631
 31
0.0
  0
LINE
  5
30317
330
2
100
AcDbEntity
  8
0
100
AcDbLine
 10
12708.68507595948
 20
17068.99732194428
 30
0.0
 11
12711.2320291594
 21
17071.54426861025
 31
0.0
  0
LINE
  5
30318
330
2
100
AcDbEntity
  8
0
100
AcDbLine
 10
12748.81304889943
 20
17108.20133501236
 30
0.0
 11
12763.50402915949
 21
17122.89223033027
 31
0.0
  0
LINE
  5
30319
330
2
100
AcDbEntity
  8
0
100
AcDbLine
 10
12709.60911423939
 20
17068.99732194428
 30
0.0
 11
12711.2320291594
 21
17070.62021726228
 31
0.0
  0
LINE
  5
3031A
330
2
100
AcDbEntity
  8
0
100
AcDbLine
 10
12749.73721785948
 20
17108.20133501236
 30
0.0
 11
12763.50402915949
 21
17121.96812671036
 31
0.0
  0
LINE
  5
3031B
330
2
100
AcDbEntity
  8
0
100
AcDbLine
 10
12710.53321785945
 20
17068.99732194428
 30
0.0
 11
12711.2320291594
 21
17069.69611364237
 31
0.0
  0
LINE
  5
3031C
330
2
100
AcDbEntity
  8
0
100
AcDbLine
 10
12750.66132147939
 20
17108.20133501236
 30
0.0
 11
12763.50402915949
 21
17121.04399695434
 31
0.0
  0
LINE
  5
3031D
330
2
100
AcDbEntity
  8
0
100
AcDbLine
 10
12711.2320291594
 20
17068.77201002231
 30
0.0
 11
12711.4573868195
 21
17068.99732194428
 31
0.0
  0
LINE
  5
3031E
330
2
100
AcDbEntity
  8
0
100
AcDbLine
 10
12672.02802915952
 20
17029.56804922631
 30
0.0
 11
12672.25325613948
 21
17029.7933154103
 31
0.0
  0
LINE
  5
3031F
330
2
100
AcDbEntity
  8
0
100
AcDbLine
 10
12751.58535975945
 20
17108.20133501236
 30
0.0
 11
12763.50402915949
 21
17120.11999134435
 31
0.0
  0
LINE
  5
30320
330
2
100
AcDbEntity
  8
0
100
AcDbLine
 10
12711.2320291594
 20
17067.84795867434
 30
0.0
 11
12712.38135975942
 21
17068.99732194428
 31
0.0
  0
LINE
  5
30321
330
2
100
AcDbEntity
  8
0
100
AcDbLine
 10
12672.02802915952
 20
17028.64398481028
 30
0.0
 11
12673.17742509939
 21
17029.7933154103
 31
0.0
  0
LINE
  5
30322
330
2
100
AcDbEntity
  8
0
100
AcDbLine
 10
12752.5094633795
 20
17108.20133501236
 30
0.0
 11
12763.50402915949
 21
17119.1959073263
 31
0.0
  0
LINE
  5
30323
330
2
100
AcDbEntity
  8
0
100
AcDbLine
 10
12711.2320291594
 20
17066.92385505428
 30
0.0
 11
12713.30552871947
 21
17068.99732194428
 31
0.0
  0
LINE
  5
30324
330
2
100
AcDbEntity
  8
0
100
AcDbLine
 10
12672.02802915952
 20
17027.71987465627
 30
0.0
 11
12674.10152871944
 21
17029.7933154103
 31
0.0
  0
LINE
  5
30325
330
2
100
AcDbEntity
  8
0
100
AcDbLine
 10
12753.43343631943
 20
17108.20133501236
 30
0.0
 11
12763.50402915949
 21
17118.27181677431
 31
0.0
  0
LINE
  5
30326
330
2
100
AcDbEntity
  8
0
100
AcDbLine
 10
12711.2320291594
 20
17065.99982984228
 30
0.0
 11
12714.22950165939
 21
17068.99732194428
 31
0.0
  0
LINE
  5
30327
330
2
100
AcDbEntity
  8
0
100
AcDbLine
 10
12672.02802915952
 20
17026.79588211433
 30
0.0
 11
12675.02550165951
 21
17029.7933154103
 31
0.0
  0
LINE
  5
30328
330
2
100
AcDbEntity
  8
0
100
AcDbLine
 10
12754.35760527948
 20
17108.20133501236
 30
0.0
 11
12763.50402915949
 21
17117.34773275626
 31
0.0
  0
LINE
  5
30329
330
2
100
AcDbEntity
  8
0
100
AcDbLine
 10
12711.2320291594
 20
17065.07574582424
 30
0.0
 11
12715.15367061944
 21
17068.99732194428
 31
0.0
  0
LINE
  5
3032A
330
2
100
AcDbEntity
  8
0
100
AcDbLine
 10
12672.02802915952
 20
17025.87177849428
 30
0.0
 11
12675.94953993943
 21
17029.7933154103
 31
0.0
  0
LINE
  5
3032B
330
2
100
AcDbEntity
  8
0
100
AcDbLine
 10
12755.28177423952
 20
17108.20133501236
 30
0.0
 11
12763.50402915949
 21
17116.42362913635
 31
0.0
  0
LINE
  5
3032C
330
2
100
AcDbEntity
  8
0
100
AcDbLine
 10
12711.2320291594
 20
17064.15163567037
 30
0.0
 11
12716.07764355951
 21
17068.99732194428
 31
0.0
  0
LINE
  5
3032D
330
2
100
AcDbEntity
  8
0
100
AcDbLine
 10
12672.02802915952
 20
17024.94766834027
 30
0.0
 11
12676.87364355948
 21
17029.7933154103
 31
0.0
  0
LINE
  5
3032E
330
2
100
AcDbEntity
  8
0
100
AcDbLine
 10
12756.20574717945
 20
17108.20133501236
 30
0.0
 11
12763.50402915949
 21
17115.49960392435
 31
0.0
  0
LINE
  5
3032F
330
2
100
AcDbEntity
  8
0
100
AcDbLine
 10
12711.2320291594
 20
17063.22757125434
 30
0.0
 11
12717.00174717942
 21
17068.99732194428
 31
0.0
  0
LINE
  5
30330
330
2
100
AcDbEntity
  8
0
100
AcDbLine
 10
12672.02802915952
 20
17024.02359085632
 30
0.0
 11
12677.79781251939
 21
17029.7933154103
 31
0.0
  0
LINE
  5
30331
330
2
100
AcDbEntity
  8
0
100
AcDbLine
 10
12757.12972011952
 20
17108.20133501236
 30
0.0
 11
12763.50402915949
 21
17114.57553297436
 31
0.0
  0
LINE
  5
30332
330
2
100
AcDbEntity
  8
0
100
AcDbLine
 10
12711.2320291594
 20
17062.30356564435
 30
0.0
 11
12717.92578545948
 21
17068.99732194428
 31
0.0
  0
LINE
  5
30333
330
2
100
AcDbEntity
  8
0
100
AcDbLine
 10
12672.02802915952
 20
17023.0996113823
 30
0.0
 11
12678.72178545946
 21
17029.7933154103
 31
0.0
  0
LINE
  5
30334
330
2
100
AcDbEntity
  8
0
100
AcDbLine
 10
12758.05388907942
 20
17108.20133501236
 30
0.0
 11
12763.50402915949
 21
17113.65144895632
 31
0.0
  0
LINE
  5
30335
330
2
100
AcDbEntity
  8
0
100
AcDbLine
 10
12711.2320291594
 20
17061.37946202429
 30
0.0
 11
12718.84988907939
 21
17068.99732194428
 31
0.0
  0
LINE
  5
30336
330
2
100
AcDbEntity
  8
0
100
AcDbLine
 10
12672.02802915952
 20
17022.17549469433
 30
0.0
 11
12679.64575839938
 21
17029.7933154103
 31
0.0
  0
LINE
  5
30337
330
2
100
AcDbEntity
  8
0
100
AcDbLine
 10
12758.97799269948
 20
17108.20133501236
 30
0.0
 11
12763.50402915949
 21
17112.72734533626
 31
0.0
  0
LINE
  5
30338
330
2
100
AcDbEntity
  8
0
100
AcDbLine
 10
12711.2320291594
 20
17060.45533226827
 30
0.0
 11
12719.77405803944
 21
17068.99732194428
 31
0.0
  0
LINE
  5
30339
330
2
100
AcDbEntity
  8
0
100
AcDbLine
 10
12672.02802915952
 20
17021.25138454032
 30
0.0
 11
12680.56992735943
 21
17029.7933154103
 31
0.0
  0
LINE
  5
3033A
330
2
100
AcDbEntity
  8
0
100
AcDbLine
 10
12759.90203097939
 20
17108.20133501236
 30
0.0
 11
12763.50402915949
 21
17111.80335932828
 31
0.0
  0
LINE
  5
3033B
330
2
100
AcDbEntity
  8
0
100
AcDbLine
 10
12711.2320291594
 20
17059.53130705626
 30
0.0
 11
12720.69803097951
 21
17068.99732194428
 31
0.0
  0
LINE
  5
3033C
330
2
100
AcDbEntity
  8
0
100
AcDbLine
 10
12672.02802915952
 20
17020.32732012429
 30
0.0
 11
12681.49409631948
 21
17029.7933154103
 31
0.0
  0
LINE
  5
3033D
330
2
100
AcDbEntity
  8
0
100
AcDbLine
 10
12760.82613459945
 20
17108.20133501236
 30
0.0
 11
12763.50402915949
 21
17110.87922957226
 31
0.0
  0
LINE
  5
3033E
330
2
100
AcDbEntity
  8
0
100
AcDbLine
 10
12711.2320291594
 20
17058.60720343635
 30
0.0
 11
12721.62219993941
 21
17068.99732194428
 31
0.0
  0
LINE
  5
3033F
330
2
100
AcDbEntity
  8
0
100
AcDbLine
 10
12672.02802915952
 20
17019.40320343632
 30
0.0
 11
12682.41819993939
 21
17029.7933154103
 31
0.0
  0
LINE
  5
30340
330
2
100
AcDbEntity
  8
0
100
AcDbLine
 10
12761.75010753952
 20
17108.20133501236
 30
0.0
 11
12763.50402915949
 21
17109.95516515623
 31
0.0
  0
LINE
  5
30341
330
2
100
AcDbEntity
  8
0
100
AcDbLine
 10
12711.2320291594
 20
17057.68317822434
 30
0.0
 11
12722.54617287948
 21
17068.99732194428
 31
0.0
  0
LINE
  5
30342
330
2
100
AcDbEntity
  8
0
100
AcDbLine
 10
12672.02802915952
 20
17018.47921742834
 30
0.0
 11
12683.34217287946
 21
17029.7933154103
 31
0.0
  0
LINE
  5
30343
330
2
100
AcDbEntity
  8
0
100
AcDbLine
 10
12762.67427649942
 20
17108.20133501236
 30
0.0
 11
12763.50402915949
 21
17109.03106153632
 31
0.0
  0
LINE
  5
30344
330
2
100
AcDbEntity
  8
0
100
AcDbLine
 10
12711.2320291594
 20
17056.75906153623
 30
0.0
 11
12723.47034183939
 21
17068.99732194428
 31
0.0
  0
LINE
  5
30345
330
2
100
AcDbEntity
  8
0
100
AcDbLine
 10
12672.02802915952
 20
17017.55510074023
 30
0.0
 11
12684.26621115952
 21
17029.7933154103
 31
0.0
  0
LINE
  5
30346
330
2
100
AcDbEntity
  8
0
100
AcDbLine
 10
12711.2320291594
 20
17055.83502325632
 30
0.0
 11
12724.39431477946
 21
17068.99732194428
 31
0.0
  0
LINE
  5
30347
330
2
100
AcDbEntity
  8
0
100
AcDbLine
 10
12672.02802915952
 20
17016.63103632435
 30
0.0
 11
12685.19031477943
 21
17029.7933154103
 31
0.0
  0
LINE
  5
30348
330
2
100
AcDbEntity
  8
0
100
AcDbLine
 10
12711.2320291594
 20
17054.91092617036
 30
0.0
 11
12725.3184837395
 21
17068.99732194428
 31
0.0
  0
LINE
  5
30349
330
2
100
AcDbEntity
  8
0
100
AcDbLine
 10
12672.02802915952
 20
17015.70693270429
 30
0.0
 11
12686.11448373948
 21
17029.7933154103
 31
0.0
  0
LINE
  5
3034A
330
2
100
AcDbEntity
  8
0
100
AcDbLine
 10
12711.2320291594
 20
17053.98691402627
 30
0.0
 11
12726.24245667943
 21
17068.99732194428
 31
0.0
  0
LINE
  5
3034B
330
2
100
AcDbEntity
  8
0
100
AcDbLine
 10
12672.02802915952
 20
17014.78294669631
 30
0.0
 11
12687.0384566794
 21
17029.7933154103
 31
0.0
  0
LINE
  5
3034C
330
2
100
AcDbEntity
  8
0
100
AcDbLine
 10
12711.2320291594
 20
17053.06277773629
 30
0.0
 11
12727.16656029948
 21
17068.99732194428
 31
0.0
  0
LINE
  5
3034D
330
2
100
AcDbEntity
  8
0
100
AcDbLine
 10
12672.02802915952
 20
17013.85883000834
 30
0.0
 11
12687.96242961948
 21
17029.7933154103
 31
0.0
  0
LINE
  5
3034E
330
2
100
AcDbEntity
  8
0
100
AcDbLine
 10
12711.2320291594
 20
17052.13868065033
 30
0.0
 11
12728.09072925938
 21
17068.99732194428
 31
0.0
  0
LINE
  5
3034F
330
2
100
AcDbEntity
  8
0
100
AcDbLine
 10
12672.02802915952
 20
17012.93471985433
 30
0.0
 11
12688.88659857952
 21
17029.7933154103
 31
0.0
  0
LINE
  5
30350
330
2
100
AcDbEntity
  8
0
100
AcDbLine
 10
12711.2320291594
 20
17051.21463583632
 30
0.0
 11
12729.01470219946
 21
17068.99732194428
 31
0.0
  0
LINE
  5
30351
330
2
100
AcDbEntity
  8
0
100
AcDbLine
 10
12672.02802915952
 20
17012.01064890434
 30
0.0
 11
12689.81076753942
 21
17029.7933154103
 31
0.0
  0
LINE
  5
30352
330
2
100
AcDbEntity
  8
0
100
AcDbLine
 10
12711.2320291594
 20
17050.29061715826
 30
0.0
 11
12729.93867513938
 21
17068.99732194428
 31
0.0
  0
LINE
  5
30353
330
2
100
AcDbEntity
  8
0
100
AcDbLine
 10
12672.02802915952
 20
17011.08666289636
 30
0.0
 11
12690.73474047949
 21
17029.7933154103
 31
0.0
  0
LINE
  5
30354
330
2
100
AcDbEntity
  8
0
100
AcDbLine
 10
12711.2320291594
 20
17049.36651353835
 30
0.0
 11
12730.86284409943
 21
17068.99732194428
 31
0.0
  0
LINE
  5
30355
330
2
100
AcDbEntity
  8
0
100
AcDbLine
 10
12672.02802915952
 20
17010.16255274235
 30
0.0
 11
12691.6589094394
 21
17029.7933154103
 31
0.0
  0
LINE
  5
30356
330
2
100
AcDbEntity
  8
0
100
AcDbLine
 10
12711.2320291594
 20
17048.44240338434
 30
0.0
 11
12731.78701305948
 21
17068.99732194428
 31
0.0
  0
LINE
  5
30357
330
2
100
AcDbEntity
  8
0
100
AcDbLine
 10
12672.02802915952
 20
17009.2384491223
 30
0.0
 11
12692.58288237947
 21
17029.7933154103
 31
0.0
  0
LINE
  5
30358
330
2
100
AcDbEntity
  8
0
100
AcDbLine
 10
12711.2320291594
 20
17047.51835857033
 30
0.0
 11
12732.7109859994
 21
17068.99732194428
 31
0.0
  0
LINE
  5
30359
330
2
100
AcDbEntity
  8
0
100
AcDbLine
 10
12672.02802915952
 20
17008.31437163835
 30
0.0
 11
12693.50698599952
 21
17029.7933154103
 31
0.0
  0
LINE
  5
3035A
330
2
100
AcDbEntity
  8
0
100
AcDbLine
 10
12711.2320291594
 20
17046.59424188236
 30
0.0
 11
12733.63515495945
 21
17068.99732194428
 31
0.0
  0
LINE
  5
3035B
330
2
100
AcDbEntity
  8
0
100
AcDbLine
 10
12672.02802915952
 20
17007.39025495024
 30
0.0
 11
12694.43115495942
 21
17029.7933154103
 31
0.0
  0
LINE
  5
3035C
330
2
100
AcDbEntity
  8
0
100
AcDbLine
 10
12711.2320291594
 20
17045.67023627236
 30
0.0
 11
12734.55912789952
 21
17068.99732194428
 31
0.0
  0
LINE
  5
3035D
330
2
100
AcDbEntity
  8
0
100
AcDbLine
 10
12672.02802915952
 20
17006.46626894226
 30
0.0
 11
12695.35512789949
 21
17029.7933154103
 31
0.0
  0
LINE
  5
3035E
330
2
100
AcDbEntity
  8
0
100
AcDbLine
 10
12711.2320291594
 20
17044.74611958425
 30
0.0
 11
12735.48323151943
 21
17068.99732194428
 31
0.0
  0
LINE
  5
3035F
330
2
100
AcDbEntity
  8
0
100
AcDbLine
 10
12672.02802915952
 20
17005.54216532235
 30
0.0
 11
12696.27910083942
 21
17029.7933154103
 31
0.0
  0
LINE
  5
30360
330
2
100
AcDbEntity
  8
0
100
AcDbLine
 10
12711.2320291594
 20
17043.82201596434
 30
0.0
 11
12736.40726979949
 21
17068.99732194428
 31
0.0
  0
LINE
  5
30361
330
2
100
AcDbEntity
  8
0
100
AcDbLine
 10
12672.02802915952
 20
17004.61805516834
 30
0.0
 11
12697.20326979947
 21
17029.7933154103
 31
0.0
  0
LINE
  5
30362
330
2
100
AcDbEntity
  8
0
100
AcDbLine
 10
12711.2320291594
 20
17042.89797115032
 30
0.0
 11
12737.3313734194
 21
17068.99732194428
 31
0.0
  0
LINE
  5
30363
330
2
100
AcDbEntity
  8
0
100
AcDbLine
 10
12672.02802915952
 20
17003.69398421836
 30
0.0
 11
12698.12743875951
 21
17029.7933154103
 31
0.0
  0
LINE
  5
30364
330
2
100
AcDbEntity
  8
0
100
AcDbLine
 10
12711.2320291594
 20
17041.97395247227
 30
0.0
 11
12738.25534635947
 21
17068.99732194428
 31
0.0
  0
LINE
  5
30365
330
2
100
AcDbEntity
  8
0
100
AcDbLine
 10
12672.02802915952
 20
17002.77000474433
 30
0.0
 11
12699.05141169944
 21
17029.7933154103
 31
0.0
  0
LINE
  5
30366
330
2
100
AcDbEntity
  8
0
100
AcDbLine
 10
12711.2320291594
 20
17041.04983578431
 30
0.0
 11
12739.17951531952
 21
17068.99732194428
 31
0.0
  0
LINE
  5
30367
330
2
100
AcDbEntity
  8
0
100
AcDbLine
 10
12672.02802915952
 20
17001.84588152226
 30
0.0
 11
12699.97558065949
 21
17029.7933154103
 31
0.0
  0
LINE
  5
30368
330
2
100
AcDbEntity
  8
0
100
AcDbLine
 10
12711.2320291594
 20
17040.12573216425
 30
0.0
 11
12740.10368427942
 21
17068.99732194428
 31
0.0
  0
LINE
  5
30369
330
2
100
AcDbEntity
  8
0
100
AcDbLine
 10
12672.02802915952
 20
17000.92177136825
 30
0.0
 11
12700.89955359941
 21
17029.7933154103
 31
0.0
  0
LINE
  5
3036A
330
2
100
AcDbEntity
  8
0
100
AcDbLine
 10
12711.2320291594
 20
17039.20169388434
 30
0.0
 11
12741.02765721949
 21
17068.99732194428
 31
0.0
  0
LINE
  5
3036B
330
2
100
AcDbEntity
  8
0
100
AcDbLine
 10
12672.02802915952
 20
16999.99770041826
 30
0.0
 11
12701.82365721947
 21
17029.7933154103
 31
0.0
  0
LINE
  5
3036C
330
2
100
AcDbEntity
  8
0
100
AcDbLine
 10
12711.2320291594
 20
17038.27759026428
 30
0.0
 11
12741.95182617939
 21
17068.99732194428
 31
0.0
  0
LINE
  5
3036D
330
2
100
AcDbEntity
  8
0
100
AcDbLine
 10
12672.02802915952
 20
16999.07360333231
 30
0.0
 11
12702.74769549939
 21
17029.7933154103
 31
0.0
  0
LINE
  5
3036E
330
2
100
AcDbEntity
  8
0
100
AcDbLine
 10
12711.2320291594
 20
17037.35356505227
 30
0.0
 11
12742.87579911947
 21
17068.99732194428
 31
0.0
  0
LINE
  5
3036F
330
2
100
AcDbEntity
  8
0
100
AcDbLine
 10
12672.02802915952
 20
16998.14960425627
 30
0.0
 11
12703.67179911944
 21
17029.7933154103
 31
0.0
  0
LINE
  5
30370
330
2
100
AcDbEntity
  8
0
100
AcDbLine
 10
12711.2320291594
 20
17036.42945489826
 30
0.0
 11
12743.79990273952
 21
17068.99732194428
 31
0.0
  0
LINE
  5
30371
330
2
100
AcDbEntity
  8
0
100
AcDbLine
 10
12672.02802915952
 20
16997.22551370427
 30
0.0
 11
12704.59577205951
 21
17029.7933154103
 31
0.0
  0
LINE
  5
30372
330
2
100
AcDbEntity
  8
0
100
AcDbLine
 10
12711.2320291594
 20
17035.50541008424
 30
0.0
 11
12744.72394101944
 21
17068.99732194428
 31
0.0
  0
LINE
  5
30373
330
2
100
AcDbEntity
  8
0
100
AcDbLine
 10
12672.02802915952
 20
16996.30142315227
 30
0.0
 11
12705.51994101941
 21
17029.7933154103
 31
0.0
  0
LINE
  5
30374
330
2
100
AcDbEntity
  8
0
100
AcDbLine
 10
12711.2320291594
 20
17034.58130646434
 30
0.0
 11
12745.64804463949
 21
17068.99732194428
 31
0.0
  0
LINE
  5
30375
330
2
100
AcDbEntity
  8
0
100
AcDbLine
 10
12672.02802915952
 20
16995.37731953236
 30
0.0
 11
12706.44410997946
 21
17029.7933154103
 31
0.0
  0
LINE
  5
30376
330
2
100
AcDbEntity
  8
0
100
AcDbLine
 10
12711.2320291594
 20
17033.65728778628
 30
0.0
 11
12746.57201757942
 21
17068.99732194428
 31
0.0
  0
LINE
  5
30377
330
2
100
AcDbEntity
  8
0
100
AcDbLine
 10
12672.02802915952
 20
16994.45333352423
 30
0.0
 11
12707.36808291939
 21
17029.7933154103
 31
0.0
  0
LINE
  5
30378
330
2
100
AcDbEntity
  8
0
100
AcDbLine
 10
12711.2320291594
 20
17032.73319070033
 30
0.0
 11
12747.49618653947
 21
17068.99732194428
 31
0.0
  0
LINE
  5
30379
330
2
100
AcDbEntity
  8
0
100
AcDbLine
 10
12672.02802915952
 20
16993.52922337037
 30
0.0
 11
12708.29205585946
 21
17029.7933154103
 31
0.0
  0
LINE
  5
3037A
330
2
100
AcDbEntity
  8
0
100
AcDbLine
 10
12711.2320291594
 20
17031.80906747826
 30
0.0
 11
12748.42035549951
 21
17068.99732194428
 31
0.0
  0
LINE
  5
3037B
330
2
100
AcDbEntity
  8
0
100
AcDbLine
 10
12672.02802915952
 20
16992.60511975032
 30
0.0
 11
12709.2162248195
 21
17029.7933154103
 31
0.0
  0
LINE
  5
3037C
330
2
100
AcDbEntity
  8
0
100
AcDbLine
 10
12711.2320291594
 20
17030.88502266424
 30
0.0
 11
12749.34432843944
 21
17068.99732194428
 31
0.0
  0
LINE
  5
3037D
330
2
100
AcDbEntity
  8
0
100
AcDbLine
 10
12672.02802915952
 20
16991.68103573227
 30
0.0
 11
12710.14032843941
 21
17029.7933154103
 31
0.0
  0
LINE
  5
3037E
330
2
100
AcDbEntity
  8
0
100
AcDbLine
 10
12711.2320291594
 20
17029.96101705425
 30
0.0
 11
12750.26830137951
 21
17068.99732194428
 31
0.0
  0
LINE
  5
3037F
330
2
100
AcDbEntity
  8
0
100
AcDbLine
 10
12672.02802915952
 20
16990.75705625824
 30
0.0
 11
12711.06436671948
 21
17029.7933154103
 31
0.0
  0
LINE
  5
30380
330
2
100
AcDbEntity
  8
0
100
AcDbLine
 10
12711.98847033939
 20
17029.7933154103
 30
0.0
 11
12750.43596381944
 21
17068.24085462833
 31
0.0
  0
LINE
  5
30381
330
2
100
AcDbEntity
  8
0
100
AcDbLine
 10
12672.78433965952
 20
16990.58932194423
 30
0.0
 11
12711.2320291594
 21
17029.03690036628
 31
0.0
  0
LINE
  5
30382
330
2
100
AcDbEntity
  8
0
100
AcDbLine
 10
12712.91250861945
 20
17029.7933154103
 30
0.0
 11
12750.43596381944
 21
17067.31675100828
 31
0.0
  0
LINE
  5
30383
330
2
100
AcDbEntity
  8
0
100
AcDbLine
 10
12673.70850861942
 20
16990.58932194423
 30
0.0
 11
12711.2320291594
 21
17028.11280328033
 31
0.0
  0
LINE
  5
30384
330
2
100
AcDbEntity
  8
0
100
AcDbLine
 10
12713.8366122395
 20
17029.7933154103
 30
0.0
 11
12750.43596381944
 21
17066.39272579627
 31
0.0
  0
LINE
  5
30385
330
2
100
AcDbEntity
  8
0
100
AcDbLine
 10
12674.63267757947
 20
16990.58932194423
 30
0.0
 11
12711.2320291594
 21
17027.1887388643
 31
0.0
  0
LINE
  5
30386
330
2
100
AcDbEntity
  8
0
100
AcDbLine
 10
12714.76058517943
 20
17029.7933154103
 30
0.0
 11
12750.43596381944
 21
17065.46862217636
 31
0.0
  0
LINE
  5
30387
330
2
100
AcDbEntity
  8
0
100
AcDbLine
 10
12675.55665051939
 20
16990.58932194423
 30
0.0
 11
12711.2320291594
 21
17026.26462871029
 31
0.0
  0
LINE
  5
30388
330
2
100
AcDbEntity
  8
0
100
AcDbLine
 10
12715.68475413948
 20
17029.7933154103
 30
0.0
 11
12750.43596381944
 21
17064.54459043025
 31
0.0
  0
LINE
  5
30389
330
2
100
AcDbEntity
  8
0
100
AcDbLine
 10
12676.48062345947
 20
16990.58932194423
 30
0.0
 11
12711.2320291594
 21
17025.34062310029
 31
0.0
  0
LINE
  5
3038A
330
2
100
AcDbEntity
  8
0
100
AcDbLine
 10
12716.6087270794
 20
17029.7933154103
 30
0.0
 11
12750.43596381944
 21
17063.62046720833
 31
0.0
  0
LINE
  5
3038B
330
2
100
AcDbEntity
  8
0
100
AcDbLine
 10
12677.40479241951
 20
16990.58932194423
 30
0.0
 11
12711.2320291594
 21
17024.41651294628
 31
0.0
  0
LINE
  5
3038C
330
2
100
AcDbEntity
  8
0
100
AcDbLine
 10
12717.53289603945
 20
17029.7933154103
 30
0.0
 11
12750.43596381944
 21
17062.69636358828
 31
0.0
  0
LINE
  5
3038D
330
2
100
AcDbEntity
  8
0
100
AcDbLine
 10
12678.32889603942
 20
16990.58932194423
 30
0.0
 11
12711.2320291594
 21
17023.49240279227
 31
0.0
  0
LINE
  5
3038E
330
2
100
AcDbEntity
  8
0
100
AcDbLine
 10
12718.45706499949
 20
17029.7933154103
 30
0.0
 11
12750.43596381944
 21
17061.77235797828
 31
0.0
  0
LINE
  5
3038F
330
2
100
AcDbEntity
  8
0
100
AcDbLine
 10
12679.25293431948
 20
16990.58932194423
 30
0.0
 11
12711.2320291594
 21
17022.56835797825
 31
0.0
  0
LINE
  5
30390
330
2
100
AcDbEntity
  8
0
100
AcDbLine
 10
12719.38103793942
 20
17029.7933154103
 30
0.0
 11
12750.43596381944
 21
17060.8482870283
 31
0.0
  0
LINE
  5
30391
330
2
100
AcDbEntity
  8
0
100
AcDbLine
 10
12680.17690725941
 20
16990.58932194423
 30
0.0
 11
12711.2320291594
 21
17021.64433930035
 31
0.0
  0
LINE
  5
30392
330
2
100
AcDbEntity
  8
0
100
AcDbLine
 10
12720.30501087949
 20
17029.7933154103
 30
0.0
 11
12750.43596381944
 21
17059.92418340824
 31
0.0
  0
LINE
  5
30393
330
2
100
AcDbEntity
  8
0
100
AcDbLine
 10
12681.10101087947
 20
16990.58932194423
 30
0.0
 11
12711.2320291594
 21
17020.72023568029
 31
0.0
  0
LINE
  5
30394
330
2
100
AcDbEntity
  8
0
100
AcDbLine
 10
12721.22917983939
 20
17029.7933154103
 30
0.0
 11
12750.43596381944
 21
17059.00007978833
 31
0.0
  0
LINE
  5
30395
330
2
100
AcDbEntity
  8
0
100
AcDbLine
 10
12682.02517983951
 20
16990.58932194423
 30
0.0
 11
12711.2320291594
 21
17019.79613206024
 31
0.0
  0
LINE
  5
30396
330
2
100
AcDbEntity
  8
0
100
AcDbLine
 10
12722.15328345945
 20
17029.7933154103
 30
0.0
 11
12750.43596381944
 21
17058.07607417834
 31
0.0
  0
LINE
  5
30397
330
2
100
AcDbEntity
  8
0
100
AcDbLine
 10
12682.94934879941
 20
16990.58932194423
 30
0.0
 11
12711.2320291594
 21
17018.87207417831
 31
0.0
  0
LINE
  5
30398
330
2
100
AcDbEntity
  8
0
100
AcDbLine
 10
12723.07725639952
 20
17029.7933154103
 30
0.0
 11
12750.43596381944
 21
17057.15202283036
 31
0.0
  0
LINE
  5
30399
330
2
100
AcDbEntity
  8
0
100
AcDbLine
 10
12683.87332173948
 20
16990.58932194423
 30
0.0
 11
12711.2320291594
 21
17017.94806856831
 31
0.0
  0
LINE
  5
3039A
330
2
100
AcDbEntity
  8
0
100
AcDbLine
 10
12724.00142535942
 20
17029.7933154103
 30
0.0
 11
12750.43596381944
 21
17056.22793881232
 31
0.0
  0
LINE
  5
3039B
330
2
100
AcDbEntity
  8
0
100
AcDbLine
 10
12684.79729467941
 20
16990.58932194423
 30
0.0
 11
12711.2320291594
 21
17017.02397148236
 31
0.0
  0
LINE
  5
3039C
330
2
100
AcDbEntity
  8
0
100
AcDbLine
 10
12724.92539829949
 20
17029.7933154103
 30
0.0
 11
12750.43596381944
 21
17055.30380252234
 31
0.0
  0
LINE
  5
3039D
330
2
100
AcDbEntity
  8
0
100
AcDbLine
 10
12685.72146363946
 20
16990.58932194423
 30
0.0
 11
12711.2320291594
 21
17016.09984826029
 31
0.0
  0
LINE
  5
3039E
330
2
100
AcDbEntity
  8
0
100
AcDbLine
 10
12725.84956725939
 20
17029.7933154103
 30
0.0
 11
12750.43596381944
 21
17054.37979037824
 31
0.0
  0
LINE
  5
3039F
330
2
100
AcDbEntity
  8
0
100
AcDbLine
 10
12686.64556725951
 20
16990.58932194423
 30
0.0
 11
12711.2320291594
 21
17015.17579037837
 31
0.0
  0
LINE
  5
303A0
330
2
100
AcDbEntity
  8
0
100
AcDbLine
 10
12726.77373621944
 20
17029.7933154103
 30
0.0
 11
12750.43596381944
 21
17053.45567369028
 31
0.0
  0
LINE
  5
303A1
330
2
100
AcDbEntity
  8
0
100
AcDbLine
 10
12687.56960553943
 20
16990.58932194423
 30
0.0
 11
12711.2320291594
 21
17014.25168675831
 31
0.0
  0
LINE
  5
303A2
330
2
100
AcDbEntity
  8
0
100
AcDbLine
 10
12727.69770915951
 20
17029.7933154103
 30
0.0
 11
12750.43596381944
 21
17052.53164847827
 31
0.0
  0
LINE
  5
303A3
330
2
100
AcDbEntity
  8
0
100
AcDbLine
 10
12688.4935784795
 20
16990.58932194423
 30
0.0
 11
12711.2320291594
 21
17013.32768768227
 31
0.0
  0
LINE
  5
303A4
330
2
100
AcDbEntity
  8
0
100
AcDbLine
 10
12728.62168209944
 20
17029.7933154103
 30
0.0
 11
12750.43596381944
 21
17051.60753832426
 31
0.0
  0
LINE
  5
303A5
330
2
100
AcDbEntity
  8
0
100
AcDbLine
 10
12689.41768209941
 20
16990.58932194423
 30
0.0
 11
12711.2320291594
 21
17012.40358406236
 31
0.0
  0
LINE
  5
303A6
330
2
100
AcDbEntity
  8
0
100
AcDbLine
 10
12729.54585105948
 20
17029.7933154103
 30
0.0
 11
12750.43596381944
 21
17050.6834216363
 31
0.0
  0
LINE
  5
303A7
330
2
100
AcDbEntity
  8
0
100
AcDbLine
 10
12690.34185105946
 20
16990.58932194423
 30
0.0
 11
12711.2320291594
 21
17011.47947390835
 31
0.0
  0
LINE
  5
303A8
330
2
100
AcDbEntity
  8
0
100
AcDbLine
 10
12730.46995467939
 20
17029.7933154103
 30
0.0
 11
12750.43596381944
 21
17049.75939642429
 31
0.0
  0
LINE
  5
303A9
330
2
100
AcDbEntity
  8
0
100
AcDbLine
 10
12691.2660200195
 20
16990.58932194423
 30
0.0
 11
12711.2320291594
 21
17010.55540949232
 31
0.0
  0
LINE
  5
303AA
330
2
100
AcDbEntity
  8
0
100
AcDbLine
 10
12731.39392761947
 20
17029.7933154103
 30
0.0
 11
12750.43596381944
 21
17048.83536467833
 31
0.0
  0
LINE
  5
303AB
330
2
100
AcDbEntity
  8
0
100
AcDbLine
 10
12692.18999295943
 20
16990.58932194423
 30
0.0
 11
12711.2320291594
 21
17009.63140388232
 31
0.0
  0
LINE
  5
303AC
330
2
100
AcDbEntity
  8
0
100
AcDbLine
 10
12732.31809657951
 20
17029.7933154103
 30
0.0
 11
12750.43596381944
 21
17047.91125452432
 31
0.0
  0
LINE
  5
303AD
330
2
100
AcDbEntity
  8
0
100
AcDbLine
 10
12693.1139658995
 20
16990.58932194423
 30
0.0
 11
12711.2320291594
 21
17008.70730026227
 31
0.0
  0
LINE
  5
303AE
330
2
100
AcDbEntity
  8
0
100
AcDbLine
 10
12733.24206951944
 20
17029.7933154103
 30
0.0
 11
12750.43596381944
 21
17046.98715743836
 31
0.0
  0
LINE
  5
303AF
330
2
100
AcDbEntity
  8
0
100
AcDbLine
 10
12694.0381348594
 20
16990.58932194423
 30
0.0
 11
12711.2320291594
 21
17007.78319010826
 31
0.0
  0
LINE
  5
303B0
330
2
100
AcDbEntity
  8
0
100
AcDbLine
 10
12734.16623847948
 20
17029.7933154103
 30
0.0
 11
12750.43596381944
 21
17046.06312569225
 31
0.0
  0
LINE
  5
303B1
330
2
100
AcDbEntity
  8
0
100
AcDbLine
 10
12694.96223847946
 20
16990.58932194423
 30
0.0
 11
12711.2320291594
 21
17006.85913876028
 31
0.0
  0
LINE
  5
303B2
330
2
100
AcDbEntity
  8
0
100
AcDbLine
 10
12735.09021141941
 20
17029.7933154103
 30
0.0
 11
12750.43596381944
 21
17045.13899593623
 31
0.0
  0
LINE
  5
303B3
330
2
100
AcDbEntity
  8
0
100
AcDbLine
 10
12695.88627675952
 20
16990.58932194423
 30
0.0
 11
12711.2320291594
 21
17005.93502207232
 31
0.0
  0
LINE
  5
303B4
330
2
100
AcDbEntity
  8
0
100
AcDbLine
 10
12736.01438037946
 20
17029.7933154103
 30
0.0
 11
12750.43596381944
 21
17044.21496419027
 31
0.0
  0
LINE
  5
303B5
330
2
100
AcDbEntity
  8
0
100
AcDbLine
 10
12696.81024969945
 20
16990.58932194423
 30
0.0
 11
12711.2320291594
 21
17005.01101646232
 31
0.0
  0
LINE
  5
303B6
330
2
100
AcDbEntity
  8
0
100
AcDbLine
 10
12736.93835331938
 20
17029.7933154103
 30
0.0
 11
12750.43596381944
 21
17043.29086710432
 31
0.0
  0
LINE
  5
303B7
330
2
100
AcDbEntity
  8
0
100
AcDbLine
 10
12697.7343533195
 20
16990.58932194423
 30
0.0
 11
12711.2320291594
 21
17004.08690630831
 31
0.0
  0
LINE
  5
303B8
330
2
100
AcDbEntity
  8
0
100
AcDbLine
 10
12737.86252227943
 20
17029.7933154103
 30
0.0
 11
12750.43596381944
 21
17042.36684842626
 31
0.0
  0
LINE
  5
303B9
330
2
100
AcDbEntity
  8
0
100
AcDbLine
 10
12698.6585222794
 20
16990.58932194423
 30
0.0
 11
12711.2320291594
 21
17003.16285496034
 31
0.0
  0
LINE
  5
303BA
330
2
100
AcDbEntity
  8
0
100
AcDbLine
 10
12738.7864952195
 20
17029.7933154103
 30
0.0
 11
12750.43596381944
 21
17041.44274480636
 31
0.0
  0
LINE
  5
303BB
330
2
100
AcDbEntity
  8
0
100
AcDbLine
 10
12699.58249521948
 20
16990.58932194423
 30
0.0
 11
12711.2320291594
 21
17002.23874480633
 31
0.0
  0
LINE
  5
303BC
330
2
100
AcDbEntity
  8
0
100
AcDbLine
 10
12739.71059883941
 20
17029.7933154103
 30
0.0
 11
12750.43596381944
 21
17040.51870652629
 31
0.0
  0
LINE
  5
303BD
330
2
100
AcDbEntity
  8
0
100
AcDbLine
 10
12700.50653349939
 20
16990.58932194423
 30
0.0
 11
12711.2320291594
 21
17001.31475226424
 31
0.0
  0
LINE
  5
303BE
330
2
100
AcDbEntity
  8
0
100
AcDbLine
 10
12740.63476779946
 20
17029.7933154103
 30
0.0
 11
12750.43596381944
 21
17039.59458330437
 31
0.0
  0
LINE
  5
303BF
330
2
100
AcDbEntity
  8
0
100
AcDbLine
 10
12701.43063711945
 20
16990.58932194423
 30
0.0
 11
12711.2320291594
 21
17000.39062250837
 31
0.0
  0
LINE
  5
303C0
330
2
100
AcDbEntity
  8
0
100
AcDbLine
 10
12741.55874073938
 20
17029.7933154103
 30
0.0
 11
12750.43596381944
 21
17038.67047315036
 31
0.0
  0
LINE
  5
303C1
330
2
100
AcDbEntity
  8
0
100
AcDbLine
 10
12702.35480607949
 20
16990.58932194423
 30
0.0
 11
12711.2320291594
 21
16999.46651888831
 31
0.0
  0
LINE
  5
303C2
330
2
100
AcDbEntity
  8
0
100
AcDbLine
 10
12742.48290969943
 20
17029.7933154103
 30
0.0
 11
12750.43596381944
 21
17037.74644793836
 31
0.0
  0
LINE
  5
303C3
330
2
100
AcDbEntity
  8
0
100
AcDbLine
 10
12703.2789096994
 20
16990.58932194423
 30
0.0
 11
12711.2320291594
 21
16998.54246100624
 31
0.0
  0
LINE
  5
303C4
330
2
100
AcDbEntity
  8
0
100
AcDbLine
 10
12743.4068826395
 20
17029.7933154103
 30
0.0
 11
12750.43596381944
 21
17036.82242272635
 31
0.0
  0
LINE
  5
303C5
330
2
100
AcDbEntity
  8
0
100
AcDbLine
 10
12704.20294797947
 20
16990.58932194423
 30
0.0
 11
12711.2320291594
 21
16997.6184684643
 31
0.0
  0
LINE
  5
303C6
330
2
100
AcDbEntity
  8
0
100
AcDbLine
 10
12744.3310515994
 20
17029.7933154103
 30
0.0
 11
12750.43596381944
 21
17035.89831910629
 31
0.0
  0
LINE
  5
303C7
330
2
100
AcDbEntity
  8
0
100
AcDbLine
 10
12705.12692091939
 20
16990.58932194423
 30
0.0
 11
12711.2320291594
 21
16996.69435831029
 31
0.0
  0
LINE
  5
303C8
330
2
100
AcDbEntity
  8
0
100
AcDbLine
 10
12745.25502453948
 20
17029.7933154103
 30
0.0
 11
12750.43596381944
 21
17034.97420895228
 31
0.0
  0
LINE
  5
303C9
330
2
100
AcDbEntity
  8
0
100
AcDbLine
 10
12706.05108987944
 20
16990.58932194423
 30
0.0
 11
12711.2320291594
 21
16995.77025469023
 31
0.0
  0
LINE
  5
303CA
330
2
100
AcDbEntity
  8
0
100
AcDbLine
 10
12746.17919349952
 20
17029.7933154103
 30
0.0
 11
12750.43596381944
 21
17034.05015760431
 31
0.0
  0
LINE
  5
303CB
330
2
100
AcDbEntity
  8
0
100
AcDbLine
 10
12706.97519349949
 20
16990.58932194423
 30
0.0
 11
12711.2320291594
 21
16994.84617720629
 31
0.0
  0
LINE
  5
303CC
330
2
100
AcDbEntity
  8
0
100
AcDbLine
 10
12747.10316643945
 20
17029.7933154103
 30
0.0
 11
12750.43596381944
 21
17033.12606051835
 31
0.0
  0
LINE
  5
303CD
330
2
100
AcDbEntity
  8
0
100
AcDbLine
 10
12707.89916643942
 20
16990.58932194423
 30
0.0
 11
12711.2320291594
 21
16993.92207358624
 31
0.0
  0
LINE
  5
303CE
330
2
100
AcDbEntity
  8
0
100
AcDbLine
 10
12748.02733539949
 20
17029.7933154103
 30
0.0
 11
12750.43596381944
 21
17032.20203530635
 31
0.0
  0
LINE
  5
303CF
330
2
100
AcDbEntity
  8
0
100
AcDbLine
 10
12708.82320471949
 20
16990.58932194423
 30
0.0
 11
12711.2320291594
 21
16992.99807451034
 31
0.0
  0
LINE
  5
303D0
330
2
100
AcDbEntity
  8
0
100
AcDbLine
 10
12748.95130833942
 20
17029.7933154103
 30
0.0
 11
12750.43596381944
 21
17031.27792515234
 31
0.0
  0
LINE
  5
303D1
330
2
100
AcDbEntity
  8
0
100
AcDbLine
 10
12709.74730833939
 20
16990.58932194423
 30
0.0
 11
12711.2320291594
 21
16992.07397089029
 31
0.0
  0
LINE
  5
303D2
330
2
100
AcDbEntity
  8
0
100
AcDbLine
 10
12749.87541195948
 20
17029.7933154103
 30
0.0
 11
12750.43596381944
 21
17030.35382153228
 31
0.0
  0
LINE
  5
303D3
330
2
100
AcDbEntity
  8
0
100
AcDbLine
 10
12710.67147729944
 20
16990.58932194423
 30
0.0
 11
12711.2320291594
 21
16991.14986073628
 31
0.0
  0
LINE
  5
303D4
330
2
100
AcDbEntity
  8
0
100
AcDbLine
 10
12872.22939430849
 20
17065.80716299834
 30
0.0
 11
12873.17599930855
 21
17066.75369374842
 31
0.0
  0
LINE
  5
303D5
330
2
100
AcDbEntity
  8
0
100
AcDbLine
 10
12872.22939430849
 20
17064.64034899846
 30
0.0
 11
12874.3428793085
 21
17066.75369374842
 31
0.0
  0
LINE
  5
303D6
330
2
100
AcDbEntity
  8
0
100
AcDbLine
 10
12872.22939430849
 20
17063.47363399846
 30
0.0
 11
12875.50951180845
 21
17066.75369374842
 31
0.0
  0
LINE
  5
303D7
330
2
100
AcDbEntity
  8
0
100
AcDbLine
 10
12872.22939430849
 20
17062.30683649841
 30
0.0
 11
12876.67639180854
 21
17066.75369374842
 31
0.0
  0
LINE
  5
303D8
330
2
100
AcDbEntity
  8
0
100
AcDbLine
 10
12872.22939430849
 20
17061.14003074845
 30
0.0
 11
12877.8430243085
 21
17066.75369374842
 31
0.0
  0
LINE
  5
303D9
330
2
100
AcDbEntity
  8
0
100
AcDbLine
 10
12872.22939430849
 20
17059.97333224843
 30
0.0
 11
12879.00982180854
 21
17066.75369374842
 31
0.0
  0
LINE
  5
303DA
330
2
100
AcDbEntity
  8
0
100
AcDbLine
 10
12872.22939430849
 20
17058.80653474839
 30
0.0
 11
12880.17653680854
 21
17066.75369374842
 31
0.0
  0
LINE
  5
303DB
330
2
100
AcDbEntity
  8
0
100
AcDbLine
 10
12873.09333430847
 20
17058.50369374845
 30
0.0
 11
12880.47947680851
 21
17065.88985274846
 31
0.0
  0
LINE
  5
303DC
330
2
100
AcDbEntity
  8
0
100
AcDbLine
 10
12874.26021430842
 20
17058.50369374845
 30
0.0
 11
12880.47947680851
 21
17064.72304699835
 31
0.0
  0
LINE
  5
303DD
330
2
100
AcDbEntity
  8
0
100
AcDbLine
 10
12875.42684680851
 20
17058.50369374845
 30
0.0
 11
12880.47947680851
 21
17063.55634024842
 31
0.0
  0
LINE
  5
303DE
330
2
100
AcDbEntity
  8
0
100
AcDbLine
 10
12876.59372680846
 20
17058.50369374845
 30
0.0
 11
12880.47947680851
 21
17062.38953449845
 31
0.0
  0
LINE
  5
303DF
330
2
100
AcDbEntity
  8
0
100
AcDbLine
 10
12877.76035930841
 20
17058.50369374845
 30
0.0
 11
12880.47947680851
 21
17061.22283599843
 31
0.0
  0
LINE
  5
303E0
330
2
100
AcDbEntity
  8
0
100
AcDbLine
 10
12878.92715680846
 20
17058.50369374845
 30
0.0
 11
12880.47947680851
 21
17060.05603849839
 31
0.0
  0
LINE
  5
303E1
330
2
100
AcDbEntity
  8
0
100
AcDbLine
 10
12880.09387180846
 20
17058.50369374845
 30
0.0
 11
12880.47947680851
 21
17058.88931524833
 31
0.0
  0
LINE
  5
303E2
330
2
100
AcDbEntity
  8
0
100
AcDbLine
 10
12711.2320291594
 20
16990.58932194423
 30
0.0
 11
12711.2320291594
 21
17108.20133501236
 31
0.0
  0
LINE
  5
303E3
330
2
100
AcDbEntity
  8
0
100
AcDbLine
 10
12763.50402915949
 20
17108.20133501236
 30
0.0
 11
12763.50402915949
 21
17147.40534154635
 31
0.0
  0
LINE
  5
303E4
330
2
100
AcDbEntity
  8
0
100
AcDbLine
 10
12711.2320291594
 20
17108.20133501236
 30
0.0
 11
12763.50402915949
 21
17108.20133501236
 31
0.0
  0
LINE
  5
303E5
330
2
100
AcDbEntity
  8
0
100
AcDbLine
 10
12750.43596381944
 20
17068.99732194428
 30
0.0
 11
12672.02802915952
 21
17068.99732194428
 31
0.0
  0
LINE
  5
303E6
330
2
100
AcDbEntity
  8
0
100
AcDbLine
 10
13121.80839430843
 20
17027.76802174844
 30
0.0
 11
13164.55725430842
 21
17027.76802174844
 31
0.0
  0
LINE
  5
303E7
330
2
100
AcDbEntity
  8
0
100
AcDbLine
 10
13121.80839430843
 20
17062.62869374836
 30
0.0
 11
13164.55725430842
 21
17062.62869374836
 31
0.0
  0
LINE
  5
303E8
330
2
100
AcDbEntity
  8
0
100
AcDbLine
 10
13121.80839430843
 20
17097.69119374842
 30
0.0
 11
13121.80839430843
 21
17027.76802174844
 31
0.0
  0
LINE
  5
303E9
330
2
100
AcDbEntity
  8
0
100
AcDbLine
 10
13121.80839430843
 20
17097.69119374842
 30
0.0
 11
13164.55725430842
 21
17097.69119374842
 31
0.0
  0
LINE
  5
303EA
330
2
100
AcDbEntity
  8
0
100
AcDbLine
 10
13048.88334430853
 20
17097.69119374842
 30
0.0
 11
13048.88334430853
 21
17027.56619374845
 31
0.0
  0
LINE
  5
303EB
330
2
100
AcDbEntity
  8
0
100
AcDbLine
 10
13008.55000180844
 20
17027.56619374845
 30
0.0
 11
13040.43509680847
 21
17097.69119374842
 31
0.0
  0
LINE
  5
303EC
330
2
100
AcDbEntity
  8
0
100
AcDbLine
 10
12976.66474180846
 20
17097.69119374842
 30
0.0
 11
13008.55000180844
 21
17027.56619374845
 31
0.0
  0
LINE
  5
303ED
330
2
100
AcDbEntity
  8
0
100
AcDbLine
 10
12943.62109930848
 20
17062.62869374836
 30
0.0
 11
12972.53974180854
 21
17027.56619374845
 31
0.0
  0
LINE
  5
303EE
330
2
100
AcDbEntity
  8
0
100
AcDbLine
 10
12914.70278680845
 20
17097.69119374842
 30
0.0
 11
12914.70278680845
 21
17027.56619374845
 31
0.0
  0
LINE
  5
303EF
330
2
100
AcDbEntity
  8
0
100
AcDbLine
 10
12914.70278680845
 20
17062.62869374836
 30
0.0
 11
12955.00857430841
 21
17062.62869374836
 31
0.0
  0
LINE
  5
303F0
330
2
100
AcDbEntity
  8
0
100
AcDbLine
 10
12914.70278680845
 20
17097.69119374842
 30
0.0
 11
12955.00857430841
 21
17097.69119374842
 31
0.0
  0
LINE
  5
303F1
330
2
100
AcDbEntity
  8
0
100
AcDbLine
 10
12880.47947680851
 20
17058.50369374845
 30
0.0
 11
12872.22939430849
 21
17058.50369374845
 31
0.0
  0
LINE
  5
303F2
330
2
100
AcDbEntity
  8
0
100
AcDbLine
 10
12880.47947680851
 20
17066.75369374842
 30
0.0
 11
12880.47947680851
 21
17058.50369374845
 31
0.0
  0
LINE
  5
303F3
330
2
100
AcDbEntity
  8
0
100
AcDbLine
 10
12872.22939430849
 20
17066.75369374842
 30
0.0
 11
12880.47947680851
 21
17066.75369374842
 31
0.0
  0
LINE
  5
303F4
330
2
100
AcDbEntity
  8
0
100
AcDbLine
 10
12872.22939430849
 20
17058.50369374845
 30
0.0
 11
12872.22939430849
 21
17066.75369374842
 31
0.0
  0
LINE
  5
303F5
330
2
100
AcDbEntity
  8
0
100
AcDbLine
 10
12790.23379930845
 20
17062.62869374836
 30
0.0
 11
12838.00591930845
 21
17062.62869374836
 31
0.0
  0
LINE
  5
303F6
330
2
100
AcDbEntity
  8
0
100
AcDbLine
 10
12790.23379930845
 20
17062.62869374836
 30
0.0
 11
12838.00591930845
 21
17062.62869374836
 31
0.0
  0
LINE
  5
303F7
330
2
100
AcDbEntity
  8
0
100
AcDbLine
 10
12790.23379930845
 20
17097.69119374842
 30
0.0
 11
12790.23379930845
 21
17027.56619374845
 31
0.0
  0
LINE
  5
303F8
330
2
100
AcDbEntity
  8
0
100
AcDbLine
 10
12790.23379930845
 20
17097.69119374842
 30
0.0
 11
12838.00591930845
 21
17097.69119374842
 31
0.0
  0
LINE
  5
303F9
330
2
100
AcDbEntity
  8
0
100
AcDbLine
 10
12672.02802915952
 20
17095.13332847835
 30
0.0
 11
12672.02802915952
 21
17068.99732194428
 31
0.0
  0
LINE
  5
303FA
330
2
100
AcDbEntity
  8
0
100
AcDbLine
 10
12763.50402915949
 20
17147.40534154635
 30
0.0
 11
12724.30002915946
 21
17147.40534154635
 31
0.0
  0
LINE
  5
303FB
330
2
100
AcDbEntity
  8
0
100
AcDbLine
 10
12750.43596381944
 20
17029.7933154103
 30
0.0
 11
12750.43596381944
 21
17068.99732194428
 31
0.0
  0
LINE
  5
303FC
330
2
100
AcDbEntity
  8
0
100
AcDbLine
 10
12672.02802915952
 20
17029.7933154103
 30
0.0
 11
12750.43596381944
 21
17029.7933154103
 31
0.0
  0
LINE
  5
303FD
330
2
100
AcDbEntity
  8
0
100
AcDbLine
 10
12672.02802915952
 20
16990.58932194423
 30
0.0
 11
12672.02802915952
 21
17029.7933154103
 31
0.0
  0
LINE
  5
303FE
330
2
100
AcDbEntity
  8
0
100
AcDbLine
 10
12672.02802915952
 20
16990.58932194423
 30
0.0
 11
12711.2320291594
 21
16990.58932194423
 31
0.0
  0
LINE
  5
303FF
330
2
100
AcDbEntity
  8
0
100
AcDbLine
 10
13616.87134469259
 20
17019.70985016795
 30
0.0
 11
13616.87134469259
 21
16979.70984191788
 31
0.0
  0
LINE
  5
30400
330
2
100
AcDbEntity
  8
0
100
AcDbLine
 10
13058.12150969254
 20
17159.70984191788
 30
0.0
 11
13058.12150969254
 21
17259.70984191788
 31
0.0
  0
LINE
  5
30401
330
2
100
AcDbEntity
  8
0
100
AcDbLine
 10
13016.87159219258
 20
17159.70984191788
 30
0.0
 11
13016.87159219258
 21
17259.70984191788
 31
0.0
  0
LINE
  5
30402
330
2
100
AcDbEntity
  8
0
100
AcDbLine
 10
12880.3715096926
 20
17159.70984191788
 30
0.0
 11
12880.3715096926
 21
17209.70984191789
 31
0.0
  0
LINE
  5
30403
330
2
100
AcDbEntity
  8
0
100
AcDbLine
 10
13196.87134469259
 20
17019.70985016795
 30
0.0
 11
13866.87134469259
 21
17019.70985016795
 31
0.0
  0
LINE
  5
30404
330
2
100
AcDbEntity
  8
0
100
AcDbLine
 10
13196.87134469259
 20
17259.70984191788
 30
0.0
 11
13196.87134469259
 21
16979.70986666793
 31
0.0
  0
LINE
  5
30405
330
2
100
AcDbEntity
  8
0
100
AcDbLine
 10
12636.87134469259
 20
17259.70984191788
 30
0.0
 11
13866.87134469259
 21
17259.70984191788
 31
0.0
  0
LINE
  5
30406
330
2
100
AcDbEntity
  8
0
100
AcDbLine
 10
13866.87134469259
 20
16979.70984191788
 30
0.0
 11
13866.87134469259
 21
19749.7096519179
 31
0.0
  0
LINE
  5
30407
330
2
100
AcDbEntity
  8
0
100
AcDbLine
 10
10016.87133469266
 20
19749.7096519179
 30
0.0
 11
10016.87133469266
 21
16979.70984191788
 31
0.0
  0
CIRCLE
  5
310CC
330
2
100
AcDbEntity
  8
0
100
AcDbCircle
 10
11077.27651843264
 20
18172.18768752209
 30
0.0
 40
2.5
  0
CIRCLE
  5
310CD
330
2
100
AcDbEntity
  8
0
100
AcDbCircle
 10
11083.27651843264
 20
18172.18768752209
 30
0.0
 40
2.5
  0
CIRCLE
  5
310CE
330
2
100
AcDbEntity
  8
0
100
AcDbCircle
 10
11095.27651843264
 20
18172.18768752209
 30
0.0
 40
2.5
  0
CIRCLE
  5
310CF
330
2
100
AcDbEntity
  8
0
100
AcDbCircle
 10
11089.27651843264
 20
18172.18768752209
 30
0.0
 40
2.5
  0
CIRCLE
  5
310D0
330
2
100
AcDbEntity
  8
0
100
AcDbCircle
 10
11098.27651843264
 20
18166.18768752208
 30
0.0
 40
2.5
  0
CIRCLE
  5
310D1
330
2
100
AcDbEntity
  8
0
100
AcDbCircle
 10
11092.27651843264
 20
18166.18768752208
 30
0.0
 40
2.5
  0
CIRCLE
  5
310D2
330
2
100
AcDbEntity
  8
0
100
AcDbCircle
 10
11086.27651843264
 20
18166.18768752208
 30
0.0
 40
2.5
  0
CIRCLE
  5
310D3
330
2
100
AcDbEntity
  8
0
100
AcDbCircle
 10
11080.27651843264
 20
18166.18768752208
 30
0.0
 40
2.5
  0
CIRCLE
  5
310D4
330
2
100
AcDbEntity
  8
0
100
AcDbCircle
 10
11095.27651843264
 20
18160.18768752209
 30
0.0
 40
2.5
  0
CIRCLE
  5
310D5
330
2
100
AcDbEntity
  8
0
100
AcDbCircle
 10
11089.27651843264
 20
18160.18768752209
 30
0.0
 40
2.5
  0
CIRCLE
  5
310D6
330
2
100
AcDbEntity
  8
0
100
AcDbCircle
 10
11083.27651843264
 20
18160.18768752209
 30
0.0
 40
2.5
  0
CIRCLE
  5
310D7
330
2
100
AcDbEntity
  8
0
100
AcDbCircle
 10
11077.27651843264
 20
18160.18768752209
 30
0.0
 40
2.5
  0
CIRCLE
  5
310D8
330
2
100
AcDbEntity
  8
0
100
AcDbCircle
 10
11074.27651843264
 20
18166.18768752208
 30
0.0
 40
2.5
  0
CIRCLE
  5
310D9
330
2
100
AcDbEntity
  8
0
100
AcDbCircle
 10
11053.27651843264
 20
18172.18768752209
 30
0.0
 40
2.5
  0
CIRCLE
  5
310DA
330
2
100
AcDbEntity
  8
0
100
AcDbCircle
 10
11059.27651843264
 20
18172.18768752209
 30
0.0
 40
2.5
  0
CIRCLE
  5
310DB
330
2
100
AcDbEntity
  8
0
100
AcDbCircle
 10
11065.27651843264
 20
18172.18768752209
 30
0.0
 40
2.5
  0
CIRCLE
  5
310DC
330
2
100
AcDbEntity
  8
0
100
AcDbCircle
 10
11068.27651843264
 20
18166.18768752208
 30
0.0
 40
2.5
  0
CIRCLE
  5
310DD
330
2
100
AcDbEntity
  8
0
100
AcDbCircle
 10
11062.27651843264
 20
18166.18768752208
 30
0.0
 40
2.5
  0
CIRCLE
  5
310DE
330
2
100
AcDbEntity
  8
0
100
AcDbCircle
 10
11056.27651843264
 20
18166.18768752208
 30
0.0
 40
2.5
  0
CIRCLE
  5
310DF
330
2
100
AcDbEntity
  8
0
100
AcDbCircle
 10
11065.27651843264
 20
18160.18768752209
 30
0.0
 40
2.5
  0
CIRCLE
  5
310E0
330
2
100
AcDbEntity
  8
0
100
AcDbCircle
 10
11059.27651843264
 20
18160.18768752209
 30
0.0
 40
2.5
  0
CIRCLE
  5
310E1
330
2
100
AcDbEntity
  8
0
100
AcDbCircle
 10
11053.27651843264
 20
18160.18768752209
 30
0.0
 40
2.5
  0
CIRCLE
  5
310E2
330
2
100
AcDbEntity
  8
0
100
AcDbCircle
 10
11071.27651843264
 20
18172.18768752209
 30
0.0
 40
2.5
  0
CIRCLE
  5
310E3
330
2
100
AcDbEntity
  8
0
100
AcDbCircle
 10
11071.27651843264
 20
18160.18768752209
 30
0.0
 40
2.5
  0
CIRCLE
  5
310E4
330
2
100
AcDbEntity
  8
0
100
AcDbCircle
 10
11092.27651843264
 20
18154.18768752209
 30
0.0
 40
2.5
  0
CIRCLE
  5
310E5
330
2
100
AcDbEntity
  8
0
100
AcDbCircle
 10
11086.27651843264
 20
18154.18768752209
 30
0.0
 40
2.5
  0
CIRCLE
  5
310E6
330
2
100
AcDbEntity
  8
0
100
AcDbCircle
 10
11080.27651843264
 20
18154.18768752209
 30
0.0
 40
2.5
  0
CIRCLE
  5
310E7
330
2
100
AcDbEntity
  8
0
100
AcDbCircle
 10
11098.27651843264
 20
18154.18768752209
 30
0.0
 40
2.5
  0
CIRCLE
  5
310E8
330
2
100
AcDbEntity
  8
0
100
AcDbCircle
 10
11095.27651843264
 20
18136.18768752209
 30
0.0
 40
2.5
  0
CIRCLE
  5
310E9
330
2
100
AcDbEntity
  8
0
100
AcDbCircle
 10
11095.27651843264
 20
18148.18768752209
 30
0.0
 40
2.5
  0
CIRCLE
  5
310EA
330
2
100
AcDbEntity
  8
0
100
AcDbCircle
 10
11077.27651843264
 20
18136.18768752209
 30
0.0
 40
2.5
  0
CIRCLE
  5
310EB
330
2
100
AcDbEntity
  8
0
100
AcDbCircle
 10
11083.27651843264
 20
18136.18768752209
 30
0.0
 40
2.5
  0
CIRCLE
  5
310EC
330
2
100
AcDbEntity
  8
0
100
AcDbCircle
 10
11089.27651843264
 20
18136.18768752209
 30
0.0
 40
2.5
  0
CIRCLE
  5
310ED
330
2
100
AcDbEntity
  8
0
100
AcDbCircle
 10
11080.27651843264
 20
18130.18768752209
 30
0.0
 40
2.5
  0
CIRCLE
  5
310EE
330
2
100
AcDbEntity
  8
0
100
AcDbCircle
 10
11086.27651843264
 20
18130.18768752209
 30
0.0
 40
2.5
  0
CIRCLE
  5
310EF
330
2
100
AcDbEntity
  8
0
100
AcDbCircle
 10
11092.27651843264
 20
18130.18768752209
 30
0.0
 40
2.5
  0
CIRCLE
  5
310F0
330
2
100
AcDbEntity
  8
0
100
AcDbCircle
 10
11092.27651843264
 20
18142.18768752209
 30
0.0
 40
2.5
  0
CIRCLE
  5
310F1
330
2
100
AcDbEntity
  8
0
100
AcDbCircle
 10
11086.27651843264
 20
18142.18768752209
 30
0.0
 40
2.5
  0
CIRCLE
  5
310F2
330
2
100
AcDbEntity
  8
0
100
AcDbCircle
 10
11080.27651843264
 20
18142.18768752209
 30
0.0
 40
2.5
  0
CIRCLE
  5
310F3
330
2
100
AcDbEntity
  8
0
100
AcDbCircle
 10
11089.27651843264
 20
18148.18768752209
 30
0.0
 40
2.5
  0
CIRCLE
  5
310F4
330
2
100
AcDbEntity
  8
0
100
AcDbCircle
 10
11083.27651843264
 20
18148.18768752209
 30
0.0
 40
2.5
  0
CIRCLE
  5
310F5
330
2
100
AcDbEntity
  8
0
100
AcDbCircle
 10
11077.27651843264
 20
18148.18768752209
 30
0.0
 40
2.5
  0
CIRCLE
  5
310F6
330
2
100
AcDbEntity
  8
0
100
AcDbCircle
 10
11098.27651843264
 20
18130.18768752209
 30
0.0
 40
2.5
  0
CIRCLE
  5
310F7
330
2
100
AcDbEntity
  8
0
100
AcDbCircle
 10
11098.27651843264
 20
18142.18768752209
 30
0.0
 40
2.5
  0
CIRCLE
  5
310F8
330
2
100
AcDbEntity
  8
0
100
AcDbCircle
 10
11074.27651843264
 20
18154.18768752209
 30
0.0
 40
2.5
  0
CIRCLE
  5
310F9
330
2
100
AcDbEntity
  8
0
100
AcDbCircle
 10
11068.27651843264
 20
18154.18768752209
 30
0.0
 40
2.5
  0
CIRCLE
  5
310FA
330
2
100
AcDbEntity
  8
0
100
AcDbCircle
 10
11062.27651843264
 20
18154.18768752209
 30
0.0
 40
2.5
  0
CIRCLE
  5
310FB
330
2
100
AcDbEntity
  8
0
100
AcDbCircle
 10
11056.27651843264
 20
18154.18768752209
 30
0.0
 40
2.5
  0
CIRCLE
  5
310FC
330
2
100
AcDbEntity
  8
0
100
AcDbCircle
 10
11074.27651843264
 20
18142.18768752209
 30
0.0
 40
2.5
  0
CIRCLE
  5
310FD
330
2
100
AcDbEntity
  8
0
100
AcDbCircle
 10
11053.27651843264
 20
18136.18768752209
 30
0.0
 40
2.5
  0
CIRCLE
  5
310FE
330
2
100
AcDbEntity
  8
0
100
AcDbCircle
 10
11059.27651843264
 20
18136.18768752209
 30
0.0
 40
2.5
  0
CIRCLE
  5
310FF
330
2
100
AcDbEntity
  8
0
100
AcDbCircle
 10
11065.27651843264
 20
18136.18768752209
 30
0.0
 40
2.5
  0
CIRCLE
  5
31100
330
2
100
AcDbEntity
  8
0
100
AcDbCircle
 10
11068.27651843264
 20
18142.18768752209
 30
0.0
 40
2.5
  0
CIRCLE
  5
31101
330
2
100
AcDbEntity
  8
0
100
AcDbCircle
 10
11062.27651843264
 20
18142.18768752209
 30
0.0
 40
2.5
  0
CIRCLE
  5
31102
330
2
100
AcDbEntity
  8
0
100
AcDbCircle
 10
11056.27651843264
 20
18142.18768752209
 30
0.0
 40
2.5
  0
CIRCLE
  5
31103
330
2
100
AcDbEntity
  8
0
100
AcDbCircle
 10
11065.27651843264
 20
18148.18768752209
 30
0.0
 40
2.5
  0
CIRCLE
  5
31104
330
2
100
AcDbEntity
  8
0
100
AcDbCircle
 10
11059.27651843264
 20
18148.18768752209
 30
0.0
 40
2.5
  0
CIRCLE
  5
31105
330
2
100
AcDbEntity
  8
0
100
AcDbCircle
 10
11053.27651843264
 20
18148.18768752209
 30
0.0
 40
2.5
  0
CIRCLE
  5
31106
330
2
100
AcDbEntity
  8
0
100
AcDbCircle
 10
11071.27651843264
 20
18136.18768752209
 30
0.0
 40
2.5
  0
CIRCLE
  5
31107
330
2
100
AcDbEntity
  8
0
100
AcDbCircle
 10
11071.27651843264
 20
18148.18768752209
 30
0.0
 40
2.5
  0
CIRCLE
  5
31108
330
2
100
AcDbEntity
  8
0
100
AcDbCircle
 10
11056.27651843264
 20
18130.18768752209
 30
0.0
 40
2.5
  0
CIRCLE
  5
31109
330
2
100
AcDbEntity
  8
0
100
AcDbCircle
 10
11062.27651843264
 20
18130.18768752209
 30
0.0
 40
2.5
  0
CIRCLE
  5
3110A
330
2
100
AcDbEntity
  8
0
100
AcDbCircle
 10
11068.27651843264
 20
18130.18768752209
 30
0.0
 40
2.5
  0
CIRCLE
  5
3110B
330
2
100
AcDbEntity
  8
0
100
AcDbCircle
 10
11074.27651843264
 20
18130.18768752209
 30
0.0
 40
2.5
  0
LINE
  5
31154
330
2
100
AcDbEntity
  8
0
100
AcDbLine
 10
11154.35752751529
 20
18068.63722280102
 30
0.0
 11
10884.35752751529
 21
18068.63722280102
 31
0.0
  0
LINE
  5
31155
330
2
100
AcDbEntity
  8
0
100
AcDbLine
 10
11154.35752751529
 20
18368.63722280102
 30
0.0
 11
10884.35752751529
 21
18368.63722280103
 31
0.0
  0
LINE
  5
31156
330
2
100
AcDbEntity
  8
0
100
AcDbLine
 10
10884.35752751529
 20
18068.63722280102
 30
0.0
 11
10884.35752751529
 21
18368.63722280103
 31
0.0
  0
LINE
  5
31157
330
2
100
AcDbEntity
  8
0
100
AcDbLine
 10
11154.35752751529
 20
18068.63722280102
 30
0.0
 11
11154.35752751529
 21
18368.63722280102
 31
0.0
  0
LINE
  5
31197
330
2
100
AcDbEntity
  8
0
 48
15.0
100
AcDbLine
 10
11970.76598254882
 20
18507.63722280102
 30
0.0
 11
11997.76598254882
 21
18507.63722280102
 31
0.0
  0
LINE
  5
311AA
330
2
100
AcDbEntity
  8
0
 48
2.0
100
AcDbLine
 10
10771.35752751529
 20
18507.63722280102
 30
0.0
 11
11267.35752751529
 21
18507.63722280102
 31
0.0
  0
LINE
  5
311AD
330
2
100
AcDbEntity
  8
0
 48
15.0
100
AcDbLine
 10
11970.76598254882
 20
17929.63722280102
 30
0.0
 11
11997.76598254882
 21
17929.63722280102
 31
0.0
  0
LINE
  5
311C3
330
2
100
AcDbEntity
  8
0
 48
15.0
100
AcDbLine
 10
10771.35752751529
 20
17929.63722280102
 30
0.0
 11
11267.35752751529
 21
17929.63722280102
 31
0.0
  0
LINE
  5
311C4
330
2
100
AcDbEntity
  8
0
 48
15.0
100
AcDbLine
 10
11268.35752751529
 20
18506.63722280102
 30
0.0
 11
11268.35752751529
 21
17930.63722280102
 31
0.0
  0
LINE
  5
311C5
330
2
100
AcDbEntity
  8
0
 48
15.0
100
AcDbLine
 10
10770.35752751529
 20
17930.63722280102
 30
0.0
 11
10770.35752751529
 21
18506.63722280103
 31
0.0
  0
LINE
  5
311C6
330
2
100
AcDbEntity
  8
0
 48
15.0
100
AcDbLine
 10
11970.76598254882
 20
18507.63722280102
 30
0.0
 11
11970.76598254882
 21
17929.63722280102
 31
0.0
  0
LINE
  5
311C7
330
2
100
AcDbEntity
  8
0
 48
15.0
100
AcDbLine
 10
11997.76598254882
 20
18507.63722280102
 30
0.0
 11
11997.76598254882
 21
17929.63722280102
 31
0.0
  0
LINE
  5
314FB
330
2
100
AcDbEntity
  8
0
100
AcDbLine
 10
11268.35752751529
 20
18755.19170571321
 30
0.0
 11
11268.35752751529
 21
18782.19170571321
 31
0.0
  0
LINE
  5
314FC
330
2
100
AcDbEntity
  8
0
100
AcDbLine
 10
11268.35752751529
 20
18782.19170571321
 30
0.0
 11
10770.35752751529
 21
18782.1917057132
 31
0.0
  0
LINE
  5
314FD
330
2
100
AcDbEntity
  8
0
100
AcDbLine
 10
10770.35752751529
 20
18755.19170571321
 30
0.0
 11
10770.35752751529
 21
18782.1917057132
 31
0.0
  0
LINE
  5
314FE
330
2
100
AcDbEntity
  8
0
100
AcDbLine
 10
10771.35752751529
 20
18756.69170571321
 30
0.0
 11
10771.35752751529
 21
18782.1917057132
 31
0.0
  0
LINE
  5
314FF
330
2
100
AcDbEntity
  8
0
100
AcDbLine
 10
11267.35752751529
 20
18756.69170571321
 30
0.0
 11
11267.35752751529
 21
18782.1917057132
 31
0.0
  0
LINE
  5
31500
330
2
100
AcDbEntity
  8
0
100
AcDbLine
 10
11268.35752751529
 20
18755.19170571321
 30
0.0
 11
10770.35752751529
 21
18755.19170571321
 31
0.0
  0
LINE
  5
31F86
330
2
100
AcDbEntity
  8
0
 48
15.0
100
AcDbLine
 10
11972.26598254882
 20
18506.63722280102
 30
0.0
 11
11997.76598254882
 21
18506.63722280102
 31
0.0
  0
LINE
  5
31F87
330
2
100
AcDbEntity
  8
0
 48
15.0
100
AcDbLine
 10
11972.26598254882
 20
17930.63722280102
 30
0.0
 11
11997.76598254882
 21
17930.63722280102
 31
0.0
  0
LINE
  5
31F89
330
2
100
AcDbEntity
  8
0
100
AcDbLine
 10
10770.35752751529
 20
18506.63722280103
 30
0.0
 11
10771.35752751529
 21
18506.63722280103
 31
0.0
  0
LINE
  5
31F8B
330
2
100
AcDbEntity
  8
0
100
AcDbLine
 10
10771.35752751529
 20
18507.63722280102
 30
0.0
 11
10771.35752751529
 21
18506.63722280103
 31
0.0
  0
LINE
  5
31F8D
330
2
100
AcDbEntity
  8
0
100
AcDbLine
 10
11267.35752751529
 20
18507.63722280102
 30
0.0
 11
11267.35752751529
 21
18506.63722280102
 31
0.0
  0
LINE
  5
31F8E
330
2
100
AcDbEntity
  8
0
100
AcDbLine
 10
11268.35752751529
 20
18506.63722280102
 30
0.0
 11
11267.35752751529
 21
18506.63722280102
 31
0.0
  0
LINE
  5
31F90
330
2
100
AcDbEntity
  8
0
100
AcDbLine
 10
11267.35752751529
 20
17929.63722280102
 30
0.0
 11
11267.35752751529
 21
17930.63722280102
 31
0.0
  0
LINE
  5
31F91
330
2
100
AcDbEntity
  8
0
100
AcDbLine
 10
11268.35752751529
 20
17930.63722280102
 30
0.0
 11
11267.35752751529
 21
17930.63722280102
 31
0.0
  0
LINE
  5
31F93
330
2
100
AcDbEntity
  8
0
100
AcDbLine
 10
10770.35752751529
 20
17930.63722280102
 30
0.0
 11
10771.35752751529
 21
17930.63722280102
 31
0.0
  0
LINE
  5
31F94
330
2
100
AcDbEntity
  8
0
100
AcDbLine
 10
10771.35752751529
 20
17929.63722280102
 30
0.0
 11
10771.35752751529
 21
17930.63722280102
 31
0.0
  0
LINE
  5
323FD
330
2
100
AcDbEntity
  8
0
100
AcDbLine
 10
10741.35752751529
 20
18507.63722280102
 30
0.0
 11
10478.47615702588
 21
18507.63722280102
 31
0.0
  0
LINE
  5
323FE
330
2
100
AcDbEntity
  8
0
100
AcDbLine
 10
10741.35752751529
 20
17929.63722280102
 30
0.0
 11
10478.47615702588
 21
17929.63722280102
 31
0.0
  0
LINE
  5
323FF
330
2
100
AcDbEntity
  8
0
100
AcDbLine
 10
10498.47615702588
 20
18497.63722280102
 30
0.0
 11
10498.47615702588
 21
17939.63722280102
 31
0.0
  0
TEXT
  5
32403
330
2
100
AcDbEntity
  8
0
100
AcDbText
 10
11323.09948605747
 20
18006.03740154215
 30
0.0
 40
27.0
  1
パンチング窓
 41
0.8
100
AcDbText
  0
TEXT
  5
32404
330
2
100
AcDbEntity
  8
0
100
AcDbText
 10
11323.09948605747
 20
17961.03208658152
 30
0.0
 40
27.0
  1
開口率62.9
 41
0.8
100
AcDbText
  0
TEXT
  5
32405
330
2
100
AcDbEntity
  8
0
100
AcDbText
 10
11452.77496359614
 20
17961.03208658152
 30
0.0
 40
27.0
  1
%
 41
0.8
100
AcDbText
  0
LINE
  5
32408
330
2
100
AcDbEntity
  8
0
100
AcDbLine
 10
12027.76598254882
 20
18507.63722280102
 30
0.0
 11
12246.92074592056
 21
18507.63722280102
 31
0.0
  0
LINE
  5
32409
330
2
100
AcDbEntity
  8
0
100
AcDbLine
 10
12027.76598254882
 20
17929.63722280102
 30
0.0
 11
12246.92074592056
 21
17929.63722280102
 31
0.0
  0
LINE
  5
3240A
330
2
100
AcDbEntity
  8
0
100
AcDbLine
 10
12226.92074592056
 20
18497.63722280102
 30
0.0
 11
12226.92074592056
 21
17939.63722280102
 31
0.0
  0
LINE
  5
3240E
330
2
100
AcDbEntity
  8
0
100
AcDbLine
 10
10770.35752751529
 20
18812.1917057132
 30
0.0
 11
10770.35752751529
 21
18871.69132029453
 31
0.0
  0
LINE
  5
3240F
330
2
100
AcDbEntity
  8
0
100
AcDbLine
 10
11268.35752751529
 20
18812.19170571321
 30
0.0
 11
11268.35752751529
 21
18871.69132029453
 31
0.0
  0
LINE
  5
32410
330
2
100
AcDbEntity
  8
0
100
AcDbLine
 10
10780.35752751529
 20
18851.69132029453
 30
0.0
 11
11258.35752751529
 21
18851.69132029453
 31
0.0
  0
LINE
  5
32414
330
2
100
AcDbEntity
  8
0
100
AcDbLine
 10
11298.35752751529
 20
18782.19170571321
 30
0.0
 11
11462.3331181645
 21
18782.19170571321
 31
0.0
  0
LINE
  5
32415
330
2
100
AcDbEntity
  8
0
100
AcDbLine
 10
11298.35752751529
 20
18755.19170571321
 30
0.0
 11
11462.3331181645
 21
18755.19170571321
 31
0.0
  0
LINE
  5
32416
330
2
100
AcDbEntity
  8
0
100
AcDbLine
 10
11442.3331181645
 20
18792.19170571321
 30
0.0
 11
11442.3331181645
 21
18802.19170571321
 31
0.0
  0
LINE
  5
32417
330
2
100
AcDbEntity
  8
0
100
AcDbLine
 10
11442.3331181645
 20
18745.19170571321
 30
0.0
 11
11442.3331181645
 21
18690.8832017762
 31
0.0
  0
LINE
  5
32418
330
2
100
AcDbEntity
  8
0
100
AcDbLine
 10
11442.3331181645
 20
18782.19170571321
 30
0.0
 11
11442.3331181645
 21
18755.19170571321
 31
0.0
  0
LINE
  5
3241C
330
2
100
AcDbEntity
  8
0
100
AcDbLine
 10
10914.35752751529
 20
18068.63722280102
 30
0.0
 11
10981.17099999514
 21
18068.63722280102
 31
0.0
  0
LINE
  5
3241D
330
2
100
AcDbEntity
  8
0
100
AcDbLine
 10
10914.35752751529
 20
17929.63722280102
 30
0.0
 11
10981.17099999514
 21
17929.63722280102
 31
0.0
  0
LINE
  5
3241E
330
2
100
AcDbEntity
  8
0
100
AcDbLine
 10
10961.17099999514
 20
18058.63722280102
 30
0.0
 11
10961.17099999514
 21
17939.63722280102
 31
0.0
  0
LINE
  5
32422
330
2
100
AcDbEntity
  8
0
100
AcDbLine
 10
10914.35752751529
 20
18368.63722280103
 30
0.0
 11
10981.17099999514
 21
18368.63722280103
 31
0.0
  0
LINE
  5
32423
330
2
100
AcDbEntity
  8
0
100
AcDbLine
 10
10914.35752751529
 20
18507.63722280102
 30
0.0
 11
10981.17099999514
 21
18507.63722280102
 31
0.0
  0
LINE
  5
32424
330
2
100
AcDbEntity
  8
0
100
AcDbLine
 10
10961.17099999514
 20
18378.63722280102
 30
0.0
 11
10961.17099999514
 21
18497.63722280102
 31
0.0
  0
LINE
  5
32428
330
2
100
AcDbEntity
  8
0
100
AcDbLine
 10
10914.35752751529
 20
18368.63722280103
 30
0.0
 11
10981.17099999514
 21
18368.63722280103
 31
0.0
  0
LINE
  5
32429
330
2
100
AcDbEntity
  8
0
100
AcDbLine
 10
10914.35752751529
 20
18068.63722280102
 30
0.0
 11
10981.17099999514
 21
18068.63722280102
 31
0.0
  0
LINE
  5
3242A
330
2
100
AcDbEntity
  8
0
100
AcDbLine
 10
10961.17099999514
 20
18358.63722280102
 30
0.0
 11
10961.17099999514
 21
18078.63722280102
 31
0.0
  0
LINE
  5
3242E
330
2
100
AcDbEntity
  8
0
100
AcDbLine
 10
11154.35752751529
 20
18338.63722280102
 30
0.0
 11
11154.35752751529
 21
18161.25424066301
 31
0.0
  0
LINE
  5
3242F
330
2
100
AcDbEntity
  8
0
100
AcDbLine
 10
11268.35752751529
 20
18331.63722280102
 30
0.0
 11
11268.35752751529
 21
18161.25424066301
 31
0.0
  0
LINE
  5
32430
330
2
100
AcDbEntity
  8
0
100
AcDbLine
 10
11164.35752751529
 20
18181.25424066301
 30
0.0
 11
11258.35752751529
 21
18181.25424066301
 31
0.0
  0
LINE
  5
32434
330
2
100
AcDbEntity
  8
0
100
AcDbLine
 10
10884.35752751529
 20
18338.63722280102
 30
0.0
 11
10884.35752751529
 21
18161.25424066301
 31
0.0
  0
LINE
  5
32435
330
2
100
AcDbEntity
  8
0
100
AcDbLine
 10
10770.35752751529
 20
18331.63722280102
 30
0.0
 11
10770.35752751529
 21
18161.25424066301
 31
0.0
  0
LINE
  5
32436
330
2
100
AcDbEntity
  8
0
100
AcDbLine
 10
10874.35752751529
 20
18181.25424066301
 30
0.0
 11
10780.35752751529
 21
18181.25424066301
 31
0.0
  0
LINE
  5
3243A
330
2
100
AcDbEntity
  8
0
100
AcDbLine
 10
10884.35752751529
 20
18338.63722280102
 30
0.0
 11
10884.35752751529
 21
18161.25424066301
 31
0.0
  0
LINE
  5
3243B
330
2
100
AcDbEntity
  8
0
100
AcDbLine
 10
11154.35752751529
 20
18338.63722280102
 30
0.0
 11
11154.35752751529
 21
18161.25424066301
 31
0.0
  0
LINE
  5
3243C
330
2
100
AcDbEntity
  8
0
100
AcDbLine
 10
10894.35752751529
 20
18181.25424066301
 30
0.0
 11
11144.35752751529
 21
18181.25424066301
 31
0.0
  0
LINE
  5
32440
330
2
100
AcDbEntity
  8
0
100
AcDbLine
 10
10770.35752751529
 20
17899.63722280102
 30
0.0
 11
10770.35752751529
 21
17768.7975093342
 31
0.0
  0
LINE
  5
32441
330
2
100
AcDbEntity
  8
0
100
AcDbLine
 10
11268.35752751529
 20
17899.63722280102
 30
0.0
 11
11268.35752751529
 21
17768.7975093342
 31
0.0
  0
LINE
  5
32442
330
2
100
AcDbEntity
  8
0
100
AcDbLine
 10
10780.35752751529
 20
17788.7975093342
 30
0.0
 11
11258.35752751529
 21
17788.7975093342
 31
0.0
  0
TEXT
  5
32446
330
2
100
AcDbEntity
  8
0
100
AcDbText
 10
13029.41901669121
 20
17235.43007551251
 30
0.0
 40
21.0
  1
投
 41
0.8
100
AcDbText
  0
TEXT
  5
32447
330
2
100
AcDbEntity
  8
0
100
AcDbText
 10
13029.41901669121
 20
17200.43007551251
 30
0.0
 40
21.0
  1
影
 41
0.8
100
AcDbText
  0
TEXT
  5
32448
330
2
100
AcDbEntity
  8
0
100
AcDbText
 10
13029.41901669121
 20
17165.43007551251
 30
0.0
 40
21.0
  1
法
 41
0.8
100
AcDbText
  0
TEXT
  5
32449
330
2
100
AcDbEntity
  8
0
100
AcDbText
 10
12647.57138594261
 20
17171.20984191789
 30
0.0
 40
27.0
  1
製図
 41
0.8
100
AcDbText
  0
TEXT
  5
3244A
330
2
100
AcDbEntity
  8
0
100
AcDbText
 10
12647.57138594261
 20
17221.20984191789
 30
0.0
 40
27.0
  1
尺度
 41
0.8
100
AcDbText
  0
TEXT
  5
3244B
330
2
100
AcDbEntity
  8
0
100
AcDbText
 10
12737.04415904517
 20
17221.20984191789
 30
0.0
 40
27.0
  1
１／１０　　（Ａ３）
 41
0.8
100
AcDbText
  0
TEXT
  5
3244C
330
2
100
AcDbEntity
  8
0
100
AcDbText
 10
13260.33974207672
 20
17206.20984604292
 30
0.0
 40
27.0
  1
(SHSI)側面パネル（固定式）（パンチング窓）
 41
0.8
100
AcDbText
  0
TEXT
  5
3244D
330
2
100
AcDbEntity
  8
0
100
AcDbText
 10
13350.43134469259
 20
17126.20985016795
 30
0.0
 40
27.0
  1
H700×D700用　FRC-SP077B
 41
0.8
100
AcDbText
  0
TEXT
  5
3244E
330
2
100
AcDbEntity
  8
0
100
AcDbText
 10
13494.61134469259
 20
17046.20985016795
 30
0.0
 40
27.0
  1
外観図
 41
0.8
100
AcDbText
  0
TEXT
  5
3244F
330
2
100
AcDbEntity
  8
0
100
AcDbText
 10
10995.55978874595
 20
17798.7975093342
 30
0.0
 40
27.0
  1
498
 41
0.8
100
AcDbText
  0
LINE
  5
32450
330
2
100
AcDbEntity
  8
0
100
AcDbLine
 10
11258.35752751529
 20
17790.46417600087
 30
0.0
 11
11268.35752751529
 21
17788.7975093342
 31
0.0
  0
LINE
  5
32451
330
2
100
AcDbEntity
  8
0
100
AcDbLine
 10
11268.35752751529
 20
17788.7975093342
 30
0.0
 11
11258.35752751529
 21
17787.13084266753
 31
0.0
  0
LINE
  5
32452
330
2
100
AcDbEntity
  8
0
100
AcDbLine
 10
11268.35752751529
 20
17788.7975093342
 30
0.0
 11
11258.35752751529
 21
17788.7975093342
 31
0.0
  0
LINE
  5
32453
330
2
100
AcDbEntity
  8
0
100
AcDbLine
 10
10780.35752751529
 20
17787.13084266753
 30
0.0
 11
10770.35752751529
 21
17788.7975093342
 31
0.0
  0
LINE
  5
32454
330
2
100
AcDbEntity
  8
0
100
AcDbLine
 10
10770.35752751529
 20
17788.7975093342
 30
0.0
 11
10780.35752751529
 21
17790.46417600087
 31
0.0
  0
LINE
  5
32455
330
2
100
AcDbEntity
  8
0
100
AcDbLine
 10
10770.35752751529
 20
17788.7975093342
 30
0.0
 11
10780.35752751529
 21
17788.7975093342
 31
0.0
  0
TEXT
  5
32456
330
2
100
AcDbEntity
  8
0
100
AcDbText
 10
10996.94327554679
 20
18191.25689814333
 30
0.0
 40
27.0
  1
270
 41
0.8
100
AcDbText
  0
LINE
  5
32457
330
2
100
AcDbEntity
  8
0
100
AcDbLine
 10
11144.35752751529
 20
18182.92090732968
 30
0.0
 11
11154.35752751529
 21
18181.25424066301
 31
0.0
  0
LINE
  5
32458
330
2
100
AcDbEntity
  8
0
100
AcDbLine
 10
11154.35752751529
 20
18181.25424066301
 30
0.0
 11
11144.35752751529
 21
18179.58757399635
 31
0.0
  0
LINE
  5
32459
330
2
100
AcDbEntity
  8
0
100
AcDbLine
 10
11154.35752751529
 20
18181.25424066301
 30
0.0
 11
11144.35752751529
 21
18181.25424066301
 31
0.0
  0
LINE
  5
3245A
330
2
100
AcDbEntity
  8
0
100
AcDbLine
 10
10894.35752751529
 20
18179.58757399635
 30
0.0
 11
10884.35752751529
 21
18181.25424066301
 31
0.0
  0
LINE
  5
3245B
330
2
100
AcDbEntity
  8
0
100
AcDbLine
 10
10884.35752751529
 20
18181.25424066301
 30
0.0
 11
10894.35752751529
 21
18182.92090732968
 31
0.0
  0
LINE
  5
3245C
330
2
100
AcDbEntity
  8
0
100
AcDbLine
 10
10884.35752751529
 20
18181.25424066301
 30
0.0
 11
10894.35752751529
 21
18181.25424066301
 31
0.0
  0
TEXT
  5
3245D
330
2
100
AcDbEntity
  8
0
100
AcDbText
 10
10807.91752751529
 20
18191.25424066301
 30
0.0
 40
27.0
  1
114
 41
0.8
100
AcDbText
  0
LINE
  5
3245E
330
2
100
AcDbEntity
  8
0
100
AcDbLine
 10
10780.35752751529
 20
18179.58757399635
 30
0.0
 11
10770.35752751529
 21
18181.25424066301
 31
0.0
  0
LINE
  5
3245F
330
2
100
AcDbEntity
  8
0
100
AcDbLine
 10
10770.35752751529
 20
18181.25424066301
 30
0.0
 11
10780.35752751529
 21
18182.92090732968
 31
0.0
  0
LINE
  5
32460
330
2
100
AcDbEntity
  8
0
100
AcDbLine
 10
10770.35752751529
 20
18181.25424066301
 30
0.0
 11
10780.35752751529
 21
18181.25424066301
 31
0.0
  0
LINE
  5
32461
330
2
100
AcDbEntity
  8
0
100
AcDbLine
 10
10874.35752751529
 20
18182.92090732968
 30
0.0
 11
10884.35752751529
 21
18181.25424066301
 31
0.0
  0
LINE
  5
32462
330
2
100
AcDbEntity
  8
0
100
AcDbLine
 10
10884.35752751529
 20
18181.25424066301
 30
0.0
 11
10874.35752751529
 21
18179.58757399635
 31
0.0
  0
LINE
  5
32463
330
2
100
AcDbEntity
  8
0
100
AcDbLine
 10
10884.35752751529
 20
18181.25424066301
 30
0.0
 11
10874.35752751529
 21
18181.25424066301
 31
0.0
  0
TEXT
  5
32464
330
2
100
AcDbEntity
  8
0
100
AcDbText
 10
11191.91752751529
 20
18191.25424066301
 30
0.0
 40
27.0
  1
114
 41
0.8
100
AcDbText
  0
LINE
  5
32465
330
2
100
AcDbEntity
  8
0
100
AcDbLine
 10
11258.35752751529
 20
18182.92090732968
 30
0.0
 11
11268.35752751529
 21
18181.25424066301
 31
0.0
  0
LINE
  5
32466
330
2
100
AcDbEntity
  8
0
100
AcDbLine
 10
11268.35752751529
 20
18181.25424066301
 30
0.0
 11
11258.35752751529
 21
18179.58757399635
 31
0.0
  0
LINE
  5
32467
330
2
100
AcDbEntity
  8
0
100
AcDbLine
 10
11268.35752751529
 20
18181.25424066301
 30
0.0
 11
11258.35752751529
 21
18181.25424066301
 31
0.0
  0
LINE
  5
32468
330
2
100
AcDbEntity
  8
0
100
AcDbLine
 10
11164.35752751529
 20
18179.58757399635
 30
0.0
 11
11154.35752751529
 21
18181.25424066301
 31
0.0
  0
LINE
  5
32469
330
2
100
AcDbEntity
  8
0
100
AcDbLine
 10
11154.35752751529
 20
18181.25424066301
 30
0.0
 11
11164.35752751529
 21
18182.92090732968
 31
0.0
  0
LINE
  5
3246A
330
2
100
AcDbEntity
  8
0
100
AcDbLine
 10
11154.35752751529
 20
18181.25424066301
 30
0.0
 11
11164.35752751529
 21
18181.25424066301
 31
0.0
  0
TEXT
  5
3246B
330
2
100
AcDbEntity
  8
0
100
AcDbText
 10
10951.17099999514
 20
18195.94871886402
 30
0.0
 40
27.0
  1
300
 50
90.0
 41
0.8
100
AcDbText
  0
LINE
  5
3246C
330
2
100
AcDbEntity
  8
0
100
AcDbLine
 10
10962.8376666618
 20
18078.63722280102
 30
0.0
 11
10961.17099999514
 21
18068.63722280102
 31
0.0
  0
LINE
  5
3246D
330
2
100
AcDbEntity
  8
0
100
AcDbLine
 10
10961.17099999514
 20
18068.63722280102
 30
0.0
 11
10959.50433332847
 21
18078.63722280102
 31
0.0
  0
LINE
  5
3246E
330
2
100
AcDbEntity
  8
0
100
AcDbLine
 10
10961.17099999514
 20
18068.63722280102
 30
0.0
 11
10961.17099999514
 21
18078.63722280102
 31
0.0
  0
LINE
  5
3246F
330
2
100
AcDbEntity
  8
0
100
AcDbLine
 10
10959.50433332847
 20
18358.63722280102
 30
0.0
 11
10961.17099999514
 21
18368.63722280103
 31
0.0
  0
LINE
  5
32470
330
2
100
AcDbEntity
  8
0
100
AcDbLine
 10
10961.17099999514
 20
18368.63722280103
 30
0.0
 11
10962.8376666618
 21
18358.63722280102
 31
0.0
  0
LINE
  5
32471
330
2
100
AcDbEntity
  8
0
100
AcDbLine
 10
10961.17099999514
 20
18368.63722280103
 30
0.0
 11
10961.17099999514
 21
18358.63722280102
 31
0.0
  0
TEXT
  5
32472
330
2
100
AcDbEntity
  8
0
100
AcDbText
 10
10951.17099999514
 20
18416.8440132278
 30
0.0
 40
27.0
  1
139
 50
90.0
 41
0.8
100
AcDbText
  0
LINE
  5
32473
330
2
100
AcDbEntity
  8
0
100
AcDbLine
 10
10959.50433332847
 20
18497.63722280102
 30
0.0
 11
10961.17099999514
 21
18507.63722280102
 31
0.0
  0
LINE
  5
32474
330
2
100
AcDbEntity
  8
0
100
AcDbLine
 10
10961.17099999514
 20
18507.63722280102
 30
0.0
 11
10962.8376666618
 21
18497.63722280102
 31
0.0
  0
LINE
  5
32475
330
2
100
AcDbEntity
  8
0
100
AcDbLine
 10
10961.17099999514
 20
18507.63722280102
 30
0.0
 11
10961.17099999514
 21
18497.63722280102
 31
0.0
  0
LINE
  5
32476
330
2
100
AcDbEntity
  8
0
100
AcDbLine
 10
10962.8376666618
 20
18378.63722280102
 30
0.0
 11
10961.17099999514
 21
18368.63722280103
 31
0.0
  0
LINE
  5
32477
330
2
100
AcDbEntity
  8
0
100
AcDbLine
 10
10961.17099999514
 20
18368.63722280103
 30
0.0
 11
10959.50433332847
 21
18378.63722280102
 31
0.0
  0
LINE
  5
32478
330
2
100
AcDbEntity
  8
0
100
AcDbLine
 10
10961.17099999514
 20
18368.63722280103
 30
0.0
 11
10961.17099999514
 21
18378.63722280102
 31
0.0
  0
TEXT
  5
32479
330
2
100
AcDbEntity
  8
0
100
AcDbText
 10
10951.17099999514
 20
17977.84401322781
 30
0.0
 40
27.0
  1
139
 50
90.0
 41
0.8
100
AcDbText
  0
LINE
  5
3247A
330
2
100
AcDbEntity
  8
0
100
AcDbLine
 10
10962.8376666618
 20
17939.63722280102
 30
0.0
 11
10961.17099999514
 21
17929.63722280102
 31
0.0
  0
LINE
  5
3247B
330
2
100
AcDbEntity
  8
0
100
AcDbLine
 10
10961.17099999514
 20
17929.63722280102
 30
0.0
 11
10959.50433332847
 21
17939.63722280102
 31
0.0
  0
LINE
  5
3247C
330
2
100
AcDbEntity
  8
0
100
AcDbLine
 10
10961.17099999514
 20
17929.63722280102
 30
0.0
 11
10961.17099999514
 21
17939.63722280102
 31
0.0
  0
LINE
  5
3247D
330
2
100
AcDbEntity
  8
0
100
AcDbLine
 10
10959.50433332847
 20
18058.63722280102
 30
0.0
 11
10961.17099999514
 21
18068.63722280102
 31
0.0
  0
LINE
  5
3247E
330
2
100
AcDbEntity
  8
0
100
AcDbLine
 10
10961.17099999514
 20
18068.63722280102
 30
0.0
 11
10962.8376666618
 21
18058.63722280102
 31
0.0
  0
LINE
  5
3247F
330
2
100
AcDbEntity
  8
0
100
AcDbLine
 10
10961.17099999514
 20
18068.63722280102
 30
0.0
 11
10961.17099999514
 21
18058.63722280102
 31
0.0
  0
TEXT
  5
32480
330
2
100
AcDbEntity
  8
0
100
AcDbText
 10
11432.33046068419
 20
18698.19170571321
 30
0.0
 40
27.0
  1
27
 50
90.0
 41
0.8
100
AcDbText
  0
LINE
  5
32481
330
2
100
AcDbEntity
  8
0
100
AcDbLine
 10
11440.66645149784
 20
18745.19170571321
 30
0.0
 11
11442.3331181645
 21
18755.19170571321
 31
0.0
  0
LINE
  5
32482
330
2
100
AcDbEntity
  8
0
100
AcDbLine
 10
11442.3331181645
 20
18755.19170571321
 30
0.0
 11
11443.99978483117
 21
18745.19170571321
 31
0.0
  0
LINE
  5
32483
330
2
100
AcDbEntity
  8
0
100
AcDbLine
 10
11442.3331181645
 20
18755.19170571321
 30
0.0
 11
11442.3331181645
 21
18745.19170571321
 31
0.0
  0
LINE
  5
32484
330
2
100
AcDbEntity
  8
0
100
AcDbLine
 10
11443.99978483117
 20
18792.19170571321
 30
0.0
 11
11442.3331181645
 21
18782.19170571321
 31
0.0
  0
LINE
  5
32485
330
2
100
AcDbEntity
  8
0
100
AcDbLine
 10
11442.3331181645
 20
18782.19170571321
 30
0.0
 11
11440.66645149784
 21
18792.19170571321
 31
0.0
  0
LINE
  5
32486
330
2
100
AcDbEntity
  8
0
100
AcDbLine
 10
11442.3331181645
 20
18782.19170571321
 30
0.0
 11
11442.3331181645
 21
18792.19170571321
 31
0.0
  0
TEXT
  5
32487
330
2
100
AcDbEntity
  8
0
100
AcDbText
 10
10995.55978874595
 20
18861.69132029453
 30
0.0
 40
27.0
  1
498
 41
0.8
100
AcDbText
  0
LINE
  5
32488
330
2
100
AcDbEntity
  8
0
100
AcDbLine
 10
11258.35752751529
 20
18853.35798696119
 30
0.0
 11
11268.35752751529
 21
18851.69132029453
 31
0.0
  0
LINE
  5
32489
330
2
100
AcDbEntity
  8
0
100
AcDbLine
 10
11268.35752751529
 20
18851.69132029453
 30
0.0
 11
11258.35752751529
 21
18850.02465362786
 31
0.0
  0
LINE
  5
3248A
330
2
100
AcDbEntity
  8
0
100
AcDbLine
 10
11268.35752751529
 20
18851.69132029453
 30
0.0
 11
11258.35752751529
 21
18851.69132029453
 31
0.0
  0
LINE
  5
3248B
330
2
100
AcDbEntity
  8
0
100
AcDbLine
 10
10780.35752751529
 20
18850.02465362786
 30
0.0
 11
10770.35752751529
 21
18851.69132029453
 31
0.0
  0
LINE
  5
3248C
330
2
100
AcDbEntity
  8
0
100
AcDbLine
 10
10770.35752751529
 20
18851.69132029453
 30
0.0
 11
10780.35752751529
 21
18853.35798696119
 31
0.0
  0
LINE
  5
3248D
330
2
100
AcDbEntity
  8
0
100
AcDbLine
 10
10770.35752751529
 20
18851.69132029453
 30
0.0
 11
10780.35752751529
 21
18851.69132029453
 31
0.0
  0
TEXT
  5
3248E
330
2
100
AcDbEntity
  8
0
100
AcDbText
 10
12216.92074592056
 20
18195.95722280102
 30
0.0
 40
27.0
  1
578
 50
90.0
 41
0.8
100
AcDbText
  0
LINE
  5
3248F
330
2
100
AcDbEntity
  8
0
100
AcDbLine
 10
12228.58741258723
 20
17939.63722280102
 30
0.0
 11
12226.92074592056
 21
17929.63722280102
 31
0.0
  0
LINE
  5
32490
330
2
100
AcDbEntity
  8
0
100
AcDbLine
 10
12226.92074592056
 20
17929.63722280102
 30
0.0
 11
12225.2540792539
 21
17939.63722280102
 31
0.0
  0
LINE
  5
32491
330
2
100
AcDbEntity
  8
0
100
AcDbLine
 10
12226.92074592056
 20
17929.63722280102
 30
0.0
 11
12226.92074592056
 21
17939.63722280102
 31
0.0
  0
LINE
  5
32492
330
2
100
AcDbEntity
  8
0
100
AcDbLine
 10
12225.2540792539
 20
18497.63722280102
 30
0.0
 11
12226.92074592056
 21
18507.63722280102
 31
0.0
  0
LINE
  5
32493
330
2
100
AcDbEntity
  8
0
100
AcDbLine
 10
12226.92074592056
 20
18507.63722280102
 30
0.0
 11
12228.58741258723
 21
18497.63722280102
 31
0.0
  0
LINE
  5
32494
330
2
100
AcDbEntity
  8
0
100
AcDbLine
 10
12226.92074592056
 20
18507.63722280102
 30
0.0
 11
12226.92074592056
 21
18497.63722280102
 31
0.0
  0
LINE
  5
32495
330
2
100
AcDbEntity
  8
0
100
AcDbLine
 10
11086.98962432627
 20
18141.03483686757
 30
0.0
 11
11292.63657029649
 21
18019.53740154215
 31
0.0
1001
ACAD
1000
DSTYLE
1002
{
1070
   147
1040
1.0
1070
    77
1070
     0
1002
}
  0
LINE
  5
32496
330
2
100
AcDbEntity
  8
0
100
AcDbLine
 10
11292.63657029649
 20
18019.53740154215
 30
0.0
 11
11313.09948605747
 21
18019.53740154215
 31
0.0
1001
ACAD
1000
DSTYLE
1002
{
1070
   147
1040
1.0
1070
    77
1070
     0
1002
}
  0
LINE
  5
32497
330
2
100
AcDbEntity
  8
0
100
AcDbLine
 10
11086.14185186003
 20
18139.59989449128
 30
0.0
 11
11078.37997006853
 21
18146.12147166498
 31
0.0
  0
LINE
  5
32498
330
2
100
AcDbEntity
  8
0
100
AcDbLine
 10
11078.37997006853
 20
18146.12147166498
 30
0.0
 11
11087.8373967925
 21
18142.46977924386
 31
0.0
  0
LINE
  5
32499
330
2
100
AcDbEntity
  8
0
100
AcDbLine
 10
11078.37997006853
 20
18146.12147166498
 30
0.0
 11
11086.98962432627
 21
18141.03483686757
 31
0.0
  0
TEXT
  5
3249A
330
2
100
AcDbEntity
  8
0
100
AcDbText
 10
10488.47615702588
 20
18195.95722280102
 30
0.0
 40
27.0
  1
578
 50
90.0
 41
0.8
100
AcDbText
  0
LINE
  5
3249B
330
2
100
AcDbEntity
  8
0
100
AcDbLine
 10
10500.14282369255
 20
17939.63722280102
 30
0.0
 11
10498.47615702588
 21
17929.63722280102
 31
0.0
  0
LINE
  5
3249C
330
2
100
AcDbEntity
  8
0
100
AcDbLine
 10
10498.47615702588
 20
17929.63722280102
 30
0.0
 11
10496.80949035921
 21
17939.63722280102
 31
0.0
  0
LINE
  5
3249D
330
2
100
AcDbEntity
  8
0
100
AcDbLine
 10
10498.47615702588
 20
17929.63722280102
 30
0.0
 11
10498.47615702588
 21
17939.63722280102
 31
0.0
  0
LINE
  5
3249E
330
2
100
AcDbEntity
  8
0
100
AcDbLine
 10
10496.80949035921
 20
18497.63722280102
 30
0.0
 11
10498.47615702588
 21
18507.63722280102
 31
0.0
  0
LINE
  5
3249F
330
2
100
AcDbEntity
  8
0
100
AcDbLine
 10
10498.47615702588
 20
18507.63722280102
 30
0.0
 11
10500.14282369255
 21
18497.63722280102
 31
0.0
  0
LINE
  5
324A0
330
2
100
AcDbEntity
  8
0
100
AcDbLine
 10
10498.47615702588
 20
18507.63722280102
 30
0.0
 11
10498.47615702588
 21
18497.63722280102
 31
0.0
  0
ENDSEC
  0
SECTION
  2
OBJECTS
  0
DICTIONARY
  5
7
330
0
100
AcDbDictionary
281
     1
  3
ACAD_CIP_PREVIOUS_PRODUCT_INFO
350
2DB34
  3
ACAD_COLOR
350
C6
  3
ACAD_DETAILVIEWSTYLE
350
2DB2F
  3
ACAD_GROUP
350
20
  3
ACAD_LAYOUT
350
B
  3
ACAD_MATERIAL
350
C5
  3
ACAD_MLEADERSTYLE
350
2DB2B
  3
ACAD_MLINESTYLE
350
21
  3
ACAD_PLOTSETTINGS
350
22
  3
ACAD_PLOTSTYLENAME
350
6
  3
ACAD_SCALELIST
350
2DB19
  3
ACAD_SECTIONVIEWSTYLE
350
2DB2D
  3
ACAD_TABLESTYLE
350
2DB17
  3
ACAD_VISUALSTYLE
350
2DAFE
  3
AcadDim
350
2AA61
  3
ACDB_RECOMPOSE_DATA
350
2E528
  3
ACDBHEADERROUNDTRIPXREC
350
324AB
  3
AcDbVariableDictionary
350
443
  3
AcDsDecomposeData
350
2E52E
  3
DWGPROPS
350
324AA
  0
DICTIONARY
  5
2E535
330
19
100
AcDbDictionary
280
     1
281
     1
  3
ACAD_XREC_ROUNDTRIP
360
2E536
  0
DICTIONARY
  5
988
330
10
100
AcDbDictionary
280
     1
281
     1
  3
ACAD_LAYERFILTERS
360
2534
  3
ACAD_LAYERSTATES
360
989
  0
DICTIONARY
  5
2E50F
330
4
100
AcDbDictionary
280
     1
281
     1
  3
ADSK_XREC_LAYER_RECONCILED
360
2E510
  0
DICTIONARY
  5
2DD28
330
2
100
AcDbDictionary
280
     1
281
     1
  3
ACAD_SORTENTS
360
2DD29
  0
XRECORD
  5
2DB34
102
{ACAD_REACTORS
330
7
102
}
330
7
100
AcDbXrecord
280
     1
300
ACD
300
2014
300
ACD_F_S
  0
DICTIONARY
  5
C6
102
{ACAD_REACTORS
330
7
102
}
330
7
100
AcDbDictionary
281
     1
  0
DICTIONARY
  5
2DB2F
102
{ACAD_REACTORS
330
7
102
}
330
7
100
AcDbDictionary
281
     1
  3
Metric50
350
2DB30
  0
DICTIONARY
  5
20
102
{ACAD_REACTORS
330
7
102
}
330
7
100
AcDbDictionary
281
     1
  3
*A1
350
28621
  3
*A10
350
2B958
  3
*A100
350
2CCC4
  3
*A101
350
2CCC5
  3
*A102
350
2B07B
  3
*A103
350
2CCD5
  3
*A104
350
2CCC6
  3
*A105
350
28637
  3
*A106
350
28446
  3
*A107
350
2E135
  3
*A108
350
2B075
  3
*A109
350
2B95B
  3
*A11
350
2CCD0
  3
*A110
350
2CCC7
  3
*A111
350
2844E
  3
*A112
350
28454
  3
*A113
350
2E131
  3
*A114
350
30C2F
  3
*A115
350
30BE2
  3
*A116
350
286B0
  3
*A117
350
28462
  3
*A118
350
13F82
  3
*A119
350
2846B
  3
*A12
350
2CCDF
  3
*A120
350
2F287
  3
*A121
350
28639
  3
*A122
350
2B077
  3
*A123
350
2CCD9
  3
*A124
350
2B956
  3
*A125
350
2E133
  3
*A126
350
2DB5C
  3
*A127
350
2CCC8
  3
*A128
350
2DB5D
  3
*A129
350
2DB76
  3
*A13
350
30BF4
  3
*A130
350
2CCCE
  3
*A131
350
2F288
  3
*A132
350
2DB77
  3
*A133
350
2DBC8
  3
*A134
350
2DDCE
  3
*A135
350
2CCD6
  3
*A136
350
2B078
  3
*A137
350
2DBC9
  3
*A138
350
2DBCA
  3
*A139
350
2CCC9
  3
*A14
350
2DC1B
  3
*A140
350
2B95A
  3
*A141
350
2A4E1
  3
*A142
350
2B95C
  3
*A143
350
2B957
  3
*A144
350
2DBE3
  3
*A145
350
2DBE4
  3
*A146
350
2CCCF
  3
*A147
350
30BE3
  3
*A148
350
2B071
  3
*A149
350
2DBE5
  3
*A15
350
2E138
  3
*A150
350
28636
  3
*A151
350
2CCCA
  3
*A152
350
2DBFE
  3
*A16
350
2E139
  3
*A17
350
2B070
  3
*A18
350
2B959
  3
*A19
350
2B079
  3
*A2
350
2CCDB
  3
*A20
350
284F3
  3
*A21
350
284F4
  3
*A22
350
2852E
  3
*A23
350
28620
  3
*A24
350
2E134
  3
*A25
350
2CCCB
  3
*A26
350
30C1E
  3
*A27
350
2CCD1
  3
*A28
350
2DDCF
  3
*A29
350
2CCDA
  3
*A3
350
2DBFF
  3
*A30
350
2B072
  3
*A31
350
2ED2F
  3
*A32
350
2DD33
  3
*A33
350
2ED30
  3
*A34
350
2EF61
  3
*A35
350
2B07C
  3
*A36
350
30BE4
  3
*A37
350
2CCCC
  3
*A38
350
2EF64
  3
*A39
350
2EF72
  3
*A4
350
2DC00
  3
*A40
350
2CCD4
  3
*A41
350
2DD3C
  3
*A42
350
2CCD2
  3
*A43
350
2EF9C
  3
*A44
350
2EF9D
  3
*A45
350
30BC2
  3
*A46
350
2F289
  3
*A47
350
2CCDD
  3
*A48
350
2F036
  3
*A49
350
13F81
  3
*A5
350
2CCD7
  3
*A50
350
2869C
  3
*A51
350
2F037
  3
*A52
350
2F038
  3
*A53
350
30BE6
  3
*A54
350
28635
  3
*A55
350
2B073
  3
*A56
350
2F283
  3
*A57
350
2B95D
  3
*A58
350
286CC
  3
*A59
350
30BC3
  3
*A6
350
30C3B
  3
*A60
350
2F284
  3
*A61
350
2B95E
  3
*A62
350
2B95F
  3
*A63
350
2CCDC
  3
*A64
350
2CCD3
  3
*A65
350
2DEF1
  3
*A66
350
2B960
  3
*A67
350
2B961
  3
*A68
350
2CCB9
  3
*A69
350
2CCBA
  3
*A7
350
2DC19
  3
*A70
350
2B076
  3
*A71
350
30BC4
  3
*A72
350
2B955
  3
*A73
350
30C1F
  3
*A74
350
2CCDE
  3
*A75
350
2DEEF
  3
*A76
350
2F285
  3
*A77
350
2CCBB
  3
*A78
350
2CCBC
  3
*A79
350
2F28A
  3
*A8
350
2DC1A
  3
*A80
350
13FCB
  3
*A81
350
2CCBD
  3
*A82
350
2CCD8
  3
*A83
350
2B07A
  3
*A84
350
30BE1
  3
*A85
350
2CCBE
  3
*A86
350
2CCBF
  3
*A87
350
2F286
  3
*A88
350
30C30
  3
*A89
350
2CCC0
  3
*A9
350
2E137
  3
*A90
350
30C2E
  3
*A91
350
2CCC1
  3
*A92
350
2CCC2
  3
*A93
350
2B074
  3
*A94
350
2CCCD
  3
*A95
350
2E132
  3
*A96
350
2CCC3
  3
*A97
350
2E136
  3
*A98
350
2DDCD
  3
*A99
350
2DEF0
  0
DICTIONARY
  5
B
102
{ACAD_REACTORS
330
7
102
}
330
7
100
AcDbDictionary
281
     1
  3
Model
350
A
  3
レイアウト1
350
2F49C
  0
DICTIONARY
  5
C5
102
{ACAD_REACTORS
330
7
102
}
330
7
100
AcDbDictionary
281
     1
  3
ByBlock
350
2DAF6
  3
ByLayer
350
2DAEE
  3
Global
350
AF90
  0
DICTIONARY
  5
2DB2B
102
{ACAD_REACTORS
330
7
102
}
330
7
100
AcDbDictionary
281
     1
  3
Standard
350
2DB2C
  0
DICTIONARY
  5
21
102
{ACAD_REACTORS
330
7
102
}
330
7
100
AcDbDictionary
281
     1
  3
Standard
350
23
  0
DICTIONARY
  5
22
102
{ACAD_REACTORS
330
7
102
}
330
7
100
AcDbDictionary
281
     1
  0
ACDBDICTIONARYWDFLT
  5
6
102
{ACAD_REACTORS
330
7
102
}
330
7
100
AcDbDictionary
281
     1
  3
Normal
350
5
100
AcDbDictionaryWithDefault
340
5
  0
DICTIONARY
  5
2DB19
102
{ACAD_REACTORS
330
7
102
}
330
7
100
AcDbDictionary
281
     1
  3
A0
350
2DB1A
  3
A1
350
2DB1B
  3
A2
350
2DB1C
  3
A3
350
2DB1D
  3
A4
350
2DB1E
  3
A5
350
2DB1F
  3
A6
350
2DB20
  3
A7
350
2DB21
  3
A8
350
2DB22
  3
A9
350
2DB23
  3
B0
350
2DB24
  3
B1
350
2DB25
  3
B2
350
2DB26
  3
B3
350
2DB27
  3
B4
350
2DB28
  3
B5
350
2DB29
  3
B6
350
2DB2A
  0
DICTIONARY
  5
2DB2D
102
{ACAD_REACTORS
330
7
102
}
330
7
100
AcDbDictionary
281
     1
  3
Metric50
350
2DB2E
  0
DICTIONARY
  5
2DB17
102
{ACAD_REACTORS
330
7
102
}
330
7
100
AcDbDictionary
281
     1
  3
Standard
350
2DB18
  0
DICTIONARY
  5
2DAFE
102
{ACAD_REACTORS
330
7
102
}
330
7
100
AcDbDictionary
281
     1
  3
2dWireframe
350
2DB04
  3
Basic
350
2DB03
  3
Brighten
350
2DB0A
  3
ColorChange
350
2DB0E
  3
Conceptual
350
2DB07
  3
Dim
350
2DB09
  3
EdgeColorOff
350
2DB16
  3
Facepattern
350
2DB0D
  3
Flat
350
2DAFF
  3
FlatWithEdges
350
2DB00
  3
Gouraud
350
2DB01
  3
GouraudWithEdges
350
2DB02
  3
Hidden
350
2DB06
  3
JitterOff
350
2DB14
  3
Linepattern
350
2DB0C
  3
OverhangOff
350
2DB15
  3
Realistic
350
2DB08
  3
Shaded
350
2DB13
  3
Shaded with edges
350
2DB12
  3
Shades of Gray
350
2DB0F
  3
Sketchy
350
2DB10
  3
Thicken
350
2DB0B
  3
Wireframe
350
2DB05
  3
X-Ray
350
2DB11
  0
XRECORD
  5
2AA61
102
{ACAD_REACTORS
330
7
102
}
330
7
100
AcDbXrecord
280
     1
 90
   990106
  3

 60
     0
 61
     0
 62
     1
 63
     3
 64
     0
 65
     0
 66
     0
 67
     3
 68
     1
 69
     0
 70
     0
 71
     0
 72
     0
 40
0.0
170
     0
340
0
  0
XRECORD
  5
2E528
102
{ACAD_REACTORS
330
7
102
}
330
7
100
AcDbXrecord
280
     1
 90
        1
330
2DB18
  0
DICTIONARY
  5
324AB
102
{ACAD_REACTORS
330
7
102
}
330
7
100
AcDbDictionary
281
     1
  3
COLORDICT
350
324AD
  3
MATERIALDICT
350
324AC
  0
DICTIONARY
  5
443
102
{ACAD_REACTORS
330
7
102
}
330
7
100
AcDbDictionary
281
     1
  3
CANNOSCALE
350
2E5ED
  3
CMLEADERSTYLE
350
2E5EA
  3
CTABLESTYLE
350
2E5E9
  3
CVIEWDETAILSTYLE
350
2E5EB
  3
CVIEWSECTIONSTYLE
350
2E5EC
  3
DIMASSOC
350
444
  3
PROJECTNAME
350
445
  3
XCLIPFRAME
350
2E5EE
  0
DICTIONARY
  5
2E52E
102
{ACAD_REACTORS
330
7
102
}
330
7
100
AcDbDictionary
281
     1
  3
AcDsRecords
350
2E530
  3
AcDsSchemas
350
2E52F
1001
ACAD
1070
     2
  0
XRECORD
  5
324AA
102
{ACAD_REACTORS
330
7
102
}
330
7
100
AcDbXrecord
280
     1
  1
DWGPROPS COOKIE
  2

  3

  4

  6

  7

  8
SASAGAWA
  9

300
=
301
=
302
=
303
=
304
=
305
=
306
=
307
=
308
=
309
=
 40
0.5855691782407408
 41
2456364.451757442
 42
2458457.559078125
  1

 90
        0
  0
XRECORD
  5
2E536
102
{ACAD_REACTORS
330
2E535
102
}
330
2E535
100
AcDbXrecord
280
     1
102
VTR_0.000_0.000_1.000_1.000_VISUALSTYLE
340
2DB04
102
VTR_0.000_0.000_1.000_1.000_GRIDDISPLAY
 70
     3
102
VTR_0.000_0.000_1.000_1.000_GRIDMAJOR
 70
     5
102
VTR_0.000_0.000_1.000_1.000_DEFAULTLIGHTING
280
     1
102
VTR_0.000_0.000_1.000_1.000_DEFAULTLIGHTINGTYPE
 70
     1
102
VTR_0.000_0.000_1.000_1.000_BRIGHTNESS
141
0.0
102
VTR_0.000_0.000_1.000_1.000_CONTRAST
142
0.0
  0
DICTIONARY
  5
2534
102
{ACAD_REACTORS
330
988
102
}
330
988
100
AcDbDictionary
281
     1
  0
DICTIONARY
  5
989
102
{ACAD_REACTORS
330
988
102
}
330
988
100
AcDbDictionary
281
     1
  0
XRECORD
  5
2E510
102
{ACAD_REACTORS
330
2E50F
102
}
330
2E50F
100
AcDbXrecord
280
     1
290
     1
  0
SORTENTSTABLE
  5
2DD29
102
{ACAD_REACTORS
330
2DD28
102
}
330
2DD28
100
AcDbSortentsTable
330
2
  0
ACAD_PROXY_OBJECT
  5
2DB30
102
{ACAD_XDICTIONARY
360
2E5E7
102
}
102
{ACAD_REACTORS
330
2DB2F
102
}
330
2DB2F
100
AcDbProxyObject
 90
      499
 91
      513
 95
       25
 70
     0
 93
     1145
310
9094D6574726963353000481C000000600000000000000002881403000000180000000000000000A2023300000018001000000180000000000000000A20400000000000017202029C129E2E20B1AB30B9102B34B2BBA232BA30B4B624B21F129014129E2E20B1AB30B9102B34B2BBA9B1B0B632902E33101112B9B7111F129
310
480233000000180008CC00000060000000
340
12
340
0
340
8
340
12
340
8
340
8
 94
        0
1001
ACAD
1000
AcRTDxfName
1000
ACDBDETAILVIEWSTYLE
  0
GROUP
  5
28621
102
{ACAD_REACTORS
330
20
102
}
330
20
100
AcDbGroup
300

 70
     1
 71
     1
  0
GROUP
  5
2B958
102
{ACAD_REACTORS
330
20
102
}
330
20
100
AcDbGroup
300

 70
     1
 71
     1
  0
GROUP
  5
2CCC4
102
{ACAD_REACTORS
330
20
102
}
330
20
100
AcDbGroup
300

 70
     1
 71
     1
  0
GROUP
  5
2CCC5
102
{ACAD_REACTORS
330
20
102
}
330
20
100
AcDbGroup
300

 70
     1
 71
     1
  0
GROUP
  5
2B07B
102
{ACAD_REACTORS
330
20
102
}
330
20
100
AcDbGroup
300

 70
     1
 71
     1
  0
GROUP
  5
2CCD5
102
{ACAD_REACTORS
330
20
102
}
330
20
100
AcDbGroup
300

 70
     1
 71
     1
  0
GROUP
  5
2CCC6
102
{ACAD_REACTORS
330
20
102
}
330
20
100
AcDbGroup
300

 70
     1
 71
     1
  0
GROUP
  5
28637
102
{ACAD_REACTORS
330
20
102
}
330
20
100
AcDbGroup
300

 70
     1
 71
     1
  0
GROUP
  5
28446
102
{ACAD_REACTORS
330
20
102
}
330
20
100
AcDbGroup
300

 70
     1
 71
     1
  0
GROUP
  5
2E135
102
{ACAD_REACTORS
330
20
102
}
330
20
100
AcDbGroup
300

 70
     1
 71
     1
  0
GROUP
  5
2B075
102
{ACAD_REACTORS
330
20
102
}
330
20
100
AcDbGroup
300

 70
     1
 71
     1
  0
GROUP
  5
2B95B
102
{ACAD_REACTORS
330
20
102
}
330
20
100
AcDbGroup
300

 70
     1
 71
     1
  0
GROUP
  5
2CCD0
102
{ACAD_REACTORS
330
20
102
}
330
20
100
AcDbGroup
300

 70
     1
 71
     1
  0
GROUP
  5
2CCC7
102
{ACAD_REACTORS
330
20
102
}
330
20
100
AcDbGroup
300

 70
     1
 71
     1
  0
GROUP
  5
2844E
102
{ACAD_REACTORS
330
20
102
}
330
20
100
AcDbGroup
300

 70
     1
 71
     1
  0
GROUP
  5
28454
102
{ACAD_REACTORS
330
20
102
}
330
20
100
AcDbGroup
300

 70
     1
 71
     1
  0
GROUP
  5
2E131
102
{ACAD_REACTORS
330
20
102
}
330
20
100
AcDbGroup
300

 70
     1
 71
     1
  0
GROUP
  5
30C2F
102
{ACAD_REACTORS
330
20
102
}
330
20
100
AcDbGroup
300

 70
     1
 71
     1
  0
GROUP
  5
30BE2
102
{ACAD_REACTORS
330
20
102
}
330
20
100
AcDbGroup
300

 70
     1
 71
     1
  0
GROUP
  5
286B0
102
{ACAD_REACTORS
330
20
102
}
330
20
100
AcDbGroup
300

 70
     1
 71
     1
  0
GROUP
  5
28462
102
{ACAD_REACTORS
330
20
102
}
330
20
100
AcDbGroup
300

 70
     1
 71
     1
  0
GROUP
  5
13F82
102
{ACAD_REACTORS
330
20
102
}
330
20
100
AcDbGroup
300

 70
     1
 71
     1
  0
GROUP
  5
2846B
102
{ACAD_REACTORS
330
20
102
}
330
20
100
AcDbGroup
300

 70
     1
 71
     1
  0
GROUP
  5
2CCDF
102
{ACAD_REACTORS
330
20
102
}
330
20
100
AcDbGroup
300

 70
     1
 71
     1
  0
GROUP
  5
2F287
102
{ACAD_REACTORS
330
20
102
}
330
20
100
AcDbGroup
300

 70
     1
 71
     1
  0
GROUP
  5
28639
102
{ACAD_REACTORS
330
20
102
}
330
20
100
AcDbGroup
300

 70
     1
 71
     1
  0
GROUP
  5
2B077
102
{ACAD_REACTORS
330
20
102
}
330
20
100
AcDbGroup
300

 70
     1
 71
     1
  0
GROUP
  5
2CCD9
102
{ACAD_REACTORS
330
20
102
}
330
20
100
AcDbGroup
300

 70
     1
 71
     1
  0
GROUP
  5
2B956
102
{ACAD_REACTORS
330
20
102
}
330
20
100
AcDbGroup
300

 70
     1
 71
     1
  0
GROUP
  5
2E133
102
{ACAD_REACTORS
330
20
102
}
330
20
100
AcDbGroup
300

 70
     1
 71
     1
  0
GROUP
  5
2DB5C
102
{ACAD_REACTORS
330
20
102
}
330
20
100
AcDbGroup
300

 70
     1
 71
     1
  0
GROUP
  5
2CCC8
102
{ACAD_REACTORS
330
20
102
}
330
20
100
AcDbGroup
300

 70
     1
 71
     1
  0
GROUP
  5
2DB5D
102
{ACAD_REACTORS
330
20
102
}
330
20
100
AcDbGroup
300

 70
     1
 71
     1
  0
GROUP
  5
2DB76
102
{ACAD_REACTORS
330
20
102
}
330
20
100
AcDbGroup
300

 70
     1
 71
     1
  0
GROUP
  5
30BF4
102
{ACAD_REACTORS
330
20
102
}
330
20
100
AcDbGroup
300

 70
     1
 71
     1
  0
GROUP
  5
2CCCE
102
{ACAD_REACTORS
330
20
102
}
330
20
100
AcDbGroup
300

 70
     1
 71
     1
  0
GROUP
  5
2F288
102
{ACAD_REACTORS
330
20
102
}
330
20
100
AcDbGroup
300

 70
     1
 71
     1
  0
GROUP
  5
2DB77
102
{ACAD_REACTORS
330
20
102
}
330
20
100
AcDbGroup
300

 70
     1
 71
     1
  0
GROUP
  5
2DBC8
102
{ACAD_REACTORS
330
20
102
}
330
20
100
AcDbGroup
300

 70
     1
 71
     1
  0
GROUP
  5
2DDCE
102
{ACAD_REACTORS
330
20
102
}
330
20
100
AcDbGroup
300

 70
     1
 71
     1
  0
GROUP
  5
2CCD6
102
{ACAD_REACTORS
330
20
102
}
330
20
100
AcDbGroup
300

 70
     1
 71
     1
  0
GROUP
  5
2B078
102
{ACAD_REACTORS
330
20
102
}
330
20
100
AcDbGroup
300

 70
     1
 71
     1
  0
GROUP
  5
2DBC9
102
{ACAD_REACTORS
330
20
102
}
330
20
100
AcDbGroup
300

 70
     1
 71
     1
  0
GROUP
  5
2DBCA
102
{ACAD_REACTORS
330
20
102
}
330
20
100
AcDbGroup
300

 70
     1
 71
     1
  0
GROUP
  5
2CCC9
102
{ACAD_REACTORS
330
20
102
}
330
20
100
AcDbGroup
300

 70
     1
 71
     1
  0
GROUP
  5
2DC1B
102
{ACAD_REACTORS
330
20
102
}
330
20
100
AcDbGroup
300

 70
     1
 71
     1
  0
GROUP
  5
2B95A
102
{ACAD_REACTORS
330
20
102
}
330
20
100
AcDbGroup
300

 70
     1
 71
     1
  0
GROUP
  5
2A4E1
102
{ACAD_REACTORS
330
20
102
}
330
20
100
AcDbGroup
300

 70
     1
 71
     1
  0
GROUP
  5
2B95C
102
{ACAD_REACTORS
330
20
102
}
330
20
100
AcDbGroup
300

 70
     1
 71
     1
  0
GROUP
  5
2B957
102
{ACAD_REACTORS
330
20
102
}
330
20
100
AcDbGroup
300

 70
     1
 71
     1
  0
GROUP
  5
2DBE3
102
{ACAD_REACTORS
330
20
102
}
330
20
100
AcDbGroup
300

 70
     1
 71
     1
  0
GROUP
  5
2DBE4
102
{ACAD_REACTORS
330
20
102
}
330
20
100
AcDbGroup
300

 70
     1
 71
     1
  0
GROUP
  5
2CCCF
102
{ACAD_REACTORS
330
20
102
}
330
20
100
AcDbGroup
300

 70
     1
 71
     1
  0
GROUP
  5
30BE3
102
{ACAD_REACTORS
330
20
102
}
330
20
100
AcDbGroup
300

 70
     1
 71
     1
  0
GROUP
  5
2B071
102
{ACAD_REACTORS
330
20
102
}
330
20
100
AcDbGroup
300

 70
     1
 71
     1
  0
GROUP
  5
2DBE5
102
{ACAD_REACTORS
330
20
102
}
330
20
100
AcDbGroup
300

 70
     1
 71
     1
  0
GROUP
  5
2E138
102
{ACAD_REACTORS
330
20
102
}
330
20
100
AcDbGroup
300

 70
     1
 71
     1
  0
GROUP
  5
28636
102
{ACAD_REACTORS
330
20
102
}
330
20
100
AcDbGroup
300

 70
     1
 71
     1
  0
GROUP
  5
2CCCA
102
{ACAD_REACTORS
330
20
102
}
330
20
100
AcDbGroup
300

 70
     1
 71
     1
  0
GROUP
  5
2DBFE
102
{ACAD_REACTORS
330
20
102
}
330
20
100
AcDbGroup
300

 70
     1
 71
     1
  0
GROUP
  5
2E139
102
{ACAD_REACTORS
330
20
102
}
330
20
100
AcDbGroup
300

 70
     1
 71
     1
  0
GROUP
  5
2B070
102
{ACAD_REACTORS
330
20
102
}
330
20
100
AcDbGroup
300

 70
     1
 71
     1
  0
GROUP
  5
2B959
102
{ACAD_REACTORS
330
20
102
}
330
20
100
AcDbGroup
300

 70
     1
 71
     1
  0
GROUP
  5
2B079
102
{ACAD_REACTORS
330
20
102
}
330
20
100
AcDbGroup
300

 70
     1
 71
     1
  0
GROUP
  5
2CCDB
102
{ACAD_REACTORS
330
20
102
}
330
20
100
AcDbGroup
300

 70
     1
 71
     1
  0
GROUP
  5
284F3
102
{ACAD_REACTORS
330
20
102
}
330
20
100
AcDbGroup
300

 70
     1
 71
     1
  0
GROUP
  5
284F4
102
{ACAD_REACTORS
330
20
102
}
330
20
100
AcDbGroup
300

 70
     1
 71
     1
  0
GROUP
  5
2852E
102
{ACAD_REACTORS
330
20
102
}
330
20
100
AcDbGroup
300

 70
     1
 71
     1
  0
GROUP
  5
28620
102
{ACAD_REACTORS
330
20
102
}
330
20
100
AcDbGroup
300

 70
     1
 71
     1
  0
GROUP
  5
2E134
102
{ACAD_REACTORS
330
20
102
}
330
20
100
AcDbGroup
300

 70
     1
 71
     1
  0
GROUP
  5
2CCCB
102
{ACAD_REACTORS
330
20
102
}
330
20
100
AcDbGroup
300

 70
     1
 71
     1
  0
GROUP
  5
30C1E
102
{ACAD_REACTORS
330
20
102
}
330
20
100
AcDbGroup
300

 70
     1
 71
     1
  0
GROUP
  5
2CCD1
102
{ACAD_REACTORS
330
20
102
}
330
20
100
AcDbGroup
300

 70
     1
 71
     1
  0
GROUP
  5
2DDCF
102
{ACAD_REACTORS
330
20
102
}
330
20
100
AcDbGroup
300

 70
     1
 71
     1
  0
GROUP
  5
2CCDA
102
{ACAD_REACTORS
330
20
102
}
330
20
100
AcDbGroup
300

 70
     1
 71
     1
  0
GROUP
  5
2DBFF
102
{ACAD_REACTORS
330
20
102
}
330
20
100
AcDbGroup
300

 70
     1
 71
     1
  0
GROUP
  5
2B072
102
{ACAD_REACTORS
330
20
102
}
330
20
100
AcDbGroup
300

 70
     1
 71
     1
  0
GROUP
  5
2ED2F
102
{ACAD_REACTORS
330
20
102
}
330
20
100
AcDbGroup
300

 70
     1
 71
     1
  0
GROUP
  5
2DD33
102
{ACAD_REACTORS
330
20
102
}
330
20
100
AcDbGroup
300

 70
     1
 71
     1
  0
GROUP
  5
2ED30
102
{ACAD_REACTORS
330
20
102
}
330
20
100
AcDbGroup
300

 70
     1
 71
     1
  0
GROUP
  5
2EF61
102
{ACAD_REACTORS
330
20
102
}
330
20
100
AcDbGroup
300

 70
     1
 71
     1
  0
GROUP
  5
2B07C
102
{ACAD_REACTORS
330
20
102
}
330
20
100
AcDbGroup
300

 70
     1
 71
     1
  0
GROUP
  5
30BE4
102
{ACAD_REACTORS
330
20
102
}
330
20
100
AcDbGroup
300

 70
     1
 71
     1
  0
GROUP
  5
2CCCC
102
{ACAD_REACTORS
330
20
102
}
330
20
100
AcDbGroup
300

 70
     1
 71
     1
  0
GROUP
  5
2EF64
102
{ACAD_REACTORS
330
20
102
}
330
20
100
AcDbGroup
300

 70
     1
 71
     1
  0
GROUP
  5
2EF72
102
{ACAD_REACTORS
330
20
102
}
330
20
100
AcDbGroup
300

 70
     1
 71
     1
  0
GROUP
  5
2DC00
102
{ACAD_REACTORS
330
20
102
}
330
20
100
AcDbGroup
300

 70
     1
 71
     1
  0
GROUP
  5
2CCD4
102
{ACAD_REACTORS
330
20
102
}
330
20
100
AcDbGroup
300

 70
     1
 71
     1
  0
GROUP
  5
2DD3C
102
{ACAD_REACTORS
330
20
102
}
330
20
100
AcDbGroup
300

 70
     1
 71
     1
  0
GROUP
  5
2CCD2
102
{ACAD_REACTORS
330
20
102
}
330
20
100
AcDbGroup
300

 70
     1
 71
     1
  0
GROUP
  5
2EF9C
102
{ACAD_REACTORS
330
20
102
}
330
20
100
AcDbGroup
300

 70
     1
 71
     1
  0
GROUP
  5
2EF9D
102
{ACAD_REACTORS
330
20
102
}
330
20
100
AcDbGroup
300

 70
     1
 71
     1
  0
GROUP
  5
30BC2
102
{ACAD_REACTORS
330
20
102
}
330
20
100
AcDbGroup
300

 70
     1
 71
     1
  0
GROUP
  5
2F289
102
{ACAD_REACTORS
330
20
102
}
330
20
100
AcDbGroup
300

 70
     1
 71
     1
  0
GROUP
  5
2CCDD
102
{ACAD_REACTORS
330
20
102
}
330
20
100
AcDbGroup
300

 70
     1
 71
     1
  0
GROUP
  5
2F036
102
{ACAD_REACTORS
330
20
102
}
330
20
100
AcDbGroup
300

 70
     1
 71
     1
  0
GROUP
  5
13F81
102
{ACAD_REACTORS
330
20
102
}
330
20
100
AcDbGroup
300

 70
     1
 71
     1
  0
GROUP
  5
2CCD7
102
{ACAD_REACTORS
330
20
102
}
330
20
100
AcDbGroup
300

 70
     1
 71
     1
  0
GROUP
  5
2869C
102
{ACAD_REACTORS
330
20
102
}
330
20
100
AcDbGroup
300

 70
     1
 71
     1
  0
GROUP
  5
2F037
102
{ACAD_REACTORS
330
20
102
}
330
20
100
AcDbGroup
300

 70
     1
 71
     1
  0
GROUP
  5
2F038
102
{ACAD_REACTORS
330
20
102
}
330
20
100
AcDbGroup
300

 70
     1
 71
     1
  0
GROUP
  5
30BE6
102
{ACAD_REACTORS
330
20
102
}
330
20
100
AcDbGroup
300

 70
     1
 71
     1
  0
GROUP
  5
28635
102
{ACAD_REACTORS
330
20
102
}
330
20
100
AcDbGroup
300

 70
     1
 71
     1
  0
GROUP
  5
2B073
102
{ACAD_REACTORS
330
20
102
}
330
20
100
AcDbGroup
300

 70
     1
 71
     1
  0
GROUP
  5
2F283
102
{ACAD_REACTORS
330
20
102
}
330
20
100
AcDbGroup
300

 70
     1
 71
     1
  0
GROUP
  5
2B95D
102
{ACAD_REACTORS
330
20
102
}
330
20
100
AcDbGroup
300

 70
     1
 71
     1
  0
GROUP
  5
286CC
102
{ACAD_REACTORS
330
20
102
}
330
20
100
AcDbGroup
300

 70
     1
 71
     1
  0
GROUP
  5
30BC3
102
{ACAD_REACTORS
330
20
102
}
330
20
100
AcDbGroup
300

 70
     1
 71
     1
  0
GROUP
  5
30C3B
102
{ACAD_REACTORS
330
20
102
}
330
20
100
AcDbGroup
300

 70
     1
 71
     1
  0
GROUP
  5
2F284
102
{ACAD_REACTORS
330
20
102
}
330
20
100
AcDbGroup
300

 70
     1
 71
     1
  0
GROUP
  5
2B95E
102
{ACAD_REACTORS
330
20
102
}
330
20
100
AcDbGroup
300

 70
     1
 71
     1
  0
GROUP
  5
2B95F
102
{ACAD_REACTORS
330
20
102
}
330
20
100
AcDbGroup
300

 70
     1
 71
     1
  0
GROUP
  5
2CCDC
102
{ACAD_REACTORS
330
20
102
}
330
20
100
AcDbGroup
300

 70
     1
 71
     1
  0
GROUP
  5
2CCD3
102
{ACAD_REACTORS
330
20
102
}
330
20
100
AcDbGroup
300

 70
     1
 71
     1
  0
GROUP
  5
2DEF1
102
{ACAD_REACTORS
330
20
102
}
330
20
100
AcDbGroup
300

 70
     1
 71
     1
  0
GROUP
  5
2B960
102
{ACAD_REACTORS
330
20
102
}
330
20
100
AcDbGroup
300

 70
     1
 71
     1
  0
GROUP
  5
2B961
102
{ACAD_REACTORS
330
20
102
}
330
20
100
AcDbGroup
300

 70
     1
 71
     1
  0
GROUP
  5
2CCB9
102
{ACAD_REACTORS
330
20
102
}
330
20
100
AcDbGroup
300

 70
     1
 71
     1
  0
GROUP
  5
2CCBA
102
{ACAD_REACTORS
330
20
102
}
330
20
100
AcDbGroup
300

 70
     1
 71
     1
  0
GROUP
  5
2DC19
102
{ACAD_REACTORS
330
20
102
}
330
20
100
AcDbGroup
300

 70
     1
 71
     1
  0
GROUP
  5
2B076
102
{ACAD_REACTORS
330
20
102
}
330
20
100
AcDbGroup
300

 70
     1
 71
     1
  0
GROUP
  5
30BC4
102
{ACAD_REACTORS
330
20
102
}
330
20
100
AcDbGroup
300

 70
     1
 71
     1
  0
GROUP
  5
2B955
102
{ACAD_REACTORS
330
20
102
}
330
20
100
AcDbGroup
300

 70
     1
 71
     1
  0
GROUP
  5
30C1F
102
{ACAD_REACTORS
330
20
102
}
330
20
100
AcDbGroup
300

 70
     1
 71
     1
  0
GROUP
  5
2CCDE
102
{ACAD_REACTORS
330
20
102
}
330
20
100
AcDbGroup
300

 70
     1
 71
     1
  0
GROUP
  5
2DEEF
102
{ACAD_REACTORS
330
20
102
}
330
20
100
AcDbGroup
300

 70
     1
 71
     1
  0
GROUP
  5
2F285
102
{ACAD_REACTORS
330
20
102
}
330
20
100
AcDbGroup
300

 70
     1
 71
     1
  0
GROUP
  5
2CCBB
102
{ACAD_REACTORS
330
20
102
}
330
20
100
AcDbGroup
300

 70
     1
 71
     1
  0
GROUP
  5
2CCBC
102
{ACAD_REACTORS
330
20
102
}
330
20
100
AcDbGroup
300

 70
     1
 71
     1
  0
GROUP
  5
2F28A
102
{ACAD_REACTORS
330
20
102
}
330
20
100
AcDbGroup
300

 70
     1
 71
     1
  0
GROUP
  5
2DC1A
102
{ACAD_REACTORS
330
20
102
}
330
20
100
AcDbGroup
300

 70
     1
 71
     1
  0
GROUP
  5
13FCB
102
{ACAD_REACTORS
330
20
102
}
330
20
100
AcDbGroup
300

 70
     1
 71
     1
  0
GROUP
  5
2CCBD
102
{ACAD_REACTORS
330
20
102
}
330
20
100
AcDbGroup
300

 70
     1
 71
     1
  0
GROUP
  5
2CCD8
102
{ACAD_REACTORS
330
20
102
}
330
20
100
AcDbGroup
300

 70
     1
 71
     1
  0
GROUP
  5
2B07A
102
{ACAD_REACTORS
330
20
102
}
330
20
100
AcDbGroup
300

 70
     1
 71
     1
  0
GROUP
  5
30BE1
102
{ACAD_REACTORS
330
20
102
}
330
20
100
AcDbGroup
300

 70
     1
 71
     1
  0
GROUP
  5
2CCBE
102
{ACAD_REACTORS
330
20
102
}
330
20
100
AcDbGroup
300

 70
     1
 71
     1
  0
GROUP
  5
2CCBF
102
{ACAD_REACTORS
330
20
102
}
330
20
100
AcDbGroup
300

 70
     1
 71
     1
  0
GROUP
  5
2F286
102
{ACAD_REACTORS
330
20
102
}
330
20
100
AcDbGroup
300

 70
     1
 71
     1
  0
GROUP
  5
30C30
102
{ACAD_REACTORS
330
20
102
}
330
20
100
AcDbGroup
300

 70
     1
 71
     1
  0
GROUP
  5
2CCC0
102
{ACAD_REACTORS
330
20
102
}
330
20
100
AcDbGroup
300

 70
     1
 71
     1
  0
GROUP
  5
2E137
102
{ACAD_REACTORS
330
20
102
}
330
20
100
AcDbGroup
300

 70
     1
 71
     1
  0
GROUP
  5
30C2E
102
{ACAD_REACTORS
330
20
102
}
330
20
100
AcDbGroup
300

 70
     1
 71
     1
  0
GROUP
  5
2CCC1
102
{ACAD_REACTORS
330
20
102
}
330
20
100
AcDbGroup
300

 70
     1
 71
     1
  0
GROUP
  5
2CCC2
102
{ACAD_REACTORS
330
20
102
}
330
20
100
AcDbGroup
300

 70
     1
 71
     1
  0
GROUP
  5
2B074
102
{ACAD_REACTORS
330
20
102
}
330
20
100
AcDbGroup
300

 70
     1
 71
     1
  0
GROUP
  5
2CCCD
102
{ACAD_REACTORS
330
20
102
}
330
20
100
AcDbGroup
300

 70
     1
 71
     1
  0
GROUP
  5
2E132
102
{ACAD_REACTORS
330
20
102
}
330
20
100
AcDbGroup
300

 70
     1
 71
     1
  0
GROUP
  5
2CCC3
102
{ACAD_REACTORS
330
20
102
}
330
20
100
AcDbGroup
300

 70
     1
 71
     1
  0
GROUP
  5
2E136
102
{ACAD_REACTORS
330
20
102
}
330
20
100
AcDbGroup
300

 70
     1
 71
     1
  0
GROUP
  5
2DDCD
102
{ACAD_REACTORS
330
20
102
}
330
20
100
AcDbGroup
300

 70
     1
 71
     1
  0
GROUP
  5
2DEF0
102
{ACAD_REACTORS
330
20
102
}
330
20
100
AcDbGroup
300

 70
     1
 71
     1
  0
LAYOUT
  5
A
102
{ACAD_XDICTIONARY
360
2E531
102
}
102
{ACAD_REACTORS
330
B
102
}
330
B
100
AcDbPlotSettings
  1

  2
none_device
  4
ANSI_A_(8.50_x_11.00_Inches)
  6

 40
6.349999904632568
 41
19.04999923706055
 42
6.350006103515625
 43
19.04998779296875
 44
215.8999938964844
 45
279.3999938964844
 46
28.79735799831205
 47
17.69678088353209
 48
0.0
 49
0.0
140
0.0
141
0.0
142
1.0
143
51.8162618983908
 70
 11956
 72
     0
 73
     1
 74
     1
  7

 75
     0
147
0.0192989606614416
148
0.6510932400678712
149
0.4604159340479328
100
AcDbLayout
  1
Model
 70
     1
 71
     0
 10
0.0
 20
0.0
 11
12.0
 21
9.0
 12
0.0
 22
0.0
 32
0.0
 14
0.0
 24
0.0
 34
0.0
 15
0.0
 25
0.0
 35
0.0
146
0.0
 13
0.0
 23
0.0
 33
0.0
 16
1.0
 26
0.0
 36
0.0
 17
0.0
 27
1.0
 37
0.0
 76
     0
330
2
  0
LAYOUT
  5
2F49C
102
{ACAD_XDICTIONARY
360
324AF
102
}
102
{ACAD_REACTORS
330
B
102
}
330
B
100
AcDbPlotSettings
  1

  2
DocuPrint C2250
  4

  6

 40
0.0
 41
0.0
 42
0.0
 43
0.0
 44
0.0
 45
0.0
 46
0.0
 47
0.0
 48
0.0
 49
0.0
140
0.0
141
0.0
142
1.0
143
1.0
 70
   688
 72
     0
 73
     0
 74
     5
  7

 75
    16
147
1.0
148
0.0
149
0.0
100
AcDbLayout
  1
レイアウト1
 70
     1
 71
     1
 10
0.0
 20
0.0
 11
12.0
 21
9.0
 12
0.0
 22
0.0
 32
0.0
 14
0.0
 24
0.0
 34
0.0
 15
0.0
 25
0.0
 35
0.0
146
0.0
 13
0.0
 23
0.0
 33
0.0
 16
1.0
 26
0.0
 36
0.0
 17
0.0
 27
1.0
 37
0.0
 76
     0
330
2F49B
  0
MATERIAL
  5
2DAF6
102
{ACAD_XDICTIONARY
360
2DAF7
102
}
102
{ACAD_REACTORS
330
C5
102
}
330
C5
100
AcDbMaterial
  1
ByBlock
 72
     0
 73
     2
 43
0.0008202099737533
 43
0.0
 43
0.0
 43
0.0
 43
0.0
 43
0.0008202099737533
 43
0.0
 43
0.0
 43
0.0
 43
0.0
 43
1.0
 43
0.0
 43
0.0
 43
0.0
 43
0.0
 43
1.0
 77
     0
 78
     2
 47
0.0008202099737533
 47
0.0
 47
0.0
 47
0.0
 47
0.0
 47
0.0008202099737533
 47
0.0
 47
0.0
 47
0.0
 47
0.0
 47
1.0
 47
0.0
 47
0.0
 47
0.0
 47
0.0
 47
1.0
171
     0
172
     2
 49
0.0008202099737533
 49
0.0
 49
0.0
 49
0.0
 49
0.0
 49
0.0008202099737533
 49
0.0
 49
0.0
 49
0.0
 49
0.0
 49
1.0
 49
0.0
 49
0.0
 49
0.0
 49
0.0
 49
1.0
175
     0
176
     2
142
0.0008202099737533
142
0.0
142
0.0
142
0.0
142
0.0
142
0.0008202099737533
142
0.0
142
0.0
142
0.0
142
0.0
142
1.0
142
0.0
142
0.0
142
0.0
142
0.0
142
1.0
179
     0
270
     2
144
0.0008202099737533
144
0.0
144
0.0
144
0.0
144
0.0
144
0.0008202099737533
144
0.0
144
0.0
144
0.0
144
0.0
144
1.0
144
0.0
144
0.0
144
0.0
144
0.0
144
1.0
274
     2
147
0.0008202099737533
147
0.0
147
0.0
147
0.0
147
0.0
147
0.0008202099737533
147
0.0
147
0.0
147
0.0
147
0.0
147
1.0
147
0.0
147
0.0
147
0.0
147
0.0
147
1.0
  0
MATERIAL
  5
2DAEE
102
{ACAD_XDICTIONARY
360
2DAEF
102
}
102
{ACAD_REACTORS
330
C5
102
}
330
C5
100
AcDbMaterial
  1
ByLayer
 72
     0
 73
     2
 43
0.0008202099737533
 43
0.0
 43
0.0
 43
0.0
 43
0.0
 43
0.0008202099737533
 43
0.0
 43
0.0
 43
0.0
 43
0.0
 43
1.0
 43
0.0
 43
0.0
 43
0.0
 43
0.0
 43
1.0
 77
     0
 78
     2
 47
0.0008202099737533
 47
0.0
 47
0.0
 47
0.0
 47
0.0
 47
0.0008202099737533
 47
0.0
 47
0.0
 47
0.0
 47
0.0
 47
1.0
 47
0.0
 47
0.0
 47
0.0
 47
0.0
 47
1.0
171
     0
172
     2
 49
0.0008202099737533
 49
0.0
 49
0.0
 49
0.0
 49
0.0
 49
0.0008202099737533
 49
0.0
 49
0.0
 49
0.0
 49
0.0
 49
1.0
 49
0.0
 49
0.0
 49
0.0
 49
0.0
 49
1.0
175
     0
176
     2
142
0.0008202099737533
142
0.0
142
0.0
142
0.0
142
0.0
142
0.0008202099737533
142
0.0
142
0.0
142
0.0
142
0.0
142
1.0
142
0.0
142
0.0
142
0.0
142
0.0
142
1.0
179
     0
270
     2
144
0.0008202099737533
144
0.0
144
0.0
144
0.0
144
0.0
144
0.0008202099737533
144
0.0
144
0.0
144
0.0
144
0.0
144
1.0
144
0.0
144
0.0
144
0.0
144
0.0
144
1.0
274
     2
147
0.0008202099737533
147
0.0
147
0.0
147
0.0
147
0.0
147
0.0008202099737533
147
0.0
147
0.0
147
0.0
147
0.0
147
1.0
147
0.0
147
0.0
147
0.0
147
0.0
147
1.0
  0
MATERIAL
  5
AF90
102
{ACAD_XDICTIONARY
360
AF91
102
}
102
{ACAD_REACTORS
330
C5
102
}
330
C5
100
AcDbMaterial
  1
Global
 72
     0
 73
     2
 43
0.0208333333333333
 43
0.0
 43
0.0
 43
0.0
 43
0.0
 43
0.0208333333333333
 43
0.0
 43
0.0
 43
0.0
 43
0.0
 43
1.0
 43
0.0
 43
0.0
 43
0.0
 43
0.0
 43
1.0
 77
     0
 78
     2
 47
0.0208333333333333
 47
0.0
 47
0.0
 47
0.0
 47
0.0
 47
0.0208333333333333
 47
0.0
 47
0.0
 47
0.0
 47
0.0
 47
1.0
 47
0.0
 47
0.0
 47
0.0
 47
0.0
 47
1.0
171
     0
172
     2
 49
0.0208333333333333
 49
0.0
 49
0.0
 49
0.0
 49
0.0
 49
0.0208333333333333
 49
0.0
 49
0.0
 49
0.0
 49
0.0
 49
1.0
 49
0.0
 49
0.0
 49
0.0
 49
0.0
 49
1.0
175
     0
176
     2
142
0.0208333333333333
142
0.0
142
0.0
142
0.0
142
0.0
142
0.0208333333333333
142
0.0
142
0.0
142
0.0
142
0.0
142
1.0
142
0.0
142
0.0
142
0.0
142
0.0
142
1.0
179
     0
270
     2
144
0.0208333333333333
144
0.0
144
0.0
144
0.0
144
0.0
144
0.0208333333333333
144
0.0
144
0.0
144
0.0
144
0.0
144
1.0
144
0.0
144
0.0
144
0.0
144
0.0
144
1.0
274
     2
147
0.0208333333333333
147
0.0
147
0.0
147
0.0
147
0.0
147
0.0208333333333333
147
0.0
147
0.0
147
0.0
147
0.0
147
1.0
147
0.0
147
0.0
147
0.0
147
0.0
147
1.0
  0
ACAD_PROXY_OBJECT
  5
2DB2C
102
{ACAD_XDICTIONARY
360
2E5E3
102
}
102
{ACAD_REACTORS
330
2DB2B
102
}
330
2DB2B
100
AcDbProxyObject
 90
      499
 91
      511
 95
       25
 70
     0
 93
      744
310
40901902A40600000030400FEFFFFFF8000000000000008102B5E8DC0F42B5CFD095374616E646172640000000000000004102405064068000000C1000000000000000410000000000000004102000000304015D90000000000000C03F00
340
15
340
0
340
12
340
0
 94
        0
1001
ACAD_MLEADERVER
1070
     2
1001
ACAD
1000
AcRTDxfName
1000
MLEADERSTYLE
  0
MLINESTYLE
  5
23
102
{ACAD_REACTORS
330
21
102
}
330
21
100
AcDbMlineStyle
  2
STANDARD
 70
     0
  3

 62
   256
 51
90.0
 52
90.0
 71
     2
 49
0.5
 62
   256
  6
BYLAYER
 49
-0.5
 62
   256
  6
BYLAYER
  0
ACDBPLACEHOLDER
  5
5
102
{ACAD_REACTORS
330
6
102
}
330
6
  0
ACAD_PROXY_OBJECT
  5
2DB1A
102
{ACAD_REACTORS
330
2DB19
102
}
330
2DB19
100
AcDbProxyObject
 90
      499
 91
      510
 95
       25
 70
     0
 93
       49
310
904313A3100580
 94
        0
1001
ACAD
1000
AcRTDxfName
1000
SCALE
  0
ACAD_PROXY_OBJECT
  5
2DB1B
102
{ACAD_REACTORS
330
2DB19
102
}
330
2DB19
100
AcDbProxyObject
 90
      499
 91
      510
 95
       25
 70
     0
 93
      113
310
904313A32004000000000000004040
 94
        0
1001
ACAD
1000
AcRTDxfName
1000
SCALE
  0
ACAD_PROXY_OBJECT
  5
2DB1C
102
{ACAD_REACTORS
330
2DB19
102
}
330
2DB19
100
AcDbProxyObject
 90
      499
 91
      510
 95
       25
 70
     0
 93
      113
310
904313A34004000000000000104040
 94
        0
1001
ACAD
1000
AcRTDxfName
1000
SCALE
  0
ACAD_PROXY_OBJECT
  5
2DB1D
102
{ACAD_REACTORS
330
2DB19
102
}
330
2DB19
100
AcDbProxyObject
 90
      499
 91
      510
 95
       25
 70
     0
 93
      113
310
904313A35004000000000000144040
 94
        0
1001
ACAD
1000
AcRTDxfName
1000
SCALE
  0
ACAD_PROXY_OBJECT
  5
2DB1E
102
{ACAD_REACTORS
330
2DB19
102
}
330
2DB19
100
AcDbProxyObject
 90
      499
 91
      510
 95
       25
 70
     0
 93
      113
310
904313A38004000000000000204040
 94
        0
1001
ACAD
1000
AcRTDxfName
1000
SCALE
  0
ACAD_PROXY_OBJECT
  5
2DB1F
102
{ACAD_REACTORS
330
2DB19
102
}
330
2DB19
100
AcDbProxyObject
 90
      499
 91
      510
 95
       25
 70
     0
 93
      121
310
905313A3130004000000000000244040
 94
        0
1001
ACAD
1000
AcRTDxfName
1000
SCALE
  0
ACAD_PROXY_OBJECT
  5
2DB20
102
{ACAD_REACTORS
330
2DB19
102
}
330
2DB19
100
AcDbProxyObject
 90
      499
 91
      510
 95
       25
 70
     0
 93
      121
310
905313A3136004000000000000304001
 94
        0
1001
ACAD
1000
AcRTDxfName
1000
SCALE
  0
ACAD_PROXY_OBJECT
  5
2DB21
102
{ACAD_REACTORS
330
2DB19
102
}
330
2DB19
100
AcDbProxyObject
 90
      499
 91
      510
 95
       25
 70
     0
 93
      121
310
905313A3230004000000000000344040
 94
        0
1001
ACAD
1000
AcRTDxfName
1000
SCALE
  0
ACAD_PROXY_OBJECT
  5
2DB22
102
{ACAD_REACTORS
330
2DB19
102
}
330
2DB19
100
AcDbProxyObject
 90
      499
 91
      510
 95
       25
 70
     0
 93
      121
310
905313A33300040000000000003E4001
 94
        0
1001
ACAD
1000
AcRTDxfName
1000
SCALE
  0
ACAD_PROXY_OBJECT
  5
2DB23
102
{ACAD_REACTORS
330
2DB19
102
}
330
2DB19
100
AcDbProxyObject
 90
      499
 91
      510
 95
       25
 70
     0
 93
      121
310
905313A3430004000000000000444040
 94
        0
1001
ACAD
1000
AcRTDxfName
1000
SCALE
  0
ACAD_PROXY_OBJECT
  5
2DB24
102
{ACAD_REACTORS
330
2DB19
102
}
330
2DB19
100
AcDbProxyObject
 90
      499
 91
      510
 95
       25
 70
     0
 93
      121
310
905313A3530004000000000000494001
 94
        0
1001
ACAD
1000
AcRTDxfName
1000
SCALE
  0
ACAD_PROXY_OBJECT
  5
2DB25
102
{ACAD_REACTORS
330
2DB19
102
}
330
2DB19
100
AcDbProxyObject
 90
      499
 91
      510
 95
       25
 70
     0
 93
      129
310
906313A313030004000000000000594000
 94
        0
1001
ACAD
1000
AcRTDxfName
1000
SCALE
  0
ACAD_PROXY_OBJECT
  5
2DB26
102
{ACAD_REACTORS
330
2DB19
102
}
330
2DB19
100
AcDbProxyObject
 90
      499
 91
      510
 95
       25
 70
     0
 93
      113
310
904323A31000000000000000010165
 94
        0
1001
ACAD
1000
AcRTDxfName
1000
SCALE
  0
ACAD_PROXY_OBJECT
  5
2DB27
102
{ACAD_REACTORS
330
2DB19
102
}
330
2DB19
100
AcDbProxyObject
 90
      499
 91
      510
 95
       25
 70
     0
 93
      113
310
904343A31000000000000000410101
 94
        0
1001
ACAD
1000
AcRTDxfName
1000
SCALE
  0
ACAD_PROXY_OBJECT
  5
2DB28
102
{ACAD_REACTORS
330
2DB19
102
}
330
2DB19
100
AcDbProxyObject
 90
      499
 91
      510
 95
       25
 70
     0
 93
      113
310
904383A31000000000000000810165
 94
        0
1001
ACAD
1000
AcRTDxfName
1000
SCALE
  0
ACAD_PROXY_OBJECT
  5
2DB29
102
{ACAD_REACTORS
330
2DB19
102
}
330
2DB19
100
AcDbProxyObject
 90
      499
 91
      510
 95
       25
 70
     0
 93
      121
310
90531303A31000000000000000910178
 94
        0
1001
ACAD
1000
AcRTDxfName
1000
SCALE
  0
ACAD_PROXY_OBJECT
  5
2DB2A
102
{ACAD_REACTORS
330
2DB19
102
}
330
2DB19
100
AcDbProxyObject
 90
      499
 91
      510
 95
       25
 70
     0
 93
      129
310
9063130303A31000000000000001650100
 94
        0
1001
ACAD
1000
AcRTDxfName
1000
SCALE
  0
ACAD_PROXY_OBJECT
  5
2DB2E
102
{ACAD_XDICTIONARY
360
2E5E5
102
}
102
{ACAD_REACTORS
330
2DB2D
102
}
330
2DB2D
100
AcDbProxyObject
 90
      499
 91
      512
 95
       25
 70
     0
 93
     2325
310
9094D65747269633530004B34000000600000000000000002881000000180000000000000000A202229258409E5840A25840A65840B05840B4000000000000001220233000000180009940000006000000000000000028800000000000000A20400000060000000000000000288100000000000005C8080AB44A78B882C6AC
310
C2E440ACD2CAEEA6CAC6E8D2DEDCA6E8C2E4E892C87C4A5A4A78B882C6ACC2E440ACD2CAEEA6CAC6E8D2DEDC8ADCC892C87C4A40504A78B882C6ACC2E440ACD2CAEEA6C6C2D8CA40B8CC40444AE6DC447C4A5201000000180010000001900083A0A729A49998803100000000000000881000000000000008808340C16A22A7
310
D90FC9F8CAE65A70A583A07E1FE81C635378FA1F8CAE65A70A583A17E7944A7F127A97E9F8
340
12
340
0
340
0
340
8
340
8
340
12
 94
        0
1001
ACAD
1000
AcRTDxfName
1000
ACDBSECTIONVIEWSTYLE
  0
ACAD_PROXY_OBJECT
  5
2DB18
102
{ACAD_XDICTIONARY
360
2E526
102
}
102
{ACAD_REACTORS
330
2DB17
102
}
330
2DB17
100
AcDbProxyObject
 90
      499
 91
      509
 95
       25
 70
     0
 93
     1849
310
4254DD185B99185C990028000000000000F83F0000000000003E0FC00000000000004901028000000C1008070000C3001FDFF8000000C1003FBFF000000182007F7FE00000030400FEFFC00000060801FDFF8000000C1003FBFF000000182000000000000000C2020B0000001820100E000186003FBFF000000182007F7FE0
310
0000030400FEFFC00000060801FDFF8000000C1003FBFF000000182007F7FE0000003040000000000000012404160000003040201C00030C007F7FE00000030400FEFFC00000060801FDFF8000000C1003FBFF000000182007F7FE00000030400FEFFC00000060807E
340
12
340
12
340
12
 94
        0
1001
ACAD
1000
AcRTDxfName
1000
TABLESTYLE
  0
ACAD_PROXY_OBJECT
  5
2DB04
102
{ACAD_XDICTIONARY
360
2E5BB
102
}
102
{ACAD_REACTORS
330
2DAFE
102
}
330
2DAFE
100
AcDbProxyObject
 90
      499
 91
      508
 95
       25
 70
     0
 93
      598
310
430C9915DA5C99599C985B59401049028333333333333E3BF0000000000000FB023FFFFFF0802405048070000C3008000000C800405A000000320014050640A01C00030C010500920280D3
 94
        0
1001
ACAD
1000
AcDbSavedByObjectVersion
1070
     0
1000
AcRTDxfName
1000
VISUALSTYLE
  0
ACAD_PROXY_OBJECT
  5
2DB03
102
{ACAD_XDICTIONARY
360
2E5B9
102
}
102
{ACAD_REACTORS
330
2DAFE
102
}
330
2DAFE
100
AcDbProxyObject
 90
      499
 91
      508
 95
       25
 70
     0
 93
      558
310
4190985CDA58C0107406404333333333333E3BF0000000000000FB023FFFFFF08029048070000C3008000000C80040542201C00030C014050640A01C00030C010500920280D6
 94
        0
1001
ACAD
1000
AcDbSavedByObjectVersion
1070
     0
1000
AcRTDxfName
1000
VISUALSTYLE
  0
ACAD_PROXY_OBJECT
  5
2DB0A
102
{ACAD_XDICTIONARY
360
2E5C7
102
}
102
{ACAD_REACTORS
330
2DAFE
102
}
330
2DAFE
100
AcDbProxyObject
 90
      499
 91
      508
 95
       25
 70
     0
 93
      598
310
42509C9A59DA1D195B8010C409028333333333333E3BF0000000000000FB023FFFFFF0802405048070000C3008000000C80040542201C00030C014050640A01C00030C010500920280A656
 94
        0
1001
ACAD
1000
AcDbSavedByObjectVersion
1070
     0
1000
AcRTDxfName
1000
VISUALSTYLE
  0
ACAD_PROXY_OBJECT
  5
2DB0E
102
{ACAD_XDICTIONARY
360
2E5CF
102
}
102
{ACAD_REACTORS
330
2DAFE
102
}
330
2DAFE
100
AcDbProxyObject
 90
      499
 91
      508
 95
       25
 70
     0
 93
      622
310
4310DBDB1BDC90DA185B99D9401104090240C333333333333E3BF0000000000000FB0220202030802405048070000C3008000000C800405422202020308014050640A01C00030C010500920280D4
 94
        0
1001
ACAD
1000
AcDbSavedByObjectVersion
1070
     0
1000
AcRTDxfName
1000
VISUALSTYLE
  0
ACAD_PROXY_OBJECT
  5
2DB07
102
{ACAD_XDICTIONARY
360
2E5C1
102
}
102
{ACAD_REACTORS
330
2DAFE
102
}
330
2DAFE
100
AcDbProxyObject
 90
      499
 91
      508
 95
       25
 70
     0
 93
      670
310
42D0DBDB98D95C1D1D585B0010940D028333333333333E3BF0000000000000FB023FFFFFF0802409028070000C3008000000C800404000000000060664042201C00030C014050640A01C00030C010300920280D3
 94
        0
1001
ACAD
1000
AcDbSavedByObjectVersion
1070
     0
1000
AcRTDxfName
1000
VISUALSTYLE
  0
ACAD_PROXY_OBJECT
  5
2DB09
102
{ACAD_XDICTIONARY
360
2E5C5
102
}
102
{ACAD_REACTORS
330
2DAFE
102
}
330
2DAFE
100
AcDbProxyObject
 90
      499
 91
      508
 95
       25
 70
     0
 93
      582
310
41111A5B4010B409028333333333333E3BF0000000000000FB023FFFFFF0802405048070000C3008000000C80040542201C00030C014050640A01C00030C01050092028099DFFFFFF4
 94
        0
1001
ACAD
1000
AcDbSavedByObjectVersion
1070
     0
1000
AcRTDxfName
1000
VISUALSTYLE
  0
ACAD_PROXY_OBJECT
  5
2DB16
102
{ACAD_XDICTIONARY
360
2E5DF
102
}
102
{ACAD_REACTORS
330
2DAFE
102
}
330
2DAFE
100
AcDbProxyObject
 90
      499
 91
      508
 95
       25
 70
     0
 93
      622
310
43515919D950DBDB1BDC93D99980116409028333333333333E3BF0000000000000FB023FFFFFF0802405048070000C3008000000C80040542201C00030C014050640A01C00030C010500920280D6
 94
        0
1001
ACAD
1000
AcDbSavedByObjectVersion
1070
     0
1000
AcRTDxfName
1000
VISUALSTYLE
  0
ACAD_PROXY_OBJECT
  5
2DB0D
102
{ACAD_XDICTIONARY
360
2E5CD
102
}
102
{ACAD_REACTORS
330
2DAFE
102
}
330
2DAFE
100
AcDbProxyObject
 90
      499
 91
      508
 95
       25
 70
     0
 93
      614
310
43119858D95C185D1D195C9B8010F409028333333333333E3BF0000000000000FB023FFFFFF0802405048070000C3008000000C80040542201C00030C014050640A01C00030C010500920280D4
 94
        0
1001
ACAD
1000
AcDbSavedByObjectVersion
1070
     0
1000
AcRTDxfName
1000
VISUALSTYLE
  0
ACAD_PROXY_OBJECT
  5
2DAFF
102
{ACAD_XDICTIONARY
360
2E5B1
102
}
102
{ACAD_REACTORS
330
2DAFE
102
}
330
2DAFE
100
AcDbProxyObject
 90
      499
 91
      508
 95
       25
 70
     0
 93
      550
310
41519B185D00240901404333333333333E3BF0000000000000F9023FFFFFF080102A8070000C3008000000C80040542201C00030C014050640A01C00030C010500920286D6
 94
        0
1001
ACAD
1000
AcDbSavedByObjectVersion
1070
     0
1000
AcRTDxfName
1000
VISUALSTYLE
  0
ACAD_PROXY_OBJECT
  5
2DB00
102
{ACAD_XDICTIONARY
360
2E5B3
102
}
102
{ACAD_REACTORS
330
2DAFE
102
}
330
2DAFE
100
AcDbProxyObject
 90
      499
 91
      508
 95
       25
 70
     0
 93
      630
310
43919B185D15DA5D1A115919D95CC010140901404333333333333E3BF0000000000000F9023FFFFFF0801024068070000C3008000000C800405A000000320014050640A01C00030C010500920286D6
 94
        0
1001
ACAD
1000
AcDbSavedByObjectVersion
1070
     0
1000
AcRTDxfName
1000
VISUALSTYLE
  0
ACAD_PROXY_OBJECT
  5
2DB01
102
{ACAD_XDICTIONARY
360
2E5B5
102
}
102
{ACAD_REACTORS
330
2DAFE
102
}
330
2DAFE
100
AcDbProxyObject
 90
      499
 91
      508
 95
       25
 70
     0
 93
      574
310
4211DBDD5C985D590010240902404333333333333E3BF0000000000000F9023FFFFFF080102A8070000C3008000000C800405A01C00030C014050640A01C00030C010500920286D4
 94
        0
1001
ACAD
1000
AcDbSavedByObjectVersion
1070
     0
1000
AcRTDxfName
1000
VISUALSTYLE
  0
ACAD_PROXY_OBJECT
  5
2DB02
102
{ACAD_XDICTIONARY
360
2E5B7
102
}
102
{ACAD_REACTORS
330
2DAFE
102
}
330
2DAFE
100
AcDbProxyObject
 90
      499
 91
      508
 95
       25
 70
     0
 93
      654
310
4451DBDD5C985D5915DA5D1A115919D95CC010340902404333333333333E3BF0000000000000F9023FFFFFF0801024068070000C3008000000C800405A000000320014050640A01C00030C010500920286D6
 94
        0
1001
ACAD
1000
AcDbSavedByObjectVersion
1070
     0
1000
AcRTDxfName
1000
VISUALSTYLE
  0
ACAD_PROXY_OBJECT
  5
2DB06
102
{ACAD_XDICTIONARY
360
2E5BF
102
}
102
{ACAD_REACTORS
330
2DAFE
102
}
330
2DAFE
100
AcDbProxyObject
 90
      499
 91
      508
 95
       25
 70
     0
 93
      638
310
41D21A5919195B8010640502408333333333333E3BF0000000000000FB023FFFFFF0802409028070000C3008000000C8004080000000000004440A000000320014050640A01C00030C010300920280D2
 94
        0
1001
ACAD
1000
AcDbSavedByObjectVersion
1070
     0
1000
AcRTDxfName
1000
VISUALSTYLE
  0
ACAD_PROXY_OBJECT
  5
2DB14
102
{ACAD_XDICTIONARY
360
2E5DB
102
}
102
{ACAD_REACTORS
330
2DAFE
102
}
330
2DAFE
100
AcDbProxyObject
 90
      499
 91
      508
 95
       25
 70
     0
 93
      598
310
42929A5D1D195C93D99980114409028333333333333E3BF0000000000000FB023FFFFFF0802405048070000C3008000000C80040542A01C00030C014050640A01C00030C010500920280D6
 94
        0
1001
ACAD
1000
AcDbSavedByObjectVersion
1070
     0
1000
AcRTDxfName
1000
VISUALSTYLE
  0
ACAD_PROXY_OBJECT
  5
2DB0C
102
{ACAD_XDICTIONARY
360
2E5CB
102
}
102
{ACAD_REACTORS
330
2DAFE
102
}
330
2DAFE
100
AcDbProxyObject
 90
      499
 91
      508
 95
       25
 70
     0
 93
      614
310
43131A5B995C185D1D195C9B8010E409028333333333333E3BF0000000000000FB023FFFFFF0802405048070000C3008000000C80041D42201C00030C014050640A01C00030C010500920E80D4
 94
        0
1001
ACAD
1000
AcDbSavedByObjectVersion
1070
     0
1000
AcRTDxfName
1000
VISUALSTYLE
  0
ACAD_PROXY_OBJECT
  5
2DB15
102
{ACAD_XDICTIONARY
360
2E5DD
102
}
102
{ACAD_REACTORS
330
2DAFE
102
}
330
2DAFE
100
AcDbProxyObject
 90
      499
 91
      508
 95
       25
 70
     0
 93
      614
310
4313DD995C9A185B99D3D99980115409028333333333333E3BF0000000000000FB023FFFFFF0802405048070000C3008000000C80040542601C00030C014050640A01C00030C010500920280D4
 94
        0
1001
ACAD
1000
AcDbSavedByObjectVersion
1070
     0
1000
AcRTDxfName
1000
VISUALSTYLE
  0
ACAD_PROXY_OBJECT
  5
2DB08
102
{ACAD_XDICTIONARY
360
2E5C3
102
}
102
{ACAD_REACTORS
330
2DAFE
102
}
330
2DAFE
100
AcDbProxyObject
 90
      499
 91
      508
 95
       25
 70
     0
 93
      590
310
429499585B1A5CDD1A58C0108409028333333333333E3BF0000000000000F9023FFFFFF080102A8070000C3008000000C800405422000000320014050640A01C00030C010300920286D2
 94
        0
1001
ACAD
1000
AcDbSavedByObjectVersion
1070
     0
1000
AcRTDxfName
1000
VISUALSTYLE
  0
ACAD_PROXY_OBJECT
  5
2DB13
102
{ACAD_XDICTIONARY
360
2E5D9
102
}
102
{ACAD_REACTORS
330
2DAFE
102
}
330
2DAFE
100
AcDbProxyObject
 90
      499
 91
      508
 95
       25
 70
     0
 93
      582
310
41D4DA185919590011B40902404333333333333E3BF0000000000000F9023FFFFFF0801029048070000C3008000000C800405422000000320014050640A1E1E1E308010300920282D0
 94
        0
1001
ACAD
1000
AcDbSavedByObjectVersion
1070
     0
1000
AcRTDxfName
1000
VISUALSTYLE
  0
ACAD_PROXY_OBJECT
  5
2DB12
102
{ACAD_XDICTIONARY
360
2E5D7
102
}
102
{ACAD_REACTORS
330
2DAFE
102
}
330
2DAFE
100
AcDbProxyObject
 90
      499
 91
      508
 95
       25
 70
     0
 93
      678
310
4494DA18591959081DDA5D1A08195919D95CC011A40902404333333333333E3BF0000000000000F9023FFFFFF0801024050A8070000C3008000000C800409422000000320014050640A01C00030C010300920282D0
 94
        0
1001
ACAD
1000
AcDbSavedByObjectVersion
1070
     0
1000
AcRTDxfName
1000
VISUALSTYLE
  0
ACAD_PROXY_OBJECT
  5
2DB0F
102
{ACAD_XDICTIONARY
360
2E5D1
102
}
102
{ACAD_REACTORS
330
2DAFE
102
}
330
2DAFE
100
AcDbProxyObject
 90
      499
 91
      508
 95
       25
 70
     0
 93
      710
310
43D4DA1859195CC81BD98811DC985E401174090240C333333333333E3BF0000000000000FB023FFFFFF0802409028070000C3008070000C300404000000000000444042201C00030C014050640A01C00030C010300920280D3
 94
        0
1001
ACAD
1000
AcDbSavedByObjectVersion
1070
     0
1000
AcRTDxfName
1000
VISUALSTYLE
  0
ACAD_PROXY_OBJECT
  5
2DB10
102
{ACAD_XDICTIONARY
360
2E5D3
102
}
102
{ACAD_REACTORS
330
2DAFE
102
}
330
2DAFE
100
AcDbProxyObject
 90
      499
 91
      508
 95
       25
 70
     0
 93
      654
310
4214DAD95D18DA1E4011840502408333333333333E3BF0000000000000FB023FFFFFF0802409028070000C3008070000C300404000000000000444042E01C00030C014050640A01C00030C010600920280D2
 94
        0
1001
ACAD
1000
AcDbSavedByObjectVersion
1070
     0
1000
AcRTDxfName
1000
VISUALSTYLE
  0
ACAD_PROXY_OBJECT
  5
2DB0B
102
{ACAD_XDICTIONARY
360
2E5C9
102
}
102
{ACAD_REACTORS
330
2DAFE
102
}
330
2DAFE
100
AcDbProxyObject
 90
      499
 91
      508
 95
       25
 70
     0
 93
      582
310
42151A1A58DAD95B8010D409028333333333333E3BF0000000000000FB023FFFFFF0802405048070000C3008000000C80040543201C00030C014050640A01C00030C010500920280D4
 94
        0
1001
ACAD
1000
AcDbSavedByObjectVersion
1070
     0
1000
AcRTDxfName
1000
VISUALSTYLE
  0
ACAD_PROXY_OBJECT
  5
2DB05
102
{ACAD_XDICTIONARY
360
2E5BD
102
}
102
{ACAD_REACTORS
330
2DAFE
102
}
330
2DAFE
100
AcDbProxyObject
 90
      499
 91
      508
 95
       25
 70
     0
 93
      582
310
4295DA5C99599C985B59401059028333333333333E3BF0000000000000FB023FFFFFF0802405048070000C3008000000C800405A000000320014050640A01C00030C010300920280D0
 94
        0
1001
ACAD
1000
AcDbSavedByObjectVersion
1070
     0
1000
AcRTDxfName
1000
VISUALSTYLE
  0
ACAD_PROXY_OBJECT
  5
2DB11
102
{ACAD_XDICTIONARY
360
2E5D5
102
}
102
{ACAD_REACTORS
330
2DAFE
102
}
330
2DAFE
100
AcDbProxyObject
 90
      499
 91
      508
 95
       25
 70
     0
 93
      574
310
41960B54985E4011940902404000000000000E03F0000000000000FB023FFFFFF0801014068070000C3008000000C80040542201C00030C014050640A01C00030C010300920286D2
 94
        0
1001
ACAD
1000
AcDbSavedByObjectVersion
1070
     0
1000
AcRTDxfName
1000
VISUALSTYLE
  0
XRECORD
  5
324AD
102
{ACAD_REACTORS
330
324AB
102
}
330
324AB
100
AcDbXrecord
280
     1
340
C6
  0
XRECORD
  5
324AC
102
{ACAD_REACTORS
330
324AB
102
}
330
324AB
100
AcDbXrecord
280
     1
340
C5
  0
DICTIONARYVAR
  5
2E5ED
102
{ACAD_REACTORS
330
443
102
}
330
443
100
DictionaryVariables
280
     0
  1
1:1
  0
DICTIONARYVAR
  5
2E5EA
102
{ACAD_REACTORS
330
443
102
}
330
443
100
DictionaryVariables
280
     0
  1
STANDARD
  0
DICTIONARYVAR
  5
2E5E9
102
{ACAD_REACTORS
330
443
102
}
330
443
100
DictionaryVariables
280
     0
  1
STANDARD
  0
DICTIONARYVAR
  5
2E5EB
102
{ACAD_REACTORS
330
443
102
}
330
443
100
DictionaryVariables
280
     0
  1
Metric50
  0
DICTIONARYVAR
  5
2E5EC
102
{ACAD_REACTORS
330
443
102
}
330
443
100
DictionaryVariables
280
     0
  1
Metric50
  0
DICTIONARYVAR
  5
444
102
{ACAD_REACTORS
330
443
102
}
330
443
100
DictionaryVariables
280
     0
  1
1
  0
DICTIONARYVAR
  5
445
102
{ACAD_REACTORS
330
443
102
}
330
443
100
DictionaryVariables
280
     0
  1

  0
DICTIONARYVAR
  5
2E5EE
102
{ACAD_REACTORS
330
443
102
}
330
443
100
DictionaryVariables
280
     0
  1
0
  0
DICTIONARY
  5
2E530
102
{ACAD_REACTORS
330
2E52E
102
}
330
2E52E
100
AcDbDictionary
281
     1
  0
DICTIONARY
  5
2E52F
102
{ACAD_REACTORS
330
2E52E
102
}
330
2E52E
100
AcDbDictionary
281
     1
  3
2127708872
350
2E529
  3
2127708880
350
2E52A
  3
2127708888
350
2E52B
  3
2127708896
350
2E52C
  3
2127708904
350
2E52D
  0
DICTIONARY
  5
2E5E7
330
2DB30
100
AcDbDictionary
280
     1
281
     1
  3
ACAD_XREC_ROUNDTRIP
360
2E5E8
  0
DICTIONARY
  5
2E531
330
A
100
AcDbDictionary
280
     1
281
     1
  3
ACAD_XREC_ROUNDTRIP
360
324AE
  3
ADSK_XREC_LAYOUTTHUMBNAIL
360
2E532
  0
DICTIONARY
  5
324AF
330
2F49C
100
AcDbDictionary
280
     1
281
     1
  3
ACAD_XREC_ROUNDTRIP
360
324B0
  0
DICTIONARY
  5
2DAF7
330
2DAF6
100
AcDbDictionary
280
     1
281
     1
  3
ACAD_XREC_ROUNDTRIP
360
2E5B0
  3
BUMPTILE
360
2DAF9
  3
DIFFUSETILE
360
2DAF8
  3
OPACITYTILE
360
2DAFC
  3
REFLECTIONTILE
360
2DAFB
  3
REFRACTIONTILE
360
2DAFD
  3
SPECULARTILE
360
2DAFA
  0
DICTIONARY
  5
2DAEF
330
2DAEE
100
AcDbDictionary
280
     1
281
     1
  3
ACAD_XREC_ROUNDTRIP
360
2E5AF
  3
BUMPTILE
360
2DAF1
  3
DIFFUSETILE
360
2DAF0
  3
OPACITYTILE
360
2DAF4
  3
REFLECTIONTILE
360
2DAF3
  3
REFRACTIONTILE
360
2DAF5
  3
SPECULARTILE
360
2DAF2
  0
DICTIONARY
  5
AF91
330
AF90
100
AcDbDictionary
280
     1
281
     1
  3
ACAD_XREC_ROUNDTRIP
360
2E53B
  3
BUMPTILE
360
AF93
  3
DIFFUSETILE
360
AF94
  3
OPACITYTILE
360
AF95
  3
REFLECTIONTILE
360
AF96
  3
REFRACTIONTILE
360
AF97
  3
SPECULARTILE
360
AF98
  0
DICTIONARY
  5
2E5E3
330
2DB2C
100
AcDbDictionary
280
     1
281
     1
  3
ACAD_XREC_ROUNDTRIP
360
2E5E4
  0
DICTIONARY
  5
2E5E5
330
2DB2E
100
AcDbDictionary
280
     1
281
     1
  3
ACAD_XREC_ROUNDTRIP
360
2E5E6
  0
DICTIONARY
  5
2E526
330
2DB18
100
AcDbDictionary
280
     1
281
     1
  3
ACAD_ROUNDTRIP_2008_TABLESTYLE_CELLSTYLEMAP
360
2E527
  3
ACAD_XREC_ROUNDTRIP
360
2E5E1
  0
DICTIONARY
  5
2E5BB
330
2DB04
100
AcDbDictionary
280
     1
281
     1
  3
ACAD_XREC_ROUNDTRIP
360
2E5BC
  0
DICTIONARY
  5
2E5B9
330
2DB03
100
AcDbDictionary
280
     1
281
     1
  3
ACAD_XREC_ROUNDTRIP
360
2E5BA
  0
DICTIONARY
  5
2E5C7
330
2DB0A
100
AcDbDictionary
280
     1
281
     1
  3
ACAD_XREC_ROUNDTRIP
360
2E5C8
  0
DICTIONARY
  5
2E5CF
330
2DB0E
100
AcDbDictionary
280
     1
281
     1
  3
ACAD_XREC_ROUNDTRIP
360
2E5D0
  0
DICTIONARY
  5
2E5C1
330
2DB07
100
AcDbDictionary
280
     1
281
     1
  3
ACAD_XREC_ROUNDTRIP
360
2E5C2
  0
DICTIONARY
  5
2E5C5
330
2DB09
100
AcDbDictionary
280
     1
281
     1
  3
ACAD_XREC_ROUNDTRIP
360
2E5C6
  0
DICTIONARY
  5
2E5DF
330
2DB16
100
AcDbDictionary
280
     1
281
     1
  3
ACAD_XREC_ROUNDTRIP
360
2E5E0
  0
DICTIONARY
  5
2E5CD
330
2DB0D
100
AcDbDictionary
280
     1
281
     1
  3
ACAD_XREC_ROUNDTRIP
360
2E5CE
  0
DICTIONARY
  5
2E5B1
330
2DAFF
100
AcDbDictionary
280
     1
281
     1
  3
ACAD_XREC_ROUNDTRIP
360
2E5B2
  0
DICTIONARY
  5
2E5B3
330
2DB00
100
AcDbDictionary
280
     1
281
     1
  3
ACAD_XREC_ROUNDTRIP
360
2E5B4
  0
DICTIONARY
  5
2E5B5
330
2DB01
100
AcDbDictionary
280
     1
281
     1
  3
ACAD_XREC_ROUNDTRIP
360
2E5B6
  0
DICTIONARY
  5
2E5B7
330
2DB02
100
AcDbDictionary
280
     1
281
     1
  3
ACAD_XREC_ROUNDTRIP
360
2E5B8
  0
DICTIONARY
  5
2E5BF
330
2DB06
100
AcDbDictionary
280
     1
281
     1
  3
ACAD_XREC_ROUNDTRIP
360
2E5C0
  0
DICTIONARY
  5
2E5DB
330
2DB14
100
AcDbDictionary
280
     1
281
     1
  3
ACAD_XREC_ROUNDTRIP
360
2E5DC
  0
DICTIONARY
  5
2E5CB
330
2DB0C
100
AcDbDictionary
280
     1
281
     1
  3
ACAD_XREC_ROUNDTRIP
360
2E5CC
  0
DICTIONARY
  5
2E5DD
330
2DB15
100
AcDbDictionary
280
     1
281
     1
  3
ACAD_XREC_ROUNDTRIP
360
2E5DE
  0
DICTIONARY
  5
2E5C3
330
2DB08
100
AcDbDictionary
280
     1
281
     1
  3
ACAD_XREC_ROUNDTRIP
360
2E5C4
  0
DICTIONARY
  5
2E5D9
330
2DB13
100
AcDbDictionary
280
     1
281
     1
  3
ACAD_XREC_ROUNDTRIP
360
2E5DA
  0
DICTIONARY
  5
2E5D7
330
2DB12
100
AcDbDictionary
280
     1
281
     1
  3
ACAD_XREC_ROUNDTRIP
360
2E5D8
  0
DICTIONARY
  5
2E5D1
330
2DB0F
100
AcDbDictionary
280
     1
281
     1
  3
ACAD_XREC_ROUNDTRIP
360
2E5D2
  0
DICTIONARY
  5
2E5D3
330
2DB10
100
AcDbDictionary
280
     1
281
     1
  3
ACAD_XREC_ROUNDTRIP
360
2E5D4
  0
DICTIONARY
  5
2E5C9
330
2DB0B
100
AcDbDictionary
280
     1
281
     1
  3
ACAD_XREC_ROUNDTRIP
360
2E5CA
  0
DICTIONARY
  5
2E5BD
330
2DB05
100
AcDbDictionary
280
     1
281
     1
  3
ACAD_XREC_ROUNDTRIP
360
2E5BE
  0
DICTIONARY
  5
2E5D5
330
2DB11
100
AcDbDictionary
280
     1
281
     1
  3
ACAD_XREC_ROUNDTRIP
360
2E5D6
  0
XRECORD
  5
2E529
102
{ACAD_REACTORS
330
2E52F
102
}
330
2E52F
100
AcDbXrecord
280
     1
  1
AcDb_Thumbnail_Schema
102
{ATTRRECORD
341
2E52A
  2
AcDbDs::TreatedAsObjectData
280
     1
291
     1
102
ATTRRECORD}
102
{ATTRRECORD
341
2E52B
  2
AcDbDs::Legacy
280
     1
291
     1
102
ATTRRECORD}
  2
AcDbDs::ID
280
    10
 91
        8
102
{ATTRRECORD
341
2E52C
  2
AcDs:Indexable
280
     1
291
     1
102
ATTRRECORD}
102
{ATTRRECORD
341
2E52D
  2
AcDbDs::HandleAttribute
280
     7
282
     1
102
ATTRRECORD}
  2
Thumbnail_Data
280
    15
 91
        0
  0
XRECORD
  5
2E52A
102
{ACAD_REACTORS
330
2E52F
102
}
330
2E52F
100
AcDbXrecord
280
     1
  1
AcDbDs::TreatedAsObjectDataSchema
  2
AcDbDs::TreatedAsObjectData
280
     1
 91
        0
  0
XRECORD
  5
2E52B
102
{ACAD_REACTORS
330
2E52F
102
}
330
2E52F
100
AcDbXrecord
280
     1
  1
AcDbDs::LegacySchema
  2
AcDbDs::Legacy
280
     1
 91
        0
  0
XRECORD
  5
2E52C
102
{ACAD_REACTORS
330
2E52F
102
}
330
2E52F
100
AcDbXrecord
280
     1
  1
AcDbDs::IndexedPropertySchema
  2
AcDs:Indexable
280
     1
 91
        0
  0
XRECORD
  5
2E52D
102
{ACAD_REACTORS
330
2E52F
102
}
330
2E52F
100
AcDbXrecord
280
     1
  1
AcDbDs::HandleAttributeSchema
  2
AcDbDs::HandleAttribute
280
     7
 91
        1
284
     1
  0
XRECORD
  5
2E5E8
102
{ACAD_REACTORS
330
2E5E7
102
}
330
2E5E7
100
AcDbXrecord
280
     1
102
DISPLAYNAME
  1
Metric50
102
FLAGS
 90
        0
  0
XRECORD
  5
324AE
102
{ACAD_REACTORS
330
2E531
102
}
330
2E531
100
AcDbXrecord
280
     1
102
SHADEPLOT
 70
     0
102
SHADEPLOTRESLEVEL
 70
     2
102
SHADEPLOTCUSTOMDPI
 70
   300
  0
XRECORD
  5
2E532
102
{ACAD_REACTORS
330
2E531
102
}
330
2E531
100
AcDbXrecord
280
     1
310
28000000000100007400000001000800000000000074000001000000010000000001000000000000000000FF000000FFFFFFFFFF000000FF000000FF000000FF000000FF000000FF000000FF000000FF000000FF330000FF660000FF990000FFCC0000FFFF0000FF003300FF333300FF663300FF993300FFCC3300FFFF3300
310
FF006600FF336600FF666600FF996600FFCC6600FFFF6600FF009900FF339900FF669900FF999900FFCC9900FFFF9900FF00CC00FF33CC00FF66CC00FF99CC00FFCCCC00FFFFCC00FF00FF00FF33FF00FF66FF00FF99FF00FFCCFF00FFFFFF00FF000033FF330033FF660033FF990033FFCC0033FFFF0033FF003333FF3333
310
33FF663333FF993333FFCC3333FFFF3333FF006633FF336633FF666633FF996633FFCC6633FFFF6633FF009933FF339933FF669933FF999933FFCC9933FFFF9933FF00CC33FF33CC33FF66CC33FF99CC33FFCCCC33FFFFCC33FF00FF33FF33FF33FF66FF33FF99FF33FFCCFF33FFFFFF33FF000066FF330066FF660066FF99
310
0066FFCC0066FFFF0066FF003366FF333366FF663366FF993366FFCC3366FFFF3366FF006666FF336666FF666666FF996666FFCC6666FFFF6666FF009966FF339966FF669966FF999966FFCC9966FFFF9966FF00CC66FF33CC66FF66CC66FF99CC66FFCCCC66FFFFCC66FF00FF66FF33FF66FF66FF66FF99FF66FFCCFF66FF
310
FFFF66FF000099FF330099FF660099FF990099FFCC0099FFFF0099FF003399FF333399FF663399FF993399FFCC3399FFFF3399FF006699FF336699FF666699FF996699FFCC6699FFFF6699FF009999FF339999FF669999FF999999FFCC9999FFFF9999FF00CC99FF33CC99FF66CC99FF99CC99FFCCCC99FFFFCC99FF00FF99
310
FF33FF99FF66FF99FF99FF99FFCCFF99FFFFFF99FF0000CCFF3300CCFF6600CCFF9900CCFFCC00CCFFFF00CCFF0033CCFF3333CCFF6633CCFF9933CCFFCC33CCFFFF33CCFF0066CCFF3366CCFF6666CCFF9966CCFFCC66CCFFFF66CCFF0099CCFF3399CCFF6699CCFF9999CCFFCC99CCFFFF99CCFF00CCCCFF33CCCCFF66CC
310
CCFF99CCCCFFCCCCCCFFFFCCCCFF00FFCCFF33FFCCFF66FFCCFF99FFCCFFCCFFCCFFFFFFCCFF0000FFFF3300FFFF6600FFFF9900FFFFCC00FFFFFF00FFFF0033FFFF3333FFFF6633FFFF9933FFFFCC33FFFFFF33FFFF0066FFFF3366FFFF6666FFFF9966FFFFCC66FFFFFF66FFFF0099FFFF3399FFFF6699FFFF9999FFFFCC
310
99FFFFFF99FFFF00CCFFFF33CCFFFF66CCFFFF99CCFFFFCCCCFFFFFFCCFFFF00FFFFFF33FFFFFF66FFFFFF99FFFFFFCCFFFFFFFFFFFFFF000000FF0D0D0DFF1A1A1AFF282828FF353535FF434343FF505050FF5D5D5DFF6B6B6BFF787878FF868686FF939393FFA1A1A1FFAEAEAEFFBBBBBBFFC9C9C9FFD6D6D6FFE4E4E4FF
310
F1F1F1FFFFFFFFFF000000FF000000FF000000FF000000FF000000FF000000FF000000FF000000FF000000FF0000000000000000000000000000000000000000000000000000000000000000000000000000000000000000000000000000000000000000000000000000000000000000000000000000000000000000000000
310
00000000000000000000000000000000000000000000000000000000000000000000000000000000000000000000000000000000000000000000000000000000000000000000000000000000000000000000000000000000000000000000000000000000000000000000000000000000000000000000000000000000000000
310
00000000000000000000000000000000000000000000000000000000000000000000000000000000000000000000000000000000000000000000000000000000000000000000000000000000000000000000000000000000000000000000000000000000000000000000000000000000000000000000000000000000000000
310
00000000000000000000000000000000000000000000000000000000000000000000000000000000000000000000000000000000000000000000000000000000000000000000000000000000000000000000000000000000000000000000000000000000000000000000000000000000000000000000000000000000000000
310
00000000000000000000000000000000000000000000000000000000000000000000000000000000000000000000000000000000000000000000000000000000000000000000000000000000000000000000000000000000000000000000000000000000000000000000000000000000000000000000000000000000000000
310
00000000000000000000000000000000000000000000000000000000000000000000000000000000000000000000000000000000000000000000000000000000000000000000000000000000000000000000000000000000000000000000000000000000000000000000000000000000000000000000000000000000000000
310
00000000000000000000000000000000000000000000000000000000000000000000000000000000000000000000000000000000000000000000000000000000000000000000000000000000000000000000000000000000000000000000000000000000000000000000000000000000000000000000000000000000000000
310
00000000000000000000000000000000000000000000000000000000000000000000000000000000000000000000000000000000000000000000000000000000000000000000000000000000000000000000000000000000000000000000000000000000000000000000000000000000000000000000000000000000000000
310
00000000000000000000000000000000000000000000000000000000000000000000000000000000000000000000000000000000000000000000000000000000000000000000000000000000000000000000000000000000000000000000000000000000000000000000000000000000000000000000000000000000000000
310
00000000000000000000000000000000000000000000000000000000000000000000000000000000000000000000000000000000000000000000000000000000000000000000000000000000000000000000000000000000000000000000000000000000000000000000000000000000000000000000000000000000000000
310
00000000000000000000000000000000000000000000000000000000000000000000000000000000000000000000000000000000000000000000000000000000000000000000000000000000000000000000000000000000000000000000000000000000000000000000000000000000000000000000000000000000000000
310
00000000000000000000000000000000000000000000000000000000000000000000000000000000000000000000000000000000000000000000000000000000000000000000000000000000000000000000000000000000000000000000000000000000000000000000000000000000000000000000000000000000000000
310
00000000000000000000000000000000000000000000000000000000000000000000000000000000000000000000000000000000000000000000000000000000000000000000000000000000000000000000000000000000000000000000000000000000000000000000000000000000000000000000000000000000000000
310
00000000000000000000000000000000000000000000000000000000000000000000000000000000000000000000000000000000000000000000000000000000000000000000000000000000000000000000000000000000000000000000000000000000000000000000000000000000000000000000000000000000000000
310
00000000000000000000000000000000000000000000000000000000000000000000000000000000000000000000000000000000000000000000000000000000000000000000000000000000000000000000000000000000000000000000000000000000000000000000000000000000000000000000000000000000000000
310
00000000000000000000000000000000000000000000000000000000000000000000000000000000000000000000000000000000000000000000000000000000000000000000000000000000000000000000000000000000000000000000000000000000000000000000000000000000000000000000000000000000000000
310
00000000000000000000000000000000000000000000000000000000000000000000000000000000000000000000000000000000000000000000000000000000000000000000000000000000000000000000000000000000000000000000000000000000000000000000000000000000000000000000000000000000000000
310
00000000000000000000000000000000000000000000000000000000000000000000000000000000000000000000000000000000000000000000000000000000000000000000000000000000000000000000000000000000000000000000000000000000000000000000000000000000000000000000000000000000000000
310
00000000000000000000000000000000000000000000000000000000000000000000000000000000000000000000000000000000000000000000000000000000000000000000000000000000000000000000000000000000000000000000000000000000000000000000000000000000000000000000000000000000000000
310
00000000000000000000000000000000000000000000000000000000000000000000000000000000000000000000000000000000000000000000000000000000000000000000000000000000000000000000000000000000000000000000000000000000000000000000000000000000000000000000000000000000000000
310
00000000000000000000000000000000000000000000000000000000000000000000000000000000000000000000000000000000000000000000000000000000000000000000000000000000000000000000000000000000000000000000000000000000000000000000000000000000000000000000000000000000000000
310
00000000000000000000000000000000000000000000000000000000000000000000000000000000000000000000000000000000000000000000000000000000000000000000000000000000000000000000000000000000000000000000000000000000000000000000000000000000000000000000000000000000000000
310
00000000000000000000000000000000000000000000000000000000000000000000000000000000000000000000000000000000000000000000000000000000000000000000000000000000000000000000000000000000000000000000000000000000000000000000000000000000000000000000000000000000000000
310
00000000000000000000000000000000000000000000000000000000000000000000000000000000000000000000000000000000000000000000000000000000000000000000000000000000000000000000000000000000000000000000000000000000000000000000000000000000000000000000000000000000000000
310
00000000000000000000000000000000000000000000000000000000000000000000000000000000000000000000000000000000000000000000000000000000000000000000000000000000000000000000000000000000000000000000000000000000000000000000000000000000000000000000000000000000000000
310
00000000000000000000000000000000000000000000000000000000000000000000000000000000000000000000000000000000000000000000000000000000000000000000000000000000000000000000000000000000000000000000000000000000000000000000000000000000000000000000000000000000000000
310
00000000000000000000000000000000000000000000000000000000000000000000000000000000000000000000000000000000000000000000000000000000000000000000000000000000000000000000000000000000000000000000000000000000000000000000000000000000000000000000000000000000000000
310
00000000000000000000000000000000000000000000000000000000000000000000000000000000000000000000000000000000000000000000000000000000000000000000000000000000000000000000000000000000000000000000000000000000000000000000000000000000000000000000000000000000000000
310
00000000000000000000000000000000000000000000000000000000000000000000000000000000000000000000000000000000000000000000000000000000000000000000000000000000000000000000000000000000000000000000000000000000000000000000000000000000000000000000000000000000000000
310
00000000000000000000000000000000000000000000000000000000000000000000000000000000000000000000000000000000000000000000000000000000000000000000000000000000000000000000000000000000000000000000000000000000000000000000000000000000000000000000000000000000000000
310
00000000000000000000000000000000000000000000000000000000000000000000000000000000000000000000000000000000000000000000000000000000000000000000000000000000000000000000000000000000000000000000000000000000000000000000000000000000000000000000000000000000000000
310
00000000000000000000000000000000000000000000000000000000000000000000000000000000000000000000000000000000000000000000000000000000000000000000000000000000000000000000000000000000000000000000000000000000000000000000000000000000000000000000000000000000000000
310
00000000000000000000000000000000000000000000000000000000000000000000000000000000000000000000000000000000000000000000000000000000000000000000000000000000000000000000000000000000000000000000000000000000000000000000000000000000000000000000000000000000000000
310
00000000000000000000000000000000000000000000000000000000000000000000000000000000000000000000000000000000000000000000000000000000000000000000000000000000000000000000000000000000000000000000000000000000000000000000000000000000000000000000000000000000000000
310
00000000000000000000000000000000000000000000000000000000000000000000000000000000000000000000000000000000000000000000000000000000000000000000000000000000000000000000000000000000000000000000000000000000000000000000000000000000000000000000000000000000000000
310
00000000000000000000000000000000000000000000000000000000000000000000000000000000000000000000000000000000000000000000000000000000000000000000000000000000000000000000000000000000000000000000000000000000000000000000000000000000000000000000000000000000000000
310
00000000000000000000000000000000000000000000000000000000000000000000000000000000000000000000000000000000000000000000000000000000000000000000000000000000000000000000000000000000000000000000000000000000000000000000000000000000000000000000000000000000000000
310
00000000000000000000000000000000000000000000000000000000000000000000000000000000000000000000000000000000000000000000000000000000000000000000000000000000000000000000000000000000000000000000000000000000000000000000000000000000000000000000000000000000000000
310
00000000000000000000000000000000000000000000000000000000000000000000000000000000000000000000000000000000000000000000000000000000000000000000000000000000000000000000000000000000000000000000000000000000000000000000000000000000000000000000000000000000000000
310
00000000000000000000000000000000000000000000000000000000000000000000000000000000000000000000000000000000000000000000000000000000000000000000000000000000000000000000000000000000000000000000000000000000000000000000000000000000000000000000000000000000000000
310
00000000000000000000000000000000000000000000000000000000000000000000000000000000000000000000000000000000000000000000000000000000000000000000000000000000000000000000000000000000000000000000000000000000000000000000000000000000000000000000000000000000000000
310
00000000000000000000000000000000000000000000000000000000000000000000000000000000000000000000000000000000000000000000000000000000000000000000000000000000000000000000000000000000000000000000000000000000000000000000000000000000000000000000000000000000000000
310
00000000000000000000000000000000000000000000000000000000000000000000000000000000000000000000000000000000000000000000000000000000000000000000000000000000000000000000000000000000000000000000000000000000000000000000000000000000000000000000000000000000000000
310
00000000000000000000000000000000000000000000000000000000000000000000000000000000000000000000000000000000000000000000000000000000000000000000000000000000000000000000000000000000000000000000000000000000000000000000000000000000000000000000000000000000000000
310
00000000000000000000000000000000000000000000000000000000000000000000000000000000000000000000000000000000000000000000000000000000000000000000000000000000000000000000000000000000000000000000000000000000000000000000000000000000000000000000000000000000000000
310
00000000000000000000000000000000000000000000000000000000000000000000000000000000000000000000000000000000000000000000000000000000000000000000000000000000000000000000000000000000000000000000000000000000000000000000000000000000000000000000000000000000000000
310
00000000000000000000000000000000000000000000000000000000000000000000000000000000000000000000000000000000000000000000000000000000000000000000000000000000000000000000000000000000000000000000000000000000000000000000000000000000000000000000000000000000000000
310
00000000000000000000000000000000000000000000000000000000000000000000000000000000000000000000000000000000000000000000000000000000000000000000000000000000000000000000000000000000000000000000000000000000000000000000000000000000000000000000000000000000000000
310
00000000000000000000000000000000000000000000000000000000000000000000000000000000000000000000000000000000000000000000000000000000000000000000000000000000000000000000000000000000000000000000000000000000000000000000000000000000000000000000000000000000000000
310
00000000000000000000000000000000000000000000000000000000000000000000000000000000000000000000000000000000000000000000000000000000000000000000000000000000000000000000000000000000000000000000000000000000000000000000000000000000000000000000000000000000000000
310
00000000000000000000000000000000000000000000000000000000000000000000000000000000000000000000000000000000000000000000000000000000000000000000000000000000000000000000000000000000000000000000000000000000000000000000000000000000000000000000000000000000000000
310
00000000000000000000000000000000000000000000000000000000000000000000000000000000000000000000000000000000000000000000000000000000000000000000000000000000000000000000000000000000000000000000000000000000000000000000000000000000000000000000000000000000000000
310
00000000000000000000000000000000000000000000000000000000000000000000000000000000000000000000000000000000000000000000000000000000000000000000000000000000000000000000000000000000000000000000000000000000000000000000000000000000000000000000000000000000000000
310
00000000000000000000000000000000000000000000000000000000000000000000000000000000000000000000000000000000000000000000000000000000000000000000000000000000000000000000000000000000000000000000000000000000000000000000000000000000000000000000000000000000000000
310
00000000000000000000000000000000000000000000000000000000000000000000000000000000000000000000000000000000000000000000000000000000000000000000000000000000000000000000000000000000000000000000000000000000000000000000000000000000000000000000000000000000000000
310
00000000000000000000000000000000000000000000000000000000000000000000000000000000000000000000000000000000000000000000000000000000000000000000000000000000000000000000000000000000000000000000000000000000000000000000000000000000000000000000000000000000000000
310
00000000000000000000000000000000000000000000000000000000000000000000000000000000000000000000000000000000000000000000000000000000000000000000000000000000000000000000000000000000000000000000000000000000000000000000000000000000000000000000000000000000000000
310
00000000000000000000000000000000000000000000000000000000000000000000000000000000000000000000000000000000000000000000000000000000000000000000000000000000000000000000000000000000000000000000000000000000000000000000000000000000000000000000000000000000000000
310
00000000000000000000000000000000000000000000000000000000000000000000000000000000000000000000000000000000000000000000000000000000000000000000000000000000000000000000000000000000000000000000000000000000000000000000000000000000000000000000000000000000000000
310
00000000000000000000000000000000000000000000000000000000000000000000000000000000000000000000000000000000000000000000000000000000000000000000000000000000000000000000000000000000000000000000000000000000000000000000000000000000000000000000000000000000000000
310
00000000000000000000000000000000000000000000000000000000000000000000000000000000000000000000000000000000000000000000000000000000000000000000000000000000000000000000000000000000000000000000000000000000000000000000000000000000000000000000000000000000000000
310
00000000000000000000000000000000000000000000000000000000000000000000000000000000000000000000000000000000000000000000000000000000000000000000000000000000000000000000000000000000000000000000000000000000000000000000000000000000000000000000000000000000000000
310
00000000000000000000000000000000000000000000000000000000000000000000000000000000000000000000000000000000000000000000000000000000000000000000000000000000000000000000000000000000000000000000000000000000000000000000000000000000000000000000000000000000000000
310
00000000000000000000000000000000000000000000000000000000000000000000000000000000000000000000000000000000000000000000000000000000000000000000000000000000000000000000000000000000000000000000000000000000000000000000000000000000000000000000000000000000000000
310
00000000000000000000000000000000000000000000000000000000000000000000000000000000000000000000000000000000000000000000000000000000000000000000000000000000000000000000000000000000000000000000000000000000000000000000000000000000000000000000000000000000000000
310
00000000000000000000000000000000000000000000000000000000000000000000000000000000000000000000000000000000000000000000000000000000000000000000000000000000000000000000000000000000000000000000000000000000000000000000000000000000000000000000000000000000000000
310
00000000000000000000000000000000000000000000000000000000000000000000000000000000000000000000000000000000000000000000000000000000000000000000000000000000000000000000000000000000000000000000000000000000000000000000000000000000000000000000000000000000000000
310
00000000000000000000000000000000000000000000000000000000000000000000000000000000000000000000000000000000000000000000000000000000000000000000000000000000000000000000000000000000000000000000000000000000000000000000000000000000000000000000000000000000000000
310
00000000000000000000000000000000000000000000000000000000000000000000000000000000000000000000000000000000000000000000000000000000000000000000000000000000000000000000000000000000000000000000000000000000000000000000000000000000000000000000000000000000000000
310
00000000000000000000000000000000000000000000000000000000000000000000000000000000000000000000000000000000000000000000000000000000000000000000000000000000000000000000000000000000000000000000000000000000000000000000000000000000000000000000000000000000000000
310
00000000000000000000000000000000000000000000000000000000000000000000000000000000000000000000000000000000000000000000000000000000000000000000000000000000000000000000000000000000000000000000000000000000000000000000000000000000000000000000000000000000000000
310
00000000000000000000000000000000000000000000000000000000000000000000000000000000000000000000000000000000000000000000000000000000000000000000000000000000000000000000000000000000000000000000000000000000000000000000000000000000000000000000000000000000000000
310
00000000000000000000000000000000000000000000000000000000000000000000000000000000000000000000000000000000000000000000000000000000000000000000000000000000000000000000000000000000000000000000000000000000000000000000000000000000000000000000000000000000000000
310
00000000000000000000000000000000000000000000000000000000000000000000000000000000000000000000000000000000000000000000000000000000000000000000000000000000000000000000000000000000000000000000000000000000000000000000000000000000000000000000000000000000000000
310
00000000000000000000000000000000000000000000000000000000000000000000000000000000000000000000000000000000000000000000000000000000000000000000000000000000000000000000000000000000000000000000000000000000000000000000000000000000000000000000000000000000000000
310
00000000000000000000000000000000000000000000000000000000000000000000000000000000000000000000000000000000000000000000000000000000000000000000000000000000000000000000000000000000000000000000000000000000000000000000000000000000000000000000000000000000000000
310
00000000000000000000000000000000000000000000000000000000000000000000000000000000000000000000000000000000000000000000000000000000000000000000000000000000000000000000000000000000000000000000000000000000000000000000000000000000000000000000000000000000000000
310
00000000000000000000000000000000000000000000000000000000000000000000000000000000000000000000000000000000000000000000000000000000000000000000000000000000000000000000000000000000000000000000000000000000000000000000000000000000000000000000000000000000000000
310
00000000000000000000000000000000000000000000000000000000000000000000000000000000000000000000000000000000000000000000000000000000000000000000000000000000000000000000000000000000000000000000000000000000000000000000000000000000000000000000000000000000000000
310
00000000000000000000000000000000000000000000000000000000000000000000000000000000000000000000000000000000000000000000000000000000000000000000000000000000000000000000000000000000000000000000000000000000000000000000000000000000000000000000000000000000000000
310
00000000000000000000000000000000000000000000000000000000000000000000000000000000000000000000000000000000000000000000000000000000000000000000000000000000000000000000000000000000000000000000000000000000000000000000000000000000000000000000000000000000000000
310
00000000000000000000000000000000000000000000000000000000000000000000000000000000000000000000000000000000000000000000000000000000000000000000000000000000000000000000000000000000000000000000000000000000000000000000000000000000000000000000000000000000000000
310
00000000000000000000000000000000000000000000000000000000000000000000000000000000000000000000000000000000000000000000000000000000000000000000000000000000000000000000000000000000000000000000000000000000000000000000000000000000000000000000000000000000000000
310
00000000000000000000000000000000000000000000000000000000000000000000000000000000000000000000000000000000000000000000000000000000000000000000000000000000000000000000000000000000000000000000000000000000000000000000000000000000000000000000000000000000000000
310
0000000000000000000000F5F5F5F5F5F5F5F5F5F5F5F5F5F5F5F5F5F5F5F5F5F5F5F5F5F5F5F5F5F5F5F5F5F5F5F5F5F5F5F5F5F5F5F5F5F50000000000F5F5F5F5F5F5F5F5F5F5F5F5F5F5F5F5F5F5F5F5F5F5F5F5F5F5F5F5F5F5F5F5F5F5F5F5F5F5F5F5F5F5F5F5F5F500000000F5F5F5F5F5F5F5F5F5F5F5F5F5F5F5
310
F5F5F5F5F50000000000000000000000000000000000000000000000000000000000000000000000000000000000000000000000000000000000000000000000000000000000000000000000000000000000000000000000000000000000000000000000000000000000000000000000000000000000000000000000000000
310
00000000000000000000000000F50000000000000000000000000000000000000000000000000000000000000000000000000000000000000000F50000000000F50000000000000000000000000000000000000000000000000000000000000000000000000000000000000000F500000000F5000000000000000000000000
310
00000000000000000000000000000000000000000000000000000000000000000000000000000000000000000000000000000000000000000000000000000000000000000000000000000000000000000000000000000000000000000000000000000000000000000000000000000000000000000000000000000000000000
310
000000000000000000000000000000F50000000000000000000000000000000000000000000000000000000000000000000000000000000000000000F50000000000F50000000000000000000000000000000000000000000000000000000000000000000000000000000000000000F500000000F500000000000000000000
310
00000000000000000000000000000000000000000000000000000000000000000000000000000000000000000000000000000000000000000000000000000000000000000000000000000000000000000000000000000000000000000000000000000000000000000000000000000000000000000000000000000000000000
310
0000000000000000000000000000000000F50000000000000000000000000000000000000000000000000000000000000000000000000000000000000000F50000000000F50000000000000000000000000000000000000000000000000000000000000000000000000000000000000000F500000000F50000000000000000
310
00000000000000000000000000000000000000000000000000000000000000000000000000000000000000000000000000000000000000000000000000000000000000000000000000000000000000000000000000000000000000000000000000000000000000000000000000000000000000000000000000000000000000
310
0000000000000000F5F5F5F5F5F5F5F5F5F500F50000000000000000000000000000000000000000000000000000000000000000000000000000000000000000F50000000000F50000000000000000000000000000000000000000000000000000000000000000000000000000000000000000F500000000F5000000000000
310
00000000000000000000000000000000000000000000000000000000000000000000000000000000000000000000000000000000000000000000000000000000000000000000000000000000000000000000000000000000000000000000000000000000000000000000000000000000000000000000000000000000000000
310
00000000000000000000F5002D282828282800F500F500000000000028BE2828282828282828282828282828282828282828282828282828BE280000000000000000F50000000000F5000000000000BE28282828282828282828282828282828282828282828282828282828000000000000000000F500000000F500000000
310
000000BE282828282828282828282800000000000000000000000000000000000000000000000000000000000000000000000000000000000000000000000000000000000000000000000000000000000000000000000000000000000000000000000000000000000000000000000000000000000000000000000000000000
310
000000000000000000000000F50028282828282800F500F50000000000002828000000000000000000000000000000000000000000000000000028280000000000000000F50000000000F5000000000000282D00000000000000000000000000000000000000000000000000002D000000000000000000F500000000F50000
310
000000002D2800000000000000000000000000000000000000000000000000000000000000000000000000000000000000000000000000000000000000000000000000000000000000000000000000000000000000000000000000000000000000000000000000000000000000000000000000000000000000000000000000
310
0000000000000000000000000000F5002D280000000000F500F500000000000000282D2D2D2D2D2D2D2D2D2D2D2D2D282D2D2D2D2D2D2D2D2D2D2D2D2D2D0000000000000000F50000000000F50000000000000028282D2D2D2D2D2D2D2D2D2D2D2D282D2D2D2D2D2D2D2D2D2D2D2D2D000000000000000000F500000000F5
310
00000000000000282D2D2D2D2D2D2D2D2D2D2D000000000000000000000000000000000000000000000000000000000000000000000000000000000000000000000000000000000000000000000000000000000000000000000000000000000000000000000000000000000000000000000000000000000000000000000000
310
00000000000000000000000000000000F5F5F5F5F5F5F5F5F5F500F5000000002D28282D282828282828282828282828BE28282828282828282828282828BE282828280000000000F50000000000F5000000002D28BEBEBEBEBEBEBEBEBEBEBEBEBEBEBEBEBEBEBEBEBEBEBEBEBEBEBEBEBE282D28280000000000F5000000
310
00F5000000002D282D2828282D282828282828282800000000000000000000000000000000000000000000000000000000000000000000000000000000000000000000000000000000000000000000000000000000000000000000000000000000000000000000000000000000000000000000000000000000000000000000
310
0000000000000000000000000000000000000000000000000000000000F500000000002D282D282D00000000000000000000000000000000000000000000000028282800BE0000000000F50000000000F5000000002D2DBE28282800000000000000000000000000000000000000000000000028282D00BE0000000000F500
310
000000F500000000002D002D282D2D00000000000000000000000000000000000000000000000000000000000000000000000000000000000000000000000000000000000000000000000000000000000000000000000000000000000000000000000000000000000000000000000000000000000000000000000000000000
310
00000000000000000000000000000000000000000000000000000000000000F500000000002D282D002D00000000000000000000000000000000000000000000000028282D00BE0000000000F50000000000F5000000002D2DBE2D002D00000000000000000000000000000000000000000000000028282D00BE0000000000
310
F500000000F500000000002D002D002D000000000000000000000000000000000000000000000000000000000000000000000000000000000000000000000000000000000000000000000000000000000000000000000000000000000000000000000000000000000000000000000000000000000000000000000000000000
310
000000000000000000000000000000000000000000000000000000000000000000F500000000002D282D002D00000000000000000000000000000000000000000000000028BE2D00280000000000F50000000000F500000000282DBE2D002D000000000000000000000000000000000000000000000000282D000028000000
310
0000F500000000F500000000002D002D002D00000000000000000000000000000000000000000000000000000000000000000000000000000000000000000000000000000000000000000000000000000000000000000000000000000000000000000000000000000000000000000000000000000000000000000000000000
310
00000000000000000000000000000000000000000000000000000000F5F5F5F5F50000F500000000002D282D002D00000000000000000000000000000000000000000000000028BE2D00280000000000F50000000000F5000000002D2DBE2D002D000000000000000000000000000000000000000000000000282D00002800
310
00000000F500000000F500000000002D002D002D0000000000000000000000000000000000000000000000000000000000000000000000000000000000000000000000000000000000000000000000000000000000000000000000000000000000000000000000000000000000000000000000000000000000000000000000
310
000000000000000000000000000000000000000000000000000000000000F5000000F50000F500000000282D2D28282800000000000000000000000000000000000000000000000028282800280000000000F50000000000F5000000002D2DBE2D002D000000000000000000000000000000000000000000000000282D0000
310
280000000000F500000000F500000000002D002D002D000000000000000000000000000000000000000000000000000000000000000000000000000000000000000000000000000000000000000000000000000000000000000000000000000000000000000000000000000000000000000000000000000000000000000000
310
00000000000000000000000000000000000000000000C3C3C300000000000000F5282800F50000F500000000282D2828282800000000000000000000000000000000000000000000000028BE2800280000000000F50000000000F5000000002D28BE2828280000000000000000000000000000000000000000000000002828
310
0000280000000000F500000000F5000000002828002D2D2800000000000000000000000000000000000000000000000000000000000000000000000000000000000000000000000000000000000000000000000000000000000000000000000000000000000000000000000000000000000000000000000000000000000000
310
00000000000000000000000000000000000000C328280000C3C3C3C300C300000000F5F5F5F5F50000F500000000002D2828002D00000000000000000000000000000000000000000000000028BE2D00280000000000F50000000000F5000000002D2DBE282D2D000000000000000000000000000000000000000000000000
310
282D0000280000000000F500000000F50000000028282D2828280000000000000000000000000000000000000000000000000000000000000000000000000000000000000000000000000000000000000000000000000000000000000000000000000000000000000000000000000000000000000000000000000000000000
310
0000000000000000000000000000000000000000C30F0FC30000C30FBEC300C30000000000000000000000F500000000002D2828002D0000000000000000000000000000000000000000000000002D282D00280000000000F50000000000F5000000002D2DBE00002D00000000000000000000000000000000000000000000
310
0000282D0000280000000000F500000000F500000000002D0028282D000000000000000000000000000000000000000000000000000000000000000000000000000000000000000000000000000000000000000000000000000000000000000000000000000000000000000000000000000000000000000000000000000000
310
00000000000000000000000000000000000000000000000F0F280000C300000000000000000000000000000000F500000000002D2828002D00000000000000000000000000000000000000000000000028282D00280000000000F50000000000F500000000282DBE00002D0000000000000000000000000000000000000000
310
00000000282D0000280000000000F500000000F500000000002D0028002D00000000000000000000000000000000000000000000000000000000000000000000000000000000000000000000000000000000000000000000000000000000000000000000000000000000000000000000000000000000000000000000000000
310
0000000000000000000000000000000000000000000000000000000000000000000000000000000000000000000000F5000000002D2D2D28282D28282828282828282828BE28282828282828282828282828BE282D28280000000000F50000000000F5000000002D2DBE00002D000000000000000000000000000000000000
310
00000000000028282D00280000000000F500000000F500000000002D0028002D0000000000000000000000000000000000000000000000000000000000000000000000000000000000000000000000000000000000000000000000000000000000000000000000000000000000000000000000000000000000000000000000
310
00000000000000000000000000000000000000000000000000000000000000000000000000000000000000000000000000F5000000002D2D282D2D28BEBEBEBEBEBEBEBEBEBEBE28BEBEBEBEBEBEBEBEBEBEBEBE28282D28280000000000F50000000000F5000000002D2DBE28282800000000000000000000002D28000000
310
000000000000000028282D2D280000000000F500000000F500000000002D0028002D000000000000000000000000000000000000000000000000000000000000000000000000000000000000000000000000000000000000000000000000000000000000000000000000000000000000000000000000000000000000000000
310
000000000000000000000000000000000000000000000000000000000000000000000000000000000000000000000000000000F50000000000002D2D2D2D2D2D2D2D2D2D2D2D2D2D28282D2D2D2D2D2D2D2D2D2D2D2D2D280000282800000000F50000000000F5000000002D28282828282828282828282828282828282828
310
2828282828282828282828282D28280000000000F500000000F500000000002D0028282D2D000000000000000000000000000000000000000000000000000000000000000000000000000000000000000000000000000000000000000000000000000000000000000000000000000000000000000000000000000000000000
310
0000000000000000000000000000000000000000000000000000000000000000000000000000000000000000000000000000000000F50000000000000000000000000000000000000000000000000000000000000000000000000000000000000000F50000000000F5000000000000282D2D2D2D2D2D282D2D2D2D2D2D282D
310
2D2D2D2D2D282D2D2D2D2D2D28000000280000000000F500000000F5000000002D2D2D2828282D28282828282828280000000000000000000000000000000000000000000000000000000000000000000000000000000000000000000000000000000000000000000000000000000000000000000000000000000000000000
310
00000000000000000000000000000000000000000000000000000000000000000000000000000000000000000000000000000000000000F50000000000000000000000000000000000000000000000000000000000000000000000000000000000000000F50000000000F50000000000002D00000000000000000000000000
310
28000000000000000000000000002D000000280000000000F500000000F50000000000002D2D2D2D2D2D2D28282D2D2D2D000000000000000000000000000000000000000000000000000000000000000000000000000000000000000000000000000000000000000000000000000000000000000000000000000000000000
310
000000000000000000000000000000000000000000000000000000000000000000000000000000000000000000000000000000000000000000F50000000000000000000000000000000000000000000000000000000000000000000000000000000000000000F50000000000F5000000000000000000000000000000000000
310
0000000000000000000000000000000000000000000000000000F500000000F5000000000000002D2D2D2D2D2D2D2D2D2D2D2D00000000000000000000000000000000000000000000000000000000000000000000000000000000000000000000000000000000000000000000000000000000000000000000000000000000
310
0000000000000000000000000000000000000000000000000000000000000000000000000000000000000000000000000000000000000000000000F50000000000000000000000000000000000000000000000000000000000000000000000000000000000000000F50000000000F500000000000000000000000000000000
310
00000000000000000000000000000000000000000000000000000000F500000000F5000000000000000000000000000000000000000000000000000000000000000000000000000000000000000000000000000000000000000000000000000000000000000000000000000000000000000000000000000000000000000000
310
00000000000000000000000000000000000000000000000000000000000000000000000000000000000000000000000000000000000000000000000000F50000000000000000000000000000000000000000000000000000000000000000000000000000000000000000F50000000000F50000000000000000000000000000
310
000000000000000000000000000000000000000000000000000000000000F500000000F500000000000000000000000000000000000000000000000000000000000000000000000000000000000000000000000000000000000000000000000000000000000000000000000000000000000000000000000000000000000000
310
000000000000000000000000000000000000000000000000000000000000000000000000000000000000000000000000000000000000000000000000000000F50000000000000000000000000000000000000000000000000000000000000000000000000000000000000000F50000000000F5000000000000000000000000
310
0000000000000000000000000000000000000000000000000000000000000000F500000000F50000000000000000000000000000000000000000000000000000000000000000000000000000000000000000000000000000000000000000000000000000000000000000000000000000000000000000000000000000000000
310
0000000000000000000000000000000000000000000000000000000000000000000000000000000000000000000000000000000000000000000000000000000000F5F5F5F5F5F5F5F5F5F5F5F5F5F5F5F5F5F5F5F5F5F5F5F5F5F5F5F5F5F5F5F5F5F5F5F5F5F5F5F5F5F5F5F5F5F50000000000F5F5F5F5F5F5F5F5F5F5F5
310
F5F5F5F5F5F5F5F5F5F5F5F5F5F5F5F5F5F5F5F5F5F5F5F5F5F5F5F5F5F5F5F5F5F5F500000000F5F5F5F5F5F5F5F5F5F5F5F5F5F5F5F5F5F5F5F50000000000000000000000000000000000000000000000000000000000000000000000000000000000000000000000000000000000000000000000000000000000000000
310
00000000000000000000000000000000000000000000000000000000000000000000000000000000000000000000000000000000000000000000000000000000000000000000000000000000000000000000000000000000000000000000000000000000000000000000000000000000000000000000000000000000000000
310
00000000000000000000000000000000000000000000000000000000000000000000000000000000000000000000000000000000000000000000000000000000000000000000000000000000000000000000000000000000000000000000000000000000000000000000000000000000000000000000000000000000000000
310
00000000000000000000000000000000000000000000000000000000000000000000000000000000000000000000000000000000000000000000000000000000000000000000000000000000000000000000000000000000000000000000000000000000000000000000000000000000000000000000000000000000000000
310
00000000000000000000000000000000000000000000000000000000000000000000000000000000000000000000000000000000000000000000000000000000000000000000000000000000000000000000000000000000000000000000000000000000000000000000000000000000000000000000000000000000000000
310
00000000000000000000000000000000000000000000000000000000000000000000000000000000000000000000000000000000000000000000000000000000000000000000000000000000000000000000000000000000000000000000000000000000000000000000000000000000000000000000000000000000000000
310
00000000000000000000000000000000000000000000000000000000000000000000000000000000000000000000000000000000000000000000000000000000000000000000000000000000000000000000000000000000000000000000000000000000000000000000000000000000000000000000000000000000000000
310
00000000000000000000000000000000000000000000000000000000000000000000000000000000000000000000000000000000000000000000000000000000000000000000000000000000000000000000000000000000000000000000000000000000000000000000000000000000000000000000000000000000000000
310
00000000000000000000000000000000000000000000000000000000000000000000000000000000000000000000000000000000000000000000000000000000000000000000000000000000000000000000000000000000000000000000000000000000000000000000000000000000000000000000000000000000000000
310
00000000000000000000000000000000000000000000000000000000000000000000000000000000000000000000000000000000000000000000000000000000000000000000000000000000000000000000000000000000000000000000000000000000000000000000000000000000000000000000000000000000000000
310
00000000000000000000000000000000000000000000000000000000000000000000000000000000000000000000000000000000000000000000000000000000000000000000000000000000000000000000000000000000000000000000000000000000000000000000000000000000000000000000000000000000000000
310
0000000000000000000000000000000000000000000000000000000000000000000000000000000000000000000000000000000000000000000000000000000000000000000000000000000000F5F5F5F5F5F5F5F5F5F5F5F5F5F5F5F5F5F5F5F5F5F5F5F5F5F5F5F5F5F5F5F5F5F5F5F5F5F5F5F5F5F5F5F5F5F500000000
310
00F5F5F5F5F5F5F5F5F5F5F5F5F5F5F5F5F5F5F5F5F5F5F5F5F5F5F5F5F5F5F5F5F5F5F5F5F5F5F5F5F5F5F5F5F5F500000000F5F5F5F5F5F5F5F5F5F5F5F5F5F5F5F5F5F5F5F50000000000000000000000000000000000000000000000000000000000000000000000000000000000000000000000000000000000000000
310
00000000000000000000000000000000000000000000000000000000000000000000000000000000000000000000000000000000000000000000000000000000000000000000000000000000000000F50000000000000000000000000000000000000000000000000000000000000000000000000000000000000000F50000
310
000000F50000000000000000000000000000000000000000000000000000000000000000000000000000000000000000F500000000F500000000000000000000000000000000000000000000000000000000000000000000000000000000000000000000000000000000000000000000000000000000000000000000000000
310
000000000000000000000000000000000000000000000000000000000000000000000000000000000000000000000000000000000000000000000000000000000000000000000000000000000000000000F50000000000000000000000000000000000000000000000000000000000000000000000000000000000000000F5
310
0000000000F50000000000000000000000000000000000000000000000000000000000000000000000000000000000000000F500000000F50000000000000000000000000000000000000000000000000000000000000000000000000000000000000000000000000000000000000000000000000000000000000000000000
310
0000000000000000000000000000000000000000000000000000000000000000000000000000000000000000000000000000000000000000000000000000000000000000000000000000000000000000000000F500000000000000000000000000000000000000000000000000000000000000000000000000000000000000
310
00F50000000000F50000000000000000000000000000000000000000000000000000000000000000000000000000000000000000F500000000F5000000000000000000000000000000000000000000000000000000000000000000000000000000000000000000000000000000000000000000000000000000000000000000
310
00000000000000000000000000000000000000000000000000000000000000000000000000000000000000000000000000000000000000000000000000000000000000000000000000000000000000000000000000F50000000000000000000000000000000000000000000000000000000000000000000000000000000000
310
000000F50000000000F50000000000000000000000000000000000000000000000000000000000000000000000000000000000000000F500000000F500000000000000000000000000000000000000000000000000000000000000000000000000000000000000000000000000000000000000000000000000000000000000
310
000000000000000000000000000000000000000000000000000000000000000000000000000000000000000000000000000000000000000000000000000000000000000000000000000000000000000000000000000000F5000000000000000000000000000000000000000000000000000000000000000000000000000000
310
0000000000F50000000000F50000000000000000000000000000000000000000000000000000000000000000000000000000000000000000F500000000F50000000000000000000000000000000000000000000000000000000000000000000000000000000000000000000000000000000000000000000000000000000000
310
0000000000000000000000000000000000000000000000000000000000000000000000000000000000000000000000000000000000000000000000000000000000000000000000000000000000000000000000000000000000F500000000002828282828282828282828282828282828282828282828282828282828280000
310
00000000000000F50000000000F5000000000028BEBEBEBEBEBEBEBEBEBEBEBEBEBEBEBEBEBEBEBEBEBEBEBEBEBEBEBEBE000000000000000000F500000000F5000000000028282828282828282828282828280000000000000000000000000000000000000000000000000000000000000000000000000000000000000000
310
00000000000000000000000000000000000000000000000000000000000000000000000000000000000000000000000000000000000000000000000000000000000000000000000000000000000000000000000000000000000000F500000000002828BEBEBEBEBEBEBEBEBEBEBEBEBEBEBEBEBEBEBEBEBEBEBEBEBEBEBE28
310
000000000000000000F50000000000F5000000002828BE2828282828282828282828282828282828282828282828282828BEBE000000000000000000F500000000F500000000002828BEBEBEBEBEBEBEBEBEBEBEBE000000000000000000000000000000000000000000000000000000000000000000000000000000000000
310
000000000000000000000000000000000000000000000000000000000000000000000000000000000000000000000000000000000000000000000000000000000000000000000000000000000000000000000000000000000000000000F5000000000000280000000000000000000000000000000000000000000000000000
310
2D28000000000000000000F50000000000F50000000000282800000000000000000000000000000000000000000000000000002828000000000000000000F500000000F50000000000002800000000000000000000000000000000000000000000000000000000000000000000000000000000000000000000000000000000
310
0000000000000000000000000000000000000000000000000000000000000000000000000000000000000000000000000000000000000000000000000000000000000000000000000000000000000000000000000000000000000000000000F500000000002D282828282828282828282828BE282828BE2828282828282828
310
28282D28000028BE0000000000F50000000000F5000000002D282828BEBEBEBEBEBEBEBEBE28BEBEBEBE28BEBEBEBEBEBEBEBEBE282828002828000000000000F500000000F500000000002D282828282828282828282828BE0000000000000000000000000000000000000000000000000000000000000000000000000000
310
00000000000000000000000000000000000000000000000000000000000000000000000000000000000000000000000000000000000000000000000000000000000000000000000000000000000000000000000000000000000000000000000000F500000000002D2800000000000000000000000000000000000000000000
310
00000000002800002DBE0000000000F50000000000F5000000002DBE28000000000000000000000000000000000000000000000000000028BE000028000000000000F500000000F500000000002D28000000000000000000000000000000000000000000000000000000000000000000000000000000000000000000000000
310
000000000000000000000000000000000000000000000000000000000000000000000000000000000000000000000000000000000000000000000000000000000000000000000000000000000000000000000000000000000000000000000000000000F500000000002D280000000000000000000000000000000000000000
310
0000000000000028000028BE0000000000F50000000000F5000000002DBE28000000000000000000000000000000000000000000000000000028BE000028000000000000F500000000F500000000002D2800000000000000000000000000000000000000000000000000000000000000000000000000000000000000000000
310
0000000000000000000000000000000000000000000000000000000000000000000000000000000000000000000000000000000000000000000000000000000000000000000000000000000000000000000000000000000000000000000000000000000000F500000000002D28000000000000000000000000000000000000
310
00000000000000000028000028BE0000000000F50000000000F5000000002DBE28000000000000000000000000000000000000000000000000000028BE000028000000000000F500000000F500000000002D280000000000000000000000000000000000000000000000000000000000000000000000000000000000000000
310
00000000000000000000000000000000000000000000000000000000000000000000000000000000000000000000000000000000000000000000000000000000000000000000000000000000000000000000000000000000000000000000000000000000000000F500000000002D2800000000000000000000000000000000
310
000000000000000000000028000028BE0000000000F50000000000F5000000002DBE28000000000000000000000000000000000000000000000000000028BE000028000000000000F500000000F500000000002D28000000000000000000000000000000000000000000000000000000000000000000000000000000000000
310
000000000000000000000000000000000000000000000000000000000000000000000000000000000000000000000000000000000000000000000000000000000000000000000000000000000000000000000000000000000000000000000000000000000000000000F5000000002828280000000000000000000000000000
310
0000000000000000000000000028000028BE0000000000F50000000000F5000000002DBE28000000000000000000000000000000000000000000000000000028BE000028000000000000F500000000F500000000002D2800000000000000000000000000000000000000000000000000000000000000000000000000000000
310
0000000000000000000000000000000000000000000000000000000000000000000000000000000000000000000000000000000000000000000000000000000000000000000000000000000000000000000000000000000000000000000000000000000000000000000000F500000000282828000000000000000000000000
310
00000000000000000000000000000028000028BE0000000000F50000000000F50000000028BE28000000000000000000000000000000000000000000000000000028BE000028000000000000F500000000F5000000000028280000000000000000000000000000000000000000000000000000000000000000000000000000
310
00000000000000000000000000000000000000000000000000000000000000000000000000000000000000000000000000000000000000000000000000000000000000000000000000000000000000000000000000000000000000000000000000000000000000000000000000F500000000002D2800000000000000000000
310
000000000000000000000000000000000028000028BE0000000000F50000000000F5000000002DBE28000000000000000000000000000000000000000000000000000028BE000028000000000000F500000000F500000000002828000000000000000000000000000000000000000000000000000000000000000000000000
310
000000000000000000000000000000000000000000000000000000000000000000000000000000000000000000000000000000000000000000000000000000000000000000000000000000000000000000000000000000000000000000000000000000000000000000000000000000F500000000002D280000000000000000
310
0000000000000000000000000000000000000028000028BE0000000000F50000000000F5000000002DBE28000000000000000000000000000000000000000000000000000028BE000028000000000000F500000000F500000000002D2800000000000000000000000000000000000000000000000000000000000000000000
310
0000000000000000000000000000000000000000000000000000000000000000000000000000000000000000000000000000000000000000000000000000000000000000000000000000000000000000000000000000000000000000000000000000000000000000000000000000000000F500000000002D28000000000000
310
00000000000000000000000000000000000000000028000028BE0000000000F50000000000F5000000002DBE28000000000000000000000000000000000000000000000000000028BE000028000000000000F500000000F500000000002D280000000000000000000000000000000000000000000000000000000000000000
310
00000000000000000000000000000000000000000000000000000000000000000000000000000000000000000000000000000000000000000000000000000000000000000000000000000000000000000000000000000000000000000000000000000000000000000000000000000000000000F500000000002D28BE282828
310
28282828282828BE282828BE28282828282828282828BE28000028BE0000000000F50000000000F5000000002DBE28000000000000000000000000000000000000000000000000000028BE000028000000000000F500000000F500000000002D28000000000000000000000000000000000000000000000000000000000000
310
000000000000000000000000000000000000000000000000000000000000000000000000000000000000000000000000000000000000000000000000000000000000000000000000000000000000000000000000000000000000000000000000000000000000000000000000000000000000000000F5000000000028282828
310
2828282828282828282828282828282828282828282828282828000028280000000000F50000000000F5000000002DBE28000000000000000000000000000000000000000000000000000028BE000028000000000000F500000000F500000000002D2800000000000000000000000000000000000000000000000000000000
310
0000000000000000000000000000000000000000000000000000000000000000000000000000000000000000000000000000000000000000000000000000000000000000000000000000000000000000000000000000000000000000000000000000000000000000000000000000000000000000000000F500000000000028
310
2D2D2D2D2D28282D2D2D2D2D2D282D2D2D2D2D2D28282D2D2D2D2828000028280000000000F50000000000F50000000028282828BEBEBEBEBEBEBEBEBE28BEBEBEBE28BEBEBEBEBEBEBEBEBE282828002828000000000000F500000000F500000000002D280000000000000000000000000000000000000000000000000000
310
00000000000000000000000000000000000000000000000000000000000000000000000000000000000000000000000000000000000000000000000000000000000000000000000000000000000000000000000000000000000000000000000000000000000000000000000000000000000000000000000000F50000000000
310
002D0000000000000000000000000028000000000000000000000000002D00002D280000000000F50000000000F500000000002D28282D2D2D2D282D2D2D2D282D28282D282D2D2D2D282D2D2D2D28282D00002D000000000000F500000000F500000000002828282828282828282828282828000000000000000000000000
310
000000000000000000000000000000000000000000000000000000000000000000000000000000000000000000000000000000000000000000000000000000000000000000000000000000000000000000000000000000000000000000000000000000000000000000000000000000000000000000000000000000F5000000
310
0000000000000000000000000000000000000000000000000000000000000000000000000000000000F50000000000F500000000002D2D2D2D2D2D2D2D2D2D2D2D2D2D28282D2D2D2D2D2D2D2D2D2D2D2D2D280000282D0000000000F500000000F50000000000002D2D2D2D2D2D2D2D2D2D2D2D2D00000000000000000000
310
0000000000000000000000000000000000000000000000000000000000000000000000000000000000000000000000000000000000000000000000000000000000000000000000000000000000000000000000000000000000000000000000000000000000000000000000000000000000000000000000000000000000F500
310
00000000000000000000000000000000000000000000000000000000000000000000000000000000000000F50000000000F50000000000000000000000000000000000000000000000000000000000000000000000000000000000000000F500000000F5000000000000282D2D2D2D2D28282D2D2D2D2D0000000000000000
310
00000000000000000000000000000000000000000000000000000000000000000000000000000000000000000000000000000000000000000000000000000000000000000000000000000000000000000000000000000000000000000000000000000000000000000000000000000000000000000000000000000000000000
310
F50000000000000000000000000000000000000000000000000000000000000000000000000000000000000000F50000000000F50000000000000000000000000000000000000000000000000000000000000000000000000000000000000000F500000000F500000000000000000000000000000000000000000000000000
310
00000000000000000000000000000000000000000000000000000000000000000000000000000000000000000000000000000000000000000000000000000000000000000000000000000000000000000000000000000000000000000000000000000000000000000000000000000000000000000000000000000000000000
310
0000F50000000000000000000000000000000000000000000000000000000000000000000000000000000000000000F50000000000F50000000000000000000000000000000000000000000000000000000000000000000000000000000000000000F500000000F50000000000000000000000000000000000000000000000
310
00000000000000000000000000000000000000000000000000000000000000000000000000000000000000000000000000000000000000000000000000000000000000000000000000000000000000000000000000000000000000000000000000000000000000000000000000000000000000000000000000000000000000
310
00000000F5F5F5F5F5F5F5F5F5F5F5F5F5F5F5F5F5F5F5F5F5F5F5F5F5F5F5F5F5F5F5F5F5F5F5F5F5F5F5F5F5F5F5F5F5F50000000000F5F5F5F5F5F5F5F5F5F5F5F5F5F5F5F5F5F5F5F5F5F5F5F5F5F5F5F5F5F5F5F5F5F5F5F5F5F5F5F5F5F5F5F5F5F500000000F5F5F5F5F5F5F5F5F5F5F5F5F5F5F5F5F5F5F5F50000
310
00000000000000000000000000000000000000000000000000000000000000000000000000000000000000000000000000000000000000000000000000000000000000000000000000000000000000000000000000000000000000000000000000000000000000000000000000000000000000000000000000000000000000
310
00000000000000000000000000000000000000000000000000000000000000000000000000000000000000000000000000000000000000000000000000000000000000000000000000000000000000000000000000000000000000000000000000000000000000000000000000000000000000000000000000000000000000
310
00000000000000000000000000000000000000000000000000000000000000000000000000000000000000000000000000000000000000000000000000000000000000000000000000000000000000000000000000000000000000000000000000000000000000000000000000000000000000000000000000000000000000
310
00000000000000000000000000000000000000000000000000000000000000000000000000000000000000000000000000000000000000000000000000000000000000000000000000000000000000000000000000000000000000000000000000000000000000000000000000000000000000000000000000000000000000
310
00000000000000000000000000000000000000000000000000000000000000000000000000000000000000000000000000000000000000000000000000000000000000000000000000000000000000000000000000000000000000000000000000000000000000000000000000000000000000000000000000000000000000
310
00000000000000000000000000000000000000000000000000000000000000000000000000000000000000000000000000000000000000000000000000000000000000000000000000000000000000000000000000000000000000000000000000000000000000000000000000000000000000000000000000000000000000
310
00000000000000000000000000000000000000000000000000000000000000000000000000000000000000000000000000000000000000000000000000000000000000000000000000000000000000000000000000000000000000000000000000000000000000000000000000000000000000000000000000000000000000
310
00000000000000000000000000000000000000000000000000000000000000000000000000000000000000000000000000000000000000000000000000000000000000000000000000000000000000000000000000000000000000000000000000000000000000000000000000000000000000000000000000000000000000
310
00000000000000000000000000000000000000000000000000000000000000000000000000000000000000000000000000000000000000000000000000000000000000000000000000000000000000000000000000000000000000000000000000000000000000000000000000000000000000000000000000000000000000
310
00000000000000000000000000000000000000000000000000000000000000000000000000000000000000000000000000000000000000000000000000000000000000000000000000000000000000000000000000000000000000000000000000000000000000000000000000000000000000000000000000000000000000
310
00000000000000000000000000000000000000000000000000000000000000000000000000000000000000000000000000000000000000000000000000000000000000000000000000000000000000000000000000000000000000000000000000000000000000000000000000000000000000000000000000000000000000
310
00000000000000000000000000000000000000000000000000000000000000000000000000000000000000000000000000000000000000000000000000000000000000000000000000000000000000000000000000000000000000000000000000000000000000000000000000000000000000000000000000000000000000
310
00000000000000000000000000000000000000000000000000000000000000000000000000000000000000000000000000000000000000000000000000000000000000000000000000000000000000000000000000000000000000000000000000000000000000000000000000000000000000000000000000000000000000
310
00000000000000000000000000000000000000000000000000000000000000000000000000000000000000000000000000000000000000000000000000000000000000000000000000000000000000000000000000000000000000000000000000000000000000000000000000000000000000000000000000000000000000
310
00000000000000000000000000000000000000000000000000000000000000000000000000000000000000000000000000000000000000000000000000000000000000000000000000000000000000000000000000000000000000000000000000000000000000000000000000000000000000000000000000000000000000
310
00000000000000000000000000000000000000000000000000000000000000000000000000000000000000000000000000000000000000000000000000000000000000000000000000000000000000000000000000000000000000000000000000000000000000000000000000000000000000000000000000000000000000
310
00000000000000000000000000000000000000000000000000000000000000000000000000000000000000000000000000000000000000000000000000000000000000000000000000000000000000000000000000000000000000000000000000000000000000000000000000000000000000000000000000000000000000
310
00000000000000000000000000000000000000000000000000000000000000000000000000000000000000000000000000000000000000000000000000000000000000000000000000000000000000000000000000000000000000000000000000000000000000000000000000000000000000000000000000000000000000
310
00000000000000000000000000000000000000000000000000000000000000000000000000000000000000000000000000000000000000000000000000000000000000000000000000000000000000000000000000000000000000000000000000000000000000000000000000000000000000000000000000000000000000
310
00000000000000000000000000000000000000000000000000000000000000000000000000000000000000000000000000000000000000000000000000000000000000000000000000000000000000000000000000000000000000000000000000000000000000000000000000000000000000000000000000000000000000
310
00000000000000000000000000000000000000000000000000000000000000000000000000000000000000000000000000000000000000000000000000000000000000000000000000000000000000000000000000000000000000000000000000000000000000000000000000000000000000000000000000000000000000
310
00000000000000000000000000000000000000000000000000000000000000000000000000000000000000000000000000000000000000000000000000000000000000000000000000000000000000000000000000000000000000000000000000000000000000000000000000000000000000000000000000000000000000
310
00000000000000000000000000000000000000000000000000000000000000000000000000000000000000000000000000000000000000000000000000000000000000000000000000000000000000000000000000000000000000000000000000000000000000000000000000000000000000000000000000000000000000
310
00000000000000000000000000000000000000000000000000000000000000000000000000000000000000000000000000000000000000000000000000000000000000000000000000000000000000000000000000000000000000000000000000000000000000000000000000000000000000000000000000000000000000
310
00000000000000000000000000000000000000000000000000000000000000000000000000000000000000000000000000000000000000000000000000000000000000000000000000000000000000000000000000000000000000000000000000000000000000000000000000000000000000000000000000000000000000
310
00000000000000000000000000000000000000000000000000000000000000000000000000000000000000000000000000000000000000000000000000000000000000000000000000000000000000000000000000000000000000000000000000000000000000000000000000000000000000000000000000000000000000
310
00000000000000000000000000000000000000000000000000000000000000000000000000000000000000000000000000000000000000000000000000000000000000000000000000000000000000000000000000000000000000000000000000000000000000000000000000000000000000000000000000000000000000
310
00000000000000000000000000000000000000000000000000000000000000000000000000000000000000000000000000000000000000000000000000000000000000000000000000000000000000000000000000000000000000000000000000000000000000000000000000000000000000000000000000000000000000
310
0000000000000000000000000000000000000000000000000000
  0
XRECORD
  5
324B0
102
{ACAD_REACTORS
330
324AF
102
}
330
324AF
100
AcDbXrecord
280
     1
102
SHADEPLOT
 70
     0
102
SHADEPLOTRESLEVEL
 70
     2
102
SHADEPLOTCUSTOMDPI
 70
   300
  0
XRECORD
  5
2E5B0
102
{ACAD_REACTORS
330
2DAF7
102
}
330
2DAF7
100
AcDbXrecord
280
     1
102
MATERIAL
148
0.0
149
0.0
149
0.0
 93
        0
 94
      127
282
     0
 72
     0
 77
     0
171
     0
175
     0
179
     0
273
     0
  0
XRECORD
  5
2DAF9
102
{ACAD_REACTORS
330
2DAF7
102
}
330
2DAF7
100
AcDbXrecord
280
     1
270
     1
271
     1
  0
XRECORD
  5
2DAF8
102
{ACAD_REACTORS
330
2DAF7
102
}
330
2DAF7
100
AcDbXrecord
280
     1
270
     1
271
     1
  0
XRECORD
  5
2DAFC
102
{ACAD_REACTORS
330
2DAF7
102
}
330
2DAF7
100
AcDbXrecord
280
     1
270
     1
271
     1
  0
XRECORD
  5
2DAFB
102
{ACAD_REACTORS
330
2DAF7
102
}
330
2DAF7
100
AcDbXrecord
280
     1
270
     1
271
     1
  0
XRECORD
  5
2DAFD
102
{ACAD_REACTORS
330
2DAF7
102
}
330
2DAF7
100
AcDbXrecord
280
     1
270
     1
271
     1
  0
XRECORD
  5
2DAFA
102
{ACAD_REACTORS
330
2DAF7
102
}
330
2DAF7
100
AcDbXrecord
280
     1
270
     1
271
     1
  0
XRECORD
  5
2E5AF
102
{ACAD_REACTORS
330
2DAEF
102
}
330
2DAEF
100
AcDbXrecord
280
     1
102
MATERIAL
148
0.0
149
0.0
149
0.0
 93
        0
 94
      127
282
     0
 72
     0
 77
     0
171
     0
175
     0
179
     0
273
     0
  0
XRECORD
  5
2DAF1
102
{ACAD_REACTORS
330
2DAEF
102
}
330
2DAEF
100
AcDbXrecord
280
     1
270
     1
271
     1
  0
XRECORD
  5
2DAF0
102
{ACAD_REACTORS
330
2DAEF
102
}
330
2DAEF
100
AcDbXrecord
280
     1
270
     1
271
     1
  0
XRECORD
  5
2DAF4
102
{ACAD_REACTORS
330
2DAEF
102
}
330
2DAEF
100
AcDbXrecord
280
     1
270
     1
271
     1
  0
XRECORD
  5
2DAF3
102
{ACAD_REACTORS
330
2DAEF
102
}
330
2DAEF
100
AcDbXrecord
280
     1
270
     1
271
     1
  0
XRECORD
  5
2DAF5
102
{ACAD_REACTORS
330
2DAEF
102
}
330
2DAEF
100
AcDbXrecord
280
     1
270
     1
271
     1
  0
XRECORD
  5
2DAF2
102
{ACAD_REACTORS
330
2DAEF
102
}
330
2DAEF
100
AcDbXrecord
280
     1
270
     1
271
     1
  0
XRECORD
  5
2E53B
102
{ACAD_REACTORS
330
AF91
102
}
330
AF91
100
AcDbXrecord
280
     1
102
MATERIAL
148
0.0
149
0.0
149
0.0
 93
        0
 94
      127
282
     0
 72
     0
 77
     0
171
     0
175
     0
179
     0
273
     0
  0
XRECORD
  5
AF93
102
{ACAD_REACTORS
330
AF91
102
}
330
AF91
100
AcDbXrecord
280
     1
270
     1
271
     1
  0
XRECORD
  5
AF94
102
{ACAD_REACTORS
330
AF91
102
}
330
AF91
100
AcDbXrecord
280
     1
270
     1
271
     1
  0
XRECORD
  5
AF95
102
{ACAD_REACTORS
330
AF91
102
}
330
AF91
100
AcDbXrecord
280
     1
270
     1
271
     1
  0
XRECORD
  5
AF96
102
{ACAD_REACTORS
330
AF91
102
}
330
AF91
100
AcDbXrecord
280
     1
270
     1
271
     1
  0
XRECORD
  5
AF97
102
{ACAD_REACTORS
330
AF91
102
}
330
AF91
100
AcDbXrecord
280
     1
270
     1
271
     1
  0
XRECORD
  5
AF98
102
{ACAD_REACTORS
330
AF91
102
}
330
AF91
100
AcDbXrecord
280
     1
270
     1
271
     1
  0
XRECORD
  5
2E5E4
102
{ACAD_REACTORS
330
2E5E3
102
}
330
2E5E3
100
AcDbXrecord
280
     1
102
ACAD_ROUNDTRIP_2012_MLEADER_STYLE
298
     1
  0
XRECORD
  5
2E5E6
102
{ACAD_REACTORS
330
2E5E5
102
}
330
2E5E5
100
AcDbXrecord
280
     1
102
DISPLAYNAME
  1
Metric50
102
FLAGS
 90
        0
  0
ACAD_PROXY_OBJECT
  5
2E527
102
{ACAD_REACTORS
330
2E526
102
}
330
2E526
100
AcDbProxyObject
 90
      499
 91
      514
 95
       25
 70
     0
 93
     5304
310
40D054060020000020000003200101A000080002A5058000000C10000000000000006101010000000000003E0FC000000000000F83F0000000000003E0FC000000000000F83F000000000000049000000000000001240419019018000000C1003FBFFFFFE0000000000003C8FD029018000000C1003FBFFFFFE00000000000
310
03C8FD049018000000C1003FBFFFFFE0000000000003C8FD089018000000C1003FBFFFFFE0000000000003C8FD109018000000C1003FBFFFFFE0000000000003C8FD209018000000C1003FBFFFFFE0000000000003C8FD01405075F5449544C450041501A8000000C800406800020000A94160000003040000000000000012
310
40404000000000000F83F0000000000003E0FC000000000000F83F0000000000003E0FC0000000000001240000000000000049010640640600000030400FEFFFFFF8000000000000F23F40A40600000030400FEFFFFFF8000000000000F23F41240600000030400FEFFFFFF8000000000000F23F42240600000030400FEFFF
310
FFF8000000000000F23F44240600000030400FEFFFFFF8000000000000F23F48240600000030400FEFFFFFF8000000000000F23F409014217D2115051115480105406A0000003200101A000080002A5028000000C10000000000000004901010000000000003E0FC000000000000F83F0000000000003E0FC000000000000F
310
83F000000000000049000000000000001240419019018000000C1003FBFFFFFE0000000000003C8FD029018000000C1003FBFFFFFE0000000000003C8FD049018000000C1003FBFFFFFE0000000000003C8FD089018000000C1003FBFFFFFE0000000000003C8FD109018000000C1003FBFFFFFE0000000000003C8FD20901
310
8000000C1003FBFFFFFE0000000000003C8FD03409065F444154410000
340
12
340
0
340
0
340
0
340
0
340
0
340
0
340
12
340
0
340
0
340
0
340
0
340
0
340
0
340
12
340
0
340
0
340
0
340
0
340
0
340
0
 94
        0
1001
ACAD
1000
AcRTDxfName
1000
CELLSTYLEMAP
  0
XRECORD
  5
2E5E1
102
{ACAD_REACTORS
330
2E526
102
}
330
2E526
100
AcDbXrecord
280
     1
102
ACAD_ROUNDTRIP_PRE2007_TABLESTYLE
 90
      512
 91
        0
  1

 92
      512
 93
        0
  2

 94
      512
 95
        0
  3

  0
XRECORD
  5
2E5BC
102
{ACAD_REACTORS
330
2E5BB
102
}
330
2E5BB
100
AcDbXrecord
280
     1
102
RTVSPost2010Prop28
280
     1
102
RTVSPost2010PropOp28
 70
     1
102
RTVSPost2010Prop29
280
     1
102
RTVSPost2010PropOp29
 70
     1
102
RTVSPost2010Prop30
280
     0
102
RTVSPost2010PropOp30
 70
     1
102
RTVSPost2010Prop31
280
     0
102
RTVSPost2010PropOp31
 70
     1
102
RTVSPost2010Prop32
280
     0
102
RTVSPost2010PropOp32
 70
     1
102
RTVSPost2010Prop33
280
     0
102
RTVSPost2010PropOp33
 70
     1
102
RTVSPost2010Prop34
280
     0
102
RTVSPost2010PropOp34
 70
     1
102
RTVSPost2010Prop35
280
     0
102
RTVSPost2010PropOp35
 70
     1
102
RTVSPost2010Prop36
280
     0
102
RTVSPost2010PropOp36
 70
     1
102
RTVSPost2010Prop37
 90
       50
102
RTVSPost2010PropOp37
 70
     1
102
RTVSPost2010Prop38
140
0.0
102
RTVSPost2010PropOp38
 70
     1
102
RTVSPost2010Prop39
140
1.0
102
RTVSPost2010PropOp39
 70
     1
102
RTVSPost2010Prop40
 90
        0
102
RTVSPost2010PropOp40
 70
     1
102
RTVSPost2010Prop41ColorIndex
 90
       18
102
RTVSPost2010Prop41ColorRGB
 90
        0
102
RTVSPost2010PropOp41
 70
     1
102
RTVSPost2010Prop42
 90
       50
102
RTVSPost2010PropOp42
 70
     1
102
RTVSPost2010Prop43
 90
        3
102
RTVSPost2010PropOp43
 70
     1
102
RTVSPost2010Prop44ColorIndex
 90
        5
102
RTVSPost2010Prop44ColorRGB
 90
      255
102
RTVSPost2010PropOp44
 70
     1
102
RTVSPost2010Prop45
280
     0
102
RTVSPost2010PropOp45
 70
     1
102
RTVSPost2010Prop46
 90
       50
102
RTVSPost2010PropOp46
 70
     1
102
RTVSPost2010Prop47
 90
       50
102
RTVSPost2010PropOp47
 70
     1
102
RTVSPost2010Prop48
 90
       50
102
RTVSPost2010PropOp48
 70
     1
102
RTVSPost2010Prop49
280
     0
102
RTVSPost2010PropOp49
 70
     1
102
RTVSPost2010Prop50
 90
       50
102
RTVSPost2010PropOp50
 70
     1
102
RTVSPost2010Prop51ColorIndex
 90
      256
102
RTVSPost2010Prop51ColorRGB
 90
-16777216
102
RTVSPost2010PropOp51
 70
     0
102
RTVSPost2010Prop52
140
1.0
102
RTVSPost2010PropOp52
 70
     0
102
RTVSPost2010Prop53
 90
        2
102
RTVSPost2010PropOp53
 70
     1
102
RTVSPost2010Prop54
  1
strokes_ogs.tif
102
RTVSPost2010PropOp54
 70
     1
102
RTVSPost2010Prop55
280
     0
102
RTVSPost2010PropOp55
 70
     1
102
RTVSPost2010Prop56
140
1.0
102
RTVSPost2010PropOp56
 70
     1
102
RTVSPost2010Prop57
140
1.0
102
RTVSPost2010PropOp57
 70
     1
102
RTVSPropertyOp0
 70
     1
102
RTVSPropertyOp1
 70
     1
102
RTVSPropertyOp2
 70
     1
102
RTVSPropertyOp3
 70
     1
102
RTVSPropertyOp4
 70
     1
102
RTVSPropertyOp5
 70
     1
102
RTVSPropertyOp6
 70
     1
102
RTVSPropertyOp7
 70
     1
102
RTVSPropertyOp8
 70
     1
102
RTVSPropertyOp9
 70
     1
102
RTVSPropertyOp10
 70
     1
102
RTVSPropertyOp11
 70
     1
102
RTVSPropertyOp12
 70
     1
102
RTVSPropertyOp13
 70
     1
102
RTVSPropertyOp14
 70
     1
102
RTVSPropertyOp15
 70
     1
102
RTVSPropertyOp16
 70
     1
102
RTVSPropertyOp17
 70
     1
102
RTVSPropertyOp18
 70
     1
102
RTVSPropertyOp19
 70
     1
102
RTVSPropertyOp20
 70
     1
102
RTVSPropertyOp21
 70
     1
102
RTVSPropertyOp22
 70
     1
102
RTVSPropertyOp23
 70
     1
102
RTVSPropertyOp24
 70
     1
102
RTVSPropertyOp25
 70
     1
102
RTVSPropertyOp26
 70
     1
102
RTVSPropertyOp27
 70
     1
102
RTVSPropertyOp28
 70
     1
102
RTVSPropertyOp29
 70
     1
102
RTVSPropertyOp30
 70
     1
102
RTVSPropertyOp31
 70
     1
102
RTVSPropertyOp32
 70
     1
102
RTVSPropertyOp33
 70
     1
102
RTVSPropertyOp34
 70
     1
102
RTVSPropertyOp35
 70
     1
102
RTVSPropertyOp36
 70
     1
102
RTVSPropertyOp37
 70
     1
102
RTVSPropertyOp38
 70
     1
102
RTVSPropertyOp39
 70
     1
102
RTVSPropertyOp40
 70
     1
102
RTVSPropertyOp41
 70
     1
102
RTVSPropertyOp42
 70
     1
102
RTVSPropertyOp43
 70
     1
102
RTVSPropertyOp44
 70
     1
102
RTVSPropertyOp45
 70
     1
102
RTVSPropertyOp46
 70
     1
102
RTVSPropertyOp47
 70
     1
102
RTVSPropertyOp48
 70
     1
102
RTVSPropertyOp49
 70
     1
102
RTVSPropertyOp50
 70
     1
102
RTVSPropertyOp51
 70
     0
102
RTVSPropertyOp52
 70
     0
102
RTVSPropertyOp53
 70
     1
102
RTVSPropertyOp54
 70
     1
102
RTVSPropertyOp55
 70
     1
102
RTVSPropertyOp56
 70
     1
102
RTVSPropertyOp57
 70
     1
102
RTVSPropertyOp58
 70
     1
102
RTVSPropertyOp59
 70
     1
102
RTVSPropertyOp60
 70
     1
102
RTVSPropertyOp61
 70
     1
102
RTVSPropertyOp62
 70
     1
  0
XRECORD
  5
2E5BA
102
{ACAD_REACTORS
330
2E5B9
102
}
330
2E5B9
100
AcDbXrecord
280
     1
102
RTVSPost2010Prop28
280
     0
102
RTVSPost2010PropOp28
 70
     1
102
RTVSPost2010Prop29
280
     1
102
RTVSPost2010PropOp29
 70
     1
102
RTVSPost2010Prop30
280
     1
102
RTVSPost2010PropOp30
 70
     1
102
RTVSPost2010Prop31
280
     0
102
RTVSPost2010PropOp31
 70
     1
102
RTVSPost2010Prop32
280
     0
102
RTVSPost2010PropOp32
 70
     1
102
RTVSPost2010Prop33
280
     0
102
RTVSPost2010PropOp33
 70
     1
102
RTVSPost2010Prop34
280
     0
102
RTVSPost2010PropOp34
 70
     1
102
RTVSPost2010Prop35
280
     0
102
RTVSPost2010PropOp35
 70
     1
102
RTVSPost2010Prop36
280
     0
102
RTVSPost2010PropOp36
 70
     1
102
RTVSPost2010Prop37
 90
       50
102
RTVSPost2010PropOp37
 70
     1
102
RTVSPost2010Prop38
140
0.0
102
RTVSPost2010PropOp38
 70
     1
102
RTVSPost2010Prop39
140
1.0
102
RTVSPost2010PropOp39
 70
     1
102
RTVSPost2010Prop40
 90
        0
102
RTVSPost2010PropOp40
 70
     1
102
RTVSPost2010Prop41ColorIndex
 90
       18
102
RTVSPost2010Prop41ColorRGB
 90
        0
102
RTVSPost2010PropOp41
 70
     1
102
RTVSPost2010Prop42
 90
       50
102
RTVSPost2010PropOp42
 70
     1
102
RTVSPost2010Prop43
 90
        3
102
RTVSPost2010PropOp43
 70
     1
102
RTVSPost2010Prop44ColorIndex
 90
        5
102
RTVSPost2010Prop44ColorRGB
 90
      255
102
RTVSPost2010PropOp44
 70
     1
102
RTVSPost2010Prop45
280
     0
102
RTVSPost2010PropOp45
 70
     1
102
RTVSPost2010Prop46
 90
       50
102
RTVSPost2010PropOp46
 70
     1
102
RTVSPost2010Prop47
 90
       50
102
RTVSPost2010PropOp47
 70
     1
102
RTVSPost2010Prop48
 90
       50
102
RTVSPost2010PropOp48
 70
     1
102
RTVSPost2010Prop49
280
     0
102
RTVSPost2010PropOp49
 70
     1
102
RTVSPost2010Prop50
 90
       50
102
RTVSPost2010PropOp50
 70
     1
102
RTVSPost2010Prop51ColorIndex
 90
      256
102
RTVSPost2010Prop51ColorRGB
 90
-16777216
102
RTVSPost2010PropOp51
 70
     0
102
RTVSPost2010Prop52
140
1.0
102
RTVSPost2010PropOp52
 70
     0
102
RTVSPost2010Prop53
 90
        2
102
RTVSPost2010PropOp53
 70
     1
102
RTVSPost2010Prop54
  1
strokes_ogs.tif
102
RTVSPost2010PropOp54
 70
     1
102
RTVSPost2010Prop55
280
     0
102
RTVSPost2010PropOp55
 70
     1
102
RTVSPost2010Prop56
140
1.0
102
RTVSPost2010PropOp56
 70
     1
102
RTVSPost2010Prop57
140
1.0
102
RTVSPost2010PropOp57
 70
     1
102
RTVSPropertyOp0
 70
     1
102
RTVSPropertyOp1
 70
     1
102
RTVSPropertyOp2
 70
     1
102
RTVSPropertyOp3
 70
     1
102
RTVSPropertyOp4
 70
     1
102
RTVSPropertyOp5
 70
     1
102
RTVSPropertyOp6
 70
     1
102
RTVSPropertyOp7
 70
     1
102
RTVSPropertyOp8
 70
     1
102
RTVSPropertyOp9
 70
     1
102
RTVSPropertyOp10
 70
     1
102
RTVSPropertyOp11
 70
     1
102
RTVSPropertyOp12
 70
     1
102
RTVSPropertyOp13
 70
     1
102
RTVSPropertyOp14
 70
     1
102
RTVSPropertyOp15
 70
     1
102
RTVSPropertyOp16
 70
     1
102
RTVSPropertyOp17
 70
     1
102
RTVSPropertyOp18
 70
     1
102
RTVSPropertyOp19
 70
     1
102
RTVSPropertyOp20
 70
     1
102
RTVSPropertyOp21
 70
     1
102
RTVSPropertyOp22
 70
     1
102
RTVSPropertyOp23
 70
     1
102
RTVSPropertyOp24
 70
     1
102
RTVSPropertyOp25
 70
     1
102
RTVSPropertyOp26
 70
     1
102
RTVSPropertyOp27
 70
     1
102
RTVSPropertyOp28
 70
     1
102
RTVSPropertyOp29
 70
     1
102
RTVSPropertyOp30
 70
     1
102
RTVSPropertyOp31
 70
     1
102
RTVSPropertyOp32
 70
     1
102
RTVSPropertyOp33
 70
     1
102
RTVSPropertyOp34
 70
     1
102
RTVSPropertyOp35
 70
     1
102
RTVSPropertyOp36
 70
     1
102
RTVSPropertyOp37
 70
     1
102
RTVSPropertyOp38
 70
     1
102
RTVSPropertyOp39
 70
     1
102
RTVSPropertyOp40
 70
     1
102
RTVSPropertyOp41
 70
     1
102
RTVSPropertyOp42
 70
     1
102
RTVSPropertyOp43
 70
     1
102
RTVSPropertyOp44
 70
     1
102
RTVSPropertyOp45
 70
     1
102
RTVSPropertyOp46
 70
     1
102
RTVSPropertyOp47
 70
     1
102
RTVSPropertyOp48
 70
     1
102
RTVSPropertyOp49
 70
     1
102
RTVSPropertyOp50
 70
     1
102
RTVSPropertyOp51
 70
     0
102
RTVSPropertyOp52
 70
     0
102
RTVSPropertyOp53
 70
     1
102
RTVSPropertyOp54
 70
     1
102
RTVSPropertyOp55
 70
     1
102
RTVSPropertyOp56
 70
     1
102
RTVSPropertyOp57
 70
     1
102
RTVSPropertyOp58
 70
     1
102
RTVSPropertyOp59
 70
     1
102
RTVSPropertyOp60
 70
     1
102
RTVSPropertyOp61
 70
     1
102
RTVSPropertyOp62
 70
     1
  0
XRECORD
  5
2E5C8
102
{ACAD_REACTORS
330
2E5C7
102
}
330
2E5C7
100
AcDbXrecord
280
     1
102
RTVSPost2010Prop28
280
     0
102
RTVSPost2010PropOp28
 70
     1
102
RTVSPost2010Prop29
280
     1
102
RTVSPost2010PropOp29
 70
     1
102
RTVSPost2010Prop30
280
     1
102
RTVSPost2010PropOp30
 70
     1
102
RTVSPost2010Prop31
280
     0
102
RTVSPost2010PropOp31
 70
     1
102
RTVSPost2010Prop32
280
     0
102
RTVSPost2010PropOp32
 70
     1
102
RTVSPost2010Prop33
280
     0
102
RTVSPost2010PropOp33
 70
     1
102
RTVSPost2010Prop34
280
     0
102
RTVSPost2010PropOp34
 70
     1
102
RTVSPost2010Prop35
280
     0
102
RTVSPost2010PropOp35
 70
     1
102
RTVSPost2010Prop36
280
     0
102
RTVSPost2010PropOp36
 70
     1
102
RTVSPost2010Prop37
 90
       50
102
RTVSPost2010PropOp37
 70
     1
102
RTVSPost2010Prop38
140
0.0
102
RTVSPost2010PropOp38
 70
     1
102
RTVSPost2010Prop39
140
1.0
102
RTVSPost2010PropOp39
 70
     1
102
RTVSPost2010Prop40
 90
        0
102
RTVSPost2010PropOp40
 70
     1
102
RTVSPost2010Prop41ColorIndex
 90
       18
102
RTVSPost2010Prop41ColorRGB
 90
        0
102
RTVSPost2010PropOp41
 70
     1
102
RTVSPost2010Prop42
 90
       50
102
RTVSPost2010PropOp42
 70
     1
102
RTVSPost2010Prop43
 90
        3
102
RTVSPost2010PropOp43
 70
     1
102
RTVSPost2010Prop44ColorIndex
 90
        5
102
RTVSPost2010Prop44ColorRGB
 90
      255
102
RTVSPost2010PropOp44
 70
     1
102
RTVSPost2010Prop45
280
     0
102
RTVSPost2010PropOp45
 70
     1
102
RTVSPost2010Prop46
 90
       50
102
RTVSPost2010PropOp46
 70
     1
102
RTVSPost2010Prop47
 90
       50
102
RTVSPost2010PropOp47
 70
     1
102
RTVSPost2010Prop48
 90
       50
102
RTVSPost2010PropOp48
 70
     1
102
RTVSPost2010Prop49
280
     0
102
RTVSPost2010PropOp49
 70
     1
102
RTVSPost2010Prop50
 90
       50
102
RTVSPost2010PropOp50
 70
     1
102
RTVSPost2010Prop51ColorIndex
 90
      256
102
RTVSPost2010Prop51ColorRGB
 90
-16777216
102
RTVSPost2010PropOp51
 70
     0
102
RTVSPost2010Prop52
140
1.0
102
RTVSPost2010PropOp52
 70
     0
102
RTVSPost2010Prop53
 90
        2
102
RTVSPost2010PropOp53
 70
     1
102
RTVSPost2010Prop54
  1
strokes_ogs.tif
102
RTVSPost2010PropOp54
 70
     1
102
RTVSPost2010Prop55
280
     0
102
RTVSPost2010PropOp55
 70
     1
102
RTVSPost2010Prop56
140
1.0
102
RTVSPost2010PropOp56
 70
     1
102
RTVSPost2010Prop57
140
1.0
102
RTVSPost2010PropOp57
 70
     1
102
RTVSPropertyOp0
 70
     1
102
RTVSPropertyOp1
 70
     1
102
RTVSPropertyOp2
 70
     1
102
RTVSPropertyOp3
 70
     1
102
RTVSPropertyOp4
 70
     1
102
RTVSPropertyOp5
 70
     1
102
RTVSPropertyOp6
 70
     1
102
RTVSPropertyOp7
 70
     1
102
RTVSPropertyOp8
 70
     1
102
RTVSPropertyOp9
 70
     1
102
RTVSPropertyOp10
 70
     1
102
RTVSPropertyOp11
 70
     1
102
RTVSPropertyOp12
 70
     1
102
RTVSPropertyOp13
 70
     1
102
RTVSPropertyOp14
 70
     1
102
RTVSPropertyOp15
 70
     1
102
RTVSPropertyOp16
 70
     1
102
RTVSPropertyOp17
 70
     1
102
RTVSPropertyOp18
 70
     1
102
RTVSPropertyOp19
 70
     1
102
RTVSPropertyOp20
 70
     1
102
RTVSPropertyOp21
 70
     1
102
RTVSPropertyOp22
 70
     1
102
RTVSPropertyOp23
 70
     1
102
RTVSPropertyOp24
 70
     1
102
RTVSPropertyOp25
 70
     1
102
RTVSPropertyOp26
 70
     1
102
RTVSPropertyOp27
 70
     1
102
RTVSPropertyOp28
 70
     1
102
RTVSPropertyOp29
 70
     1
102
RTVSPropertyOp30
 70
     1
102
RTVSPropertyOp31
 70
     1
102
RTVSPropertyOp32
 70
     1
102
RTVSPropertyOp33
 70
     1
102
RTVSPropertyOp34
 70
     1
102
RTVSPropertyOp35
 70
     1
102
RTVSPropertyOp36
 70
     1
102
RTVSPropertyOp37
 70
     1
102
RTVSPropertyOp38
 70
     1
102
RTVSPropertyOp39
 70
     1
102
RTVSPropertyOp40
 70
     1
102
RTVSPropertyOp41
 70
     1
102
RTVSPropertyOp42
 70
     1
102
RTVSPropertyOp43
 70
     1
102
RTVSPropertyOp44
 70
     1
102
RTVSPropertyOp45
 70
     1
102
RTVSPropertyOp46
 70
     1
102
RTVSPropertyOp47
 70
     1
102
RTVSPropertyOp48
 70
     1
102
RTVSPropertyOp49
 70
     1
102
RTVSPropertyOp50
 70
     1
102
RTVSPropertyOp51
 70
     0
102
RTVSPropertyOp52
 70
     0
102
RTVSPropertyOp53
 70
     1
102
RTVSPropertyOp54
 70
     1
102
RTVSPropertyOp55
 70
     1
102
RTVSPropertyOp56
 70
     1
102
RTVSPropertyOp57
 70
     1
102
RTVSPropertyOp58
 70
     1
102
RTVSPropertyOp59
 70
     1
102
RTVSPropertyOp60
 70
     1
102
RTVSPropertyOp61
 70
     1
102
RTVSPropertyOp62
 70
     1
  0
XRECORD
  5
2E5D0
102
{ACAD_REACTORS
330
2E5CF
102
}
330
2E5CF
100
AcDbXrecord
280
     1
102
RTVSPost2010Prop28
280
     0
102
RTVSPost2010PropOp28
 70
     1
102
RTVSPost2010Prop29
280
     1
102
RTVSPost2010PropOp29
 70
     1
102
RTVSPost2010Prop30
280
     1
102
RTVSPost2010PropOp30
 70
     1
102
RTVSPost2010Prop31
280
     0
102
RTVSPost2010PropOp31
 70
     1
102
RTVSPost2010Prop32
280
     0
102
RTVSPost2010PropOp32
 70
     1
102
RTVSPost2010Prop33
280
     0
102
RTVSPost2010PropOp33
 70
     1
102
RTVSPost2010Prop34
280
     0
102
RTVSPost2010PropOp34
 70
     1
102
RTVSPost2010Prop35
280
     0
102
RTVSPost2010PropOp35
 70
     1
102
RTVSPost2010Prop36
280
     0
102
RTVSPost2010PropOp36
 70
     1
102
RTVSPost2010Prop37
 90
       50
102
RTVSPost2010PropOp37
 70
     1
102
RTVSPost2010Prop38
140
0.0
102
RTVSPost2010PropOp38
 70
     1
102
RTVSPost2010Prop39
140
1.0
102
RTVSPost2010PropOp39
 70
     1
102
RTVSPost2010Prop40
 90
        0
102
RTVSPost2010PropOp40
 70
     1
102
RTVSPost2010Prop41ColorIndex
 90
       18
102
RTVSPost2010Prop41ColorRGB
 90
        0
102
RTVSPost2010PropOp41
 70
     1
102
RTVSPost2010Prop42
 90
       50
102
RTVSPost2010PropOp42
 70
     1
102
RTVSPost2010Prop43
 90
        3
102
RTVSPost2010PropOp43
 70
     1
102
RTVSPost2010Prop44ColorIndex
 90
        5
102
RTVSPost2010Prop44ColorRGB
 90
      255
102
RTVSPost2010PropOp44
 70
     1
102
RTVSPost2010Prop45
280
     0
102
RTVSPost2010PropOp45
 70
     1
102
RTVSPost2010Prop46
 90
       50
102
RTVSPost2010PropOp46
 70
     1
102
RTVSPost2010Prop47
 90
       50
102
RTVSPost2010PropOp47
 70
     1
102
RTVSPost2010Prop48
 90
       50
102
RTVSPost2010PropOp48
 70
     1
102
RTVSPost2010Prop49
280
     0
102
RTVSPost2010PropOp49
 70
     1
102
RTVSPost2010Prop50
 90
       50
102
RTVSPost2010PropOp50
 70
     1
102
RTVSPost2010Prop51ColorIndex
 90
      256
102
RTVSPost2010Prop51ColorRGB
 90
-16777216
102
RTVSPost2010PropOp51
 70
     0
102
RTVSPost2010Prop52
140
1.0
102
RTVSPost2010PropOp52
 70
     0
102
RTVSPost2010Prop53
 90
        2
102
RTVSPost2010PropOp53
 70
     1
102
RTVSPost2010Prop54
  1
strokes_ogs.tif
102
RTVSPost2010PropOp54
 70
     1
102
RTVSPost2010Prop55
280
     0
102
RTVSPost2010PropOp55
 70
     1
102
RTVSPost2010Prop56
140
1.0
102
RTVSPost2010PropOp56
 70
     1
102
RTVSPost2010Prop57
140
1.0
102
RTVSPost2010PropOp57
 70
     1
102
RTVSPropertyOp0
 70
     1
102
RTVSPropertyOp1
 70
     1
102
RTVSPropertyOp2
 70
     1
102
RTVSPropertyOp3
 70
     1
102
RTVSPropertyOp4
 70
     1
102
RTVSPropertyOp5
 70
     1
102
RTVSPropertyOp6
 70
     1
102
RTVSPropertyOp7
 70
     1
102
RTVSPropertyOp8
 70
     1
102
RTVSPropertyOp9
 70
     1
102
RTVSPropertyOp10
 70
     1
102
RTVSPropertyOp11
 70
     1
102
RTVSPropertyOp12
 70
     1
102
RTVSPropertyOp13
 70
     1
102
RTVSPropertyOp14
 70
     1
102
RTVSPropertyOp15
 70
     1
102
RTVSPropertyOp16
 70
     1
102
RTVSPropertyOp17
 70
     1
102
RTVSPropertyOp18
 70
     1
102
RTVSPropertyOp19
 70
     1
102
RTVSPropertyOp20
 70
     1
102
RTVSPropertyOp21
 70
     1
102
RTVSPropertyOp22
 70
     1
102
RTVSPropertyOp23
 70
     1
102
RTVSPropertyOp24
 70
     1
102
RTVSPropertyOp25
 70
     1
102
RTVSPropertyOp26
 70
     1
102
RTVSPropertyOp27
 70
     1
102
RTVSPropertyOp28
 70
     1
102
RTVSPropertyOp29
 70
     1
102
RTVSPropertyOp30
 70
     1
102
RTVSPropertyOp31
 70
     1
102
RTVSPropertyOp32
 70
     1
102
RTVSPropertyOp33
 70
     1
102
RTVSPropertyOp34
 70
     1
102
RTVSPropertyOp35
 70
     1
102
RTVSPropertyOp36
 70
     1
102
RTVSPropertyOp37
 70
     1
102
RTVSPropertyOp38
 70
     1
102
RTVSPropertyOp39
 70
     1
102
RTVSPropertyOp40
 70
     1
102
RTVSPropertyOp41
 70
     1
102
RTVSPropertyOp42
 70
     1
102
RTVSPropertyOp43
 70
     1
102
RTVSPropertyOp44
 70
     1
102
RTVSPropertyOp45
 70
     1
102
RTVSPropertyOp46
 70
     1
102
RTVSPropertyOp47
 70
     1
102
RTVSPropertyOp48
 70
     1
102
RTVSPropertyOp49
 70
     1
102
RTVSPropertyOp50
 70
     1
102
RTVSPropertyOp51
 70
     0
102
RTVSPropertyOp52
 70
     0
102
RTVSPropertyOp53
 70
     1
102
RTVSPropertyOp54
 70
     1
102
RTVSPropertyOp55
 70
     1
102
RTVSPropertyOp56
 70
     1
102
RTVSPropertyOp57
 70
     1
102
RTVSPropertyOp58
 70
     1
102
RTVSPropertyOp59
 70
     1
102
RTVSPropertyOp60
 70
     1
102
RTVSPropertyOp61
 70
     1
102
RTVSPropertyOp62
 70
     1
  0
XRECORD
  5
2E5C2
102
{ACAD_REACTORS
330
2E5C1
102
}
330
2E5C1
100
AcDbXrecord
280
     1
102
RTVSPost2010Prop28
280
     0
102
RTVSPost2010PropOp28
 70
     1
102
RTVSPost2010Prop29
280
     1
102
RTVSPost2010PropOp29
 70
     1
102
RTVSPost2010Prop30
280
     1
102
RTVSPost2010PropOp30
 70
     1
102
RTVSPost2010Prop31
280
     0
102
RTVSPost2010PropOp31
 70
     1
102
RTVSPost2010Prop32
280
     0
102
RTVSPost2010PropOp32
 70
     1
102
RTVSPost2010Prop33
280
     0
102
RTVSPost2010PropOp33
 70
     1
102
RTVSPost2010Prop34
280
     0
102
RTVSPost2010PropOp34
 70
     1
102
RTVSPost2010Prop35
280
     0
102
RTVSPost2010PropOp35
 70
     1
102
RTVSPost2010Prop36
280
     0
102
RTVSPost2010PropOp36
 70
     1
102
RTVSPost2010Prop37
 90
       50
102
RTVSPost2010PropOp37
 70
     1
102
RTVSPost2010Prop38
140
0.0
102
RTVSPost2010PropOp38
 70
     1
102
RTVSPost2010Prop39
140
1.0
102
RTVSPost2010PropOp39
 70
     1
102
RTVSPost2010Prop40
 90
        0
102
RTVSPost2010PropOp40
 70
     1
102
RTVSPost2010Prop41ColorIndex
 90
       18
102
RTVSPost2010Prop41ColorRGB
 90
        0
102
RTVSPost2010PropOp41
 70
     1
102
RTVSPost2010Prop42
 90
       50
102
RTVSPost2010PropOp42
 70
     1
102
RTVSPost2010Prop43
 90
        3
102
RTVSPost2010PropOp43
 70
     1
102
RTVSPost2010Prop44ColorIndex
 90
        5
102
RTVSPost2010Prop44ColorRGB
 90
      255
102
RTVSPost2010PropOp44
 70
     1
102
RTVSPost2010Prop45
280
     0
102
RTVSPost2010PropOp45
 70
     1
102
RTVSPost2010Prop46
 90
       50
102
RTVSPost2010PropOp46
 70
     1
102
RTVSPost2010Prop47
 90
       50
102
RTVSPost2010PropOp47
 70
     1
102
RTVSPost2010Prop48
 90
       50
102
RTVSPost2010PropOp48
 70
     1
102
RTVSPost2010Prop49
280
     0
102
RTVSPost2010PropOp49
 70
     1
102
RTVSPost2010Prop50
 90
       50
102
RTVSPost2010PropOp50
 70
     1
102
RTVSPost2010Prop51ColorIndex
 90
      256
102
RTVSPost2010Prop51ColorRGB
 90
-16777216
102
RTVSPost2010PropOp51
 70
     0
102
RTVSPost2010Prop52
140
1.0
102
RTVSPost2010PropOp52
 70
     0
102
RTVSPost2010Prop53
 90
        2
102
RTVSPost2010PropOp53
 70
     1
102
RTVSPost2010Prop54
  1
strokes_ogs.tif
102
RTVSPost2010PropOp54
 70
     1
102
RTVSPost2010Prop55
280
     0
102
RTVSPost2010PropOp55
 70
     1
102
RTVSPost2010Prop56
140
1.0
102
RTVSPost2010PropOp56
 70
     1
102
RTVSPost2010Prop57
140
1.0
102
RTVSPost2010PropOp57
 70
     1
102
RTVSPropertyOp0
 70
     1
102
RTVSPropertyOp1
 70
     1
102
RTVSPropertyOp2
 70
     1
102
RTVSPropertyOp3
 70
     1
102
RTVSPropertyOp4
 70
     1
102
RTVSPropertyOp5
 70
     1
102
RTVSPropertyOp6
 70
     1
102
RTVSPropertyOp7
 70
     1
102
RTVSPropertyOp8
 70
     1
102
RTVSPropertyOp9
 70
     1
102
RTVSPropertyOp10
 70
     1
102
RTVSPropertyOp11
 70
     1
102
RTVSPropertyOp12
 70
     1
102
RTVSPropertyOp13
 70
     1
102
RTVSPropertyOp14
 70
     1
102
RTVSPropertyOp15
 70
     1
102
RTVSPropertyOp16
 70
     1
102
RTVSPropertyOp17
 70
     1
102
RTVSPropertyOp18
 70
     1
102
RTVSPropertyOp19
 70
     1
102
RTVSPropertyOp20
 70
     1
102
RTVSPropertyOp21
 70
     1
102
RTVSPropertyOp22
 70
     1
102
RTVSPropertyOp23
 70
     1
102
RTVSPropertyOp24
 70
     1
102
RTVSPropertyOp25
 70
     1
102
RTVSPropertyOp26
 70
     1
102
RTVSPropertyOp27
 70
     1
102
RTVSPropertyOp28
 70
     1
102
RTVSPropertyOp29
 70
     1
102
RTVSPropertyOp30
 70
     1
102
RTVSPropertyOp31
 70
     1
102
RTVSPropertyOp32
 70
     1
102
RTVSPropertyOp33
 70
     1
102
RTVSPropertyOp34
 70
     1
102
RTVSPropertyOp35
 70
     1
102
RTVSPropertyOp36
 70
     1
102
RTVSPropertyOp37
 70
     1
102
RTVSPropertyOp38
 70
     1
102
RTVSPropertyOp39
 70
     1
102
RTVSPropertyOp40
 70
     1
102
RTVSPropertyOp41
 70
     1
102
RTVSPropertyOp42
 70
     1
102
RTVSPropertyOp43
 70
     1
102
RTVSPropertyOp44
 70
     1
102
RTVSPropertyOp45
 70
     1
102
RTVSPropertyOp46
 70
     1
102
RTVSPropertyOp47
 70
     1
102
RTVSPropertyOp48
 70
     1
102
RTVSPropertyOp49
 70
     1
102
RTVSPropertyOp50
 70
     1
102
RTVSPropertyOp51
 70
     0
102
RTVSPropertyOp52
 70
     0
102
RTVSPropertyOp53
 70
     1
102
RTVSPropertyOp54
 70
     1
102
RTVSPropertyOp55
 70
     1
102
RTVSPropertyOp56
 70
     1
102
RTVSPropertyOp57
 70
     1
102
RTVSPropertyOp58
 70
     1
102
RTVSPropertyOp59
 70
     1
102
RTVSPropertyOp60
 70
     1
102
RTVSPropertyOp61
 70
     1
102
RTVSPropertyOp62
 70
     1
  0
XRECORD
  5
2E5C6
102
{ACAD_REACTORS
330
2E5C5
102
}
330
2E5C5
100
AcDbXrecord
280
     1
102
RTVSPost2010Prop28
280
     0
102
RTVSPost2010PropOp28
 70
     1
102
RTVSPost2010Prop29
280
     1
102
RTVSPost2010PropOp29
 70
     1
102
RTVSPost2010Prop30
280
     1
102
RTVSPost2010PropOp30
 70
     1
102
RTVSPost2010Prop31
280
     0
102
RTVSPost2010PropOp31
 70
     1
102
RTVSPost2010Prop32
280
     0
102
RTVSPost2010PropOp32
 70
     1
102
RTVSPost2010Prop33
280
     0
102
RTVSPost2010PropOp33
 70
     1
102
RTVSPost2010Prop34
280
     0
102
RTVSPost2010PropOp34
 70
     1
102
RTVSPost2010Prop35
280
     0
102
RTVSPost2010PropOp35
 70
     1
102
RTVSPost2010Prop36
280
     0
102
RTVSPost2010PropOp36
 70
     1
102
RTVSPost2010Prop37
 90
       50
102
RTVSPost2010PropOp37
 70
     1
102
RTVSPost2010Prop38
140
0.0
102
RTVSPost2010PropOp38
 70
     1
102
RTVSPost2010Prop39
140
1.0
102
RTVSPost2010PropOp39
 70
     1
102
RTVSPost2010Prop40
 90
        0
102
RTVSPost2010PropOp40
 70
     1
102
RTVSPost2010Prop41ColorIndex
 90
       18
102
RTVSPost2010Prop41ColorRGB
 90
        0
102
RTVSPost2010PropOp41
 70
     1
102
RTVSPost2010Prop42
 90
       50
102
RTVSPost2010PropOp42
 70
     1
102
RTVSPost2010Prop43
 90
        3
102
RTVSPost2010PropOp43
 70
     1
102
RTVSPost2010Prop44ColorIndex
 90
        5
102
RTVSPost2010Prop44ColorRGB
 90
      255
102
RTVSPost2010PropOp44
 70
     1
102
RTVSPost2010Prop45
280
     0
102
RTVSPost2010PropOp45
 70
     1
102
RTVSPost2010Prop46
 90
       50
102
RTVSPost2010PropOp46
 70
     1
102
RTVSPost2010Prop47
 90
       50
102
RTVSPost2010PropOp47
 70
     1
102
RTVSPost2010Prop48
 90
       50
102
RTVSPost2010PropOp48
 70
     1
102
RTVSPost2010Prop49
280
     0
102
RTVSPost2010PropOp49
 70
     1
102
RTVSPost2010Prop50
 90
       50
102
RTVSPost2010PropOp50
 70
     1
102
RTVSPost2010Prop51ColorIndex
 90
      256
102
RTVSPost2010Prop51ColorRGB
 90
-16777216
102
RTVSPost2010PropOp51
 70
     0
102
RTVSPost2010Prop52
140
1.0
102
RTVSPost2010PropOp52
 70
     0
102
RTVSPost2010Prop53
 90
        2
102
RTVSPost2010PropOp53
 70
     1
102
RTVSPost2010Prop54
  1
strokes_ogs.tif
102
RTVSPost2010PropOp54
 70
     1
102
RTVSPost2010Prop55
280
     0
102
RTVSPost2010PropOp55
 70
     1
102
RTVSPost2010Prop56
140
1.0
102
RTVSPost2010PropOp56
 70
     1
102
RTVSPost2010Prop57
140
1.0
102
RTVSPost2010PropOp57
 70
     1
102
RTVSPropertyOp0
 70
     1
102
RTVSPropertyOp1
 70
     1
102
RTVSPropertyOp2
 70
     1
102
RTVSPropertyOp3
 70
     1
102
RTVSPropertyOp4
 70
     1
102
RTVSPropertyOp5
 70
     1
102
RTVSPropertyOp6
 70
     1
102
RTVSPropertyOp7
 70
     1
102
RTVSPropertyOp8
 70
     1
102
RTVSPropertyOp9
 70
     1
102
RTVSPropertyOp10
 70
     1
102
RTVSPropertyOp11
 70
     1
102
RTVSPropertyOp12
 70
     1
102
RTVSPropertyOp13
 70
     1
102
RTVSPropertyOp14
 70
     1
102
RTVSPropertyOp15
 70
     1
102
RTVSPropertyOp16
 70
     1
102
RTVSPropertyOp17
 70
     1
102
RTVSPropertyOp18
 70
     1
102
RTVSPropertyOp19
 70
     1
102
RTVSPropertyOp20
 70
     1
102
RTVSPropertyOp21
 70
     1
102
RTVSPropertyOp22
 70
     1
102
RTVSPropertyOp23
 70
     1
102
RTVSPropertyOp24
 70
     1
102
RTVSPropertyOp25
 70
     1
102
RTVSPropertyOp26
 70
     1
102
RTVSPropertyOp27
 70
     1
102
RTVSPropertyOp28
 70
     1
102
RTVSPropertyOp29
 70
     1
102
RTVSPropertyOp30
 70
     1
102
RTVSPropertyOp31
 70
     1
102
RTVSPropertyOp32
 70
     1
102
RTVSPropertyOp33
 70
     1
102
RTVSPropertyOp34
 70
     1
102
RTVSPropertyOp35
 70
     1
102
RTVSPropertyOp36
 70
     1
102
RTVSPropertyOp37
 70
     1
102
RTVSPropertyOp38
 70
     1
102
RTVSPropertyOp39
 70
     1
102
RTVSPropertyOp40
 70
     1
102
RTVSPropertyOp41
 70
     1
102
RTVSPropertyOp42
 70
     1
102
RTVSPropertyOp43
 70
     1
102
RTVSPropertyOp44
 70
     1
102
RTVSPropertyOp45
 70
     1
102
RTVSPropertyOp46
 70
     1
102
RTVSPropertyOp47
 70
     1
102
RTVSPropertyOp48
 70
     1
102
RTVSPropertyOp49
 70
     1
102
RTVSPropertyOp50
 70
     1
102
RTVSPropertyOp51
 70
     0
102
RTVSPropertyOp52
 70
     0
102
RTVSPropertyOp53
 70
     1
102
RTVSPropertyOp54
 70
     1
102
RTVSPropertyOp55
 70
     1
102
RTVSPropertyOp56
 70
     1
102
RTVSPropertyOp57
 70
     1
102
RTVSPropertyOp58
 70
     1
102
RTVSPropertyOp59
 70
     1
102
RTVSPropertyOp60
 70
     1
102
RTVSPropertyOp61
 70
     1
102
RTVSPropertyOp62
 70
     1
  0
XRECORD
  5
2E5E0
102
{ACAD_REACTORS
330
2E5DF
102
}
330
2E5DF
100
AcDbXrecord
280
     1
102
RTVSPost2010Prop28
280
     0
102
RTVSPost2010PropOp28
 70
     0
102
RTVSPost2010Prop29
280
     1
102
RTVSPost2010PropOp29
 70
     0
102
RTVSPost2010Prop30
280
     1
102
RTVSPost2010PropOp30
 70
     0
102
RTVSPost2010Prop31
280
     0
102
RTVSPost2010PropOp31
 70
     0
102
RTVSPost2010Prop32
280
     0
102
RTVSPost2010PropOp32
 70
     0
102
RTVSPost2010Prop33
280
     0
102
RTVSPost2010PropOp33
 70
     0
102
RTVSPost2010Prop34
280
     0
102
RTVSPost2010PropOp34
 70
     0
102
RTVSPost2010Prop35
280
     0
102
RTVSPost2010PropOp35
 70
     0
102
RTVSPost2010Prop36
280
     0
102
RTVSPost2010PropOp36
 70
     0
102
RTVSPost2010Prop37
 90
       50
102
RTVSPost2010PropOp37
 70
     0
102
RTVSPost2010Prop38
140
0.0
102
RTVSPost2010PropOp38
 70
     0
102
RTVSPost2010Prop39
140
1.0
102
RTVSPost2010PropOp39
 70
     0
102
RTVSPost2010Prop40
 90
        0
102
RTVSPost2010PropOp40
 70
     0
102
RTVSPost2010Prop41ColorIndex
 90
       18
102
RTVSPost2010Prop41ColorRGB
 90
        0
102
RTVSPost2010PropOp41
 70
     0
102
RTVSPost2010Prop42
 90
       50
102
RTVSPost2010PropOp42
 70
     0
102
RTVSPost2010Prop43
 90
        3
102
RTVSPost2010PropOp43
 70
     0
102
RTVSPost2010Prop44ColorIndex
 90
        5
102
RTVSPost2010Prop44ColorRGB
 90
      255
102
RTVSPost2010PropOp44
 70
     0
102
RTVSPost2010Prop45
280
     0
102
RTVSPost2010PropOp45
 70
     0
102
RTVSPost2010Prop46
 90
       50
102
RTVSPost2010PropOp46
 70
     0
102
RTVSPost2010Prop47
 90
       50
102
RTVSPost2010PropOp47
 70
     0
102
RTVSPost2010Prop48
 90
       50
102
RTVSPost2010PropOp48
 70
     0
102
RTVSPost2010Prop49
280
     0
102
RTVSPost2010PropOp49
 70
     0
102
RTVSPost2010Prop50
 90
       50
102
RTVSPost2010PropOp50
 70
     0
102
RTVSPost2010Prop51ColorIndex
 90
      256
102
RTVSPost2010Prop51ColorRGB
 90
-16777216
102
RTVSPost2010PropOp51
 70
     0
102
RTVSPost2010Prop52
140
1.0
102
RTVSPost2010PropOp52
 70
     0
102
RTVSPost2010Prop53
 90
        2
102
RTVSPost2010PropOp53
 70
     0
102
RTVSPost2010Prop54
  1
strokes_ogs.tif
102
RTVSPost2010PropOp54
 70
     0
102
RTVSPost2010Prop55
280
     0
102
RTVSPost2010PropOp55
 70
     0
102
RTVSPost2010Prop56
140
1.0
102
RTVSPost2010PropOp56
 70
     0
102
RTVSPost2010Prop57
140
1.0
102
RTVSPost2010PropOp57
 70
     0
102
RTVSPropertyOp0
 70
     0
102
RTVSPropertyOp1
 70
     0
102
RTVSPropertyOp2
 70
     0
102
RTVSPropertyOp3
 70
     0
102
RTVSPropertyOp4
 70
     0
102
RTVSPropertyOp5
 70
     0
102
RTVSPropertyOp6
 70
     0
102
RTVSPropertyOp7
 70
     0
102
RTVSPropertyOp8
 70
     0
102
RTVSPropertyOp9
 70
     0
102
RTVSPropertyOp10
 70
     0
102
RTVSPropertyOp11
 70
     0
102
RTVSPropertyOp12
 70
     0
102
RTVSPropertyOp13
 70
     0
102
RTVSPropertyOp14
 70
     2
102
RTVSPropertyOp15
 70
     0
102
RTVSPropertyOp16
 70
     0
102
RTVSPropertyOp17
 70
     0
102
RTVSPropertyOp18
 70
     0
102
RTVSPropertyOp19
 70
     0
102
RTVSPropertyOp20
 70
     0
102
RTVSPropertyOp21
 70
     0
102
RTVSPropertyOp22
 70
     0
102
RTVSPropertyOp23
 70
     0
102
RTVSPropertyOp24
 70
     0
102
RTVSPropertyOp25
 70
     0
102
RTVSPropertyOp26
 70
     0
102
RTVSPropertyOp27
 70
     0
102
RTVSPropertyOp28
 70
     0
102
RTVSPropertyOp29
 70
     0
102
RTVSPropertyOp30
 70
     0
102
RTVSPropertyOp31
 70
     0
102
RTVSPropertyOp32
 70
     0
102
RTVSPropertyOp33
 70
     0
102
RTVSPropertyOp34
 70
     0
102
RTVSPropertyOp35
 70
     0
102
RTVSPropertyOp36
 70
     0
102
RTVSPropertyOp37
 70
     0
102
RTVSPropertyOp38
 70
     0
102
RTVSPropertyOp39
 70
     0
102
RTVSPropertyOp40
 70
     0
102
RTVSPropertyOp41
 70
     0
102
RTVSPropertyOp42
 70
     0
102
RTVSPropertyOp43
 70
     0
102
RTVSPropertyOp44
 70
     0
102
RTVSPropertyOp45
 70
     0
102
RTVSPropertyOp46
 70
     0
102
RTVSPropertyOp47
 70
     0
102
RTVSPropertyOp48
 70
     0
102
RTVSPropertyOp49
 70
     0
102
RTVSPropertyOp50
 70
     0
102
RTVSPropertyOp51
 70
     0
102
RTVSPropertyOp52
 70
     0
102
RTVSPropertyOp53
 70
     0
102
RTVSPropertyOp54
 70
     0
102
RTVSPropertyOp55
 70
     0
102
RTVSPropertyOp56
 70
     0
102
RTVSPropertyOp57
 70
     0
102
RTVSPropertyOp58
 70
     0
102
RTVSPropertyOp59
 70
     0
102
RTVSPropertyOp60
 70
     0
102
RTVSPropertyOp61
 70
     0
102
RTVSPropertyOp62
 70
     0
  0
XRECORD
  5
2E5CE
102
{ACAD_REACTORS
330
2E5CD
102
}
330
2E5CD
100
AcDbXrecord
280
     1
102
RTVSPost2010Prop28
280
     0
102
RTVSPost2010PropOp28
 70
     1
102
RTVSPost2010Prop29
280
     1
102
RTVSPost2010PropOp29
 70
     1
102
RTVSPost2010Prop30
280
     1
102
RTVSPost2010PropOp30
 70
     1
102
RTVSPost2010Prop31
280
     0
102
RTVSPost2010PropOp31
 70
     1
102
RTVSPost2010Prop32
280
     0
102
RTVSPost2010PropOp32
 70
     1
102
RTVSPost2010Prop33
280
     0
102
RTVSPost2010PropOp33
 70
     1
102
RTVSPost2010Prop34
280
     0
102
RTVSPost2010PropOp34
 70
     1
102
RTVSPost2010Prop35
280
     0
102
RTVSPost2010PropOp35
 70
     1
102
RTVSPost2010Prop36
280
     0
102
RTVSPost2010PropOp36
 70
     1
102
RTVSPost2010Prop37
 90
       50
102
RTVSPost2010PropOp37
 70
     1
102
RTVSPost2010Prop38
140
0.0
102
RTVSPost2010PropOp38
 70
     1
102
RTVSPost2010Prop39
140
1.0
102
RTVSPost2010PropOp39
 70
     1
102
RTVSPost2010Prop40
 90
        0
102
RTVSPost2010PropOp40
 70
     1
102
RTVSPost2010Prop41ColorIndex
 90
       18
102
RTVSPost2010Prop41ColorRGB
 90
        0
102
RTVSPost2010PropOp41
 70
     1
102
RTVSPost2010Prop42
 90
       50
102
RTVSPost2010PropOp42
 70
     1
102
RTVSPost2010Prop43
 90
        3
102
RTVSPost2010PropOp43
 70
     1
102
RTVSPost2010Prop44ColorIndex
 90
        5
102
RTVSPost2010Prop44ColorRGB
 90
      255
102
RTVSPost2010PropOp44
 70
     1
102
RTVSPost2010Prop45
280
     0
102
RTVSPost2010PropOp45
 70
     1
102
RTVSPost2010Prop46
 90
       50
102
RTVSPost2010PropOp46
 70
     1
102
RTVSPost2010Prop47
 90
       50
102
RTVSPost2010PropOp47
 70
     1
102
RTVSPost2010Prop48
 90
       50
102
RTVSPost2010PropOp48
 70
     1
102
RTVSPost2010Prop49
280
     0
102
RTVSPost2010PropOp49
 70
     1
102
RTVSPost2010Prop50
 90
       50
102
RTVSPost2010PropOp50
 70
     1
102
RTVSPost2010Prop51ColorIndex
 90
      256
102
RTVSPost2010Prop51ColorRGB
 90
-16777216
102
RTVSPost2010PropOp51
 70
     0
102
RTVSPost2010Prop52
140
1.0
102
RTVSPost2010PropOp52
 70
     0
102
RTVSPost2010Prop53
 90
        2
102
RTVSPost2010PropOp53
 70
     1
102
RTVSPost2010Prop54
  1
strokes_ogs.tif
102
RTVSPost2010PropOp54
 70
     1
102
RTVSPost2010Prop55
280
     0
102
RTVSPost2010PropOp55
 70
     1
102
RTVSPost2010Prop56
140
1.0
102
RTVSPost2010PropOp56
 70
     1
102
RTVSPost2010Prop57
140
1.0
102
RTVSPost2010PropOp57
 70
     1
102
RTVSPropertyOp0
 70
     1
102
RTVSPropertyOp1
 70
     1
102
RTVSPropertyOp2
 70
     1
102
RTVSPropertyOp3
 70
     1
102
RTVSPropertyOp4
 70
     1
102
RTVSPropertyOp5
 70
     1
102
RTVSPropertyOp6
 70
     1
102
RTVSPropertyOp7
 70
     1
102
RTVSPropertyOp8
 70
     1
102
RTVSPropertyOp9
 70
     1
102
RTVSPropertyOp10
 70
     1
102
RTVSPropertyOp11
 70
     1
102
RTVSPropertyOp12
 70
     1
102
RTVSPropertyOp13
 70
     1
102
RTVSPropertyOp14
 70
     1
102
RTVSPropertyOp15
 70
     1
102
RTVSPropertyOp16
 70
     1
102
RTVSPropertyOp17
 70
     1
102
RTVSPropertyOp18
 70
     1
102
RTVSPropertyOp19
 70
     1
102
RTVSPropertyOp20
 70
     1
102
RTVSPropertyOp21
 70
     1
102
RTVSPropertyOp22
 70
     1
102
RTVSPropertyOp23
 70
     1
102
RTVSPropertyOp24
 70
     1
102
RTVSPropertyOp25
 70
     1
102
RTVSPropertyOp26
 70
     1
102
RTVSPropertyOp27
 70
     1
102
RTVSPropertyOp28
 70
     1
102
RTVSPropertyOp29
 70
     1
102
RTVSPropertyOp30
 70
     1
102
RTVSPropertyOp31
 70
     1
102
RTVSPropertyOp32
 70
     1
102
RTVSPropertyOp33
 70
     1
102
RTVSPropertyOp34
 70
     1
102
RTVSPropertyOp35
 70
     1
102
RTVSPropertyOp36
 70
     1
102
RTVSPropertyOp37
 70
     1
102
RTVSPropertyOp38
 70
     1
102
RTVSPropertyOp39
 70
     1
102
RTVSPropertyOp40
 70
     1
102
RTVSPropertyOp41
 70
     1
102
RTVSPropertyOp42
 70
     1
102
RTVSPropertyOp43
 70
     1
102
RTVSPropertyOp44
 70
     1
102
RTVSPropertyOp45
 70
     1
102
RTVSPropertyOp46
 70
     1
102
RTVSPropertyOp47
 70
     1
102
RTVSPropertyOp48
 70
     1
102
RTVSPropertyOp49
 70
     1
102
RTVSPropertyOp50
 70
     1
102
RTVSPropertyOp51
 70
     0
102
RTVSPropertyOp52
 70
     0
102
RTVSPropertyOp53
 70
     1
102
RTVSPropertyOp54
 70
     1
102
RTVSPropertyOp55
 70
     1
102
RTVSPropertyOp56
 70
     1
102
RTVSPropertyOp57
 70
     1
102
RTVSPropertyOp58
 70
     1
102
RTVSPropertyOp59
 70
     1
102
RTVSPropertyOp60
 70
     1
102
RTVSPropertyOp61
 70
     1
102
RTVSPropertyOp62
 70
     1
  0
XRECORD
  5
2E5B2
102
{ACAD_REACTORS
330
2E5B1
102
}
330
2E5B1
100
AcDbXrecord
280
     1
102
RTVSPost2010Prop28
280
     0
102
RTVSPost2010PropOp28
 70
     1
102
RTVSPost2010Prop29
280
     1
102
RTVSPost2010PropOp29
 70
     1
102
RTVSPost2010Prop30
280
     1
102
RTVSPost2010PropOp30
 70
     1
102
RTVSPost2010Prop31
280
     0
102
RTVSPost2010PropOp31
 70
     1
102
RTVSPost2010Prop32
280
     0
102
RTVSPost2010PropOp32
 70
     1
102
RTVSPost2010Prop33
280
     0
102
RTVSPost2010PropOp33
 70
     1
102
RTVSPost2010Prop34
280
     0
102
RTVSPost2010PropOp34
 70
     1
102
RTVSPost2010Prop35
280
     0
102
RTVSPost2010PropOp35
 70
     1
102
RTVSPost2010Prop36
280
     0
102
RTVSPost2010PropOp36
 70
     1
102
RTVSPost2010Prop37
 90
       50
102
RTVSPost2010PropOp37
 70
     1
102
RTVSPost2010Prop38
140
0.0
102
RTVSPost2010PropOp38
 70
     1
102
RTVSPost2010Prop39
140
1.0
102
RTVSPost2010PropOp39
 70
     1
102
RTVSPost2010Prop40
 90
        0
102
RTVSPost2010PropOp40
 70
     1
102
RTVSPost2010Prop41ColorIndex
 90
       18
102
RTVSPost2010Prop41ColorRGB
 90
        0
102
RTVSPost2010PropOp41
 70
     1
102
RTVSPost2010Prop42
 90
       50
102
RTVSPost2010PropOp42
 70
     1
102
RTVSPost2010Prop43
 90
        3
102
RTVSPost2010PropOp43
 70
     1
102
RTVSPost2010Prop44ColorIndex
 90
        5
102
RTVSPost2010Prop44ColorRGB
 90
      255
102
RTVSPost2010PropOp44
 70
     1
102
RTVSPost2010Prop45
280
     0
102
RTVSPost2010PropOp45
 70
     1
102
RTVSPost2010Prop46
 90
       50
102
RTVSPost2010PropOp46
 70
     1
102
RTVSPost2010Prop47
 90
       50
102
RTVSPost2010PropOp47
 70
     1
102
RTVSPost2010Prop48
 90
       50
102
RTVSPost2010PropOp48
 70
     1
102
RTVSPost2010Prop49
280
     0
102
RTVSPost2010PropOp49
 70
     1
102
RTVSPost2010Prop50
 90
       50
102
RTVSPost2010PropOp50
 70
     1
102
RTVSPost2010Prop51ColorIndex
 90
      256
102
RTVSPost2010Prop51ColorRGB
 90
-16777216
102
RTVSPost2010PropOp51
 70
     0
102
RTVSPost2010Prop52
140
1.0
102
RTVSPost2010PropOp52
 70
     0
102
RTVSPost2010Prop53
 90
        2
102
RTVSPost2010PropOp53
 70
     1
102
RTVSPost2010Prop54
  1
strokes_ogs.tif
102
RTVSPost2010PropOp54
 70
     1
102
RTVSPost2010Prop55
280
     0
102
RTVSPost2010PropOp55
 70
     1
102
RTVSPost2010Prop56
140
1.0
102
RTVSPost2010PropOp56
 70
     1
102
RTVSPost2010Prop57
140
1.0
102
RTVSPost2010PropOp57
 70
     1
102
RTVSPropertyOp0
 70
     1
102
RTVSPropertyOp1
 70
     1
102
RTVSPropertyOp2
 70
     1
102
RTVSPropertyOp3
 70
     1
102
RTVSPropertyOp4
 70
     1
102
RTVSPropertyOp5
 70
     1
102
RTVSPropertyOp6
 70
     1
102
RTVSPropertyOp7
 70
     1
102
RTVSPropertyOp8
 70
     1
102
RTVSPropertyOp9
 70
     1
102
RTVSPropertyOp10
 70
     1
102
RTVSPropertyOp11
 70
     1
102
RTVSPropertyOp12
 70
     1
102
RTVSPropertyOp13
 70
     1
102
RTVSPropertyOp14
 70
     1
102
RTVSPropertyOp15
 70
     1
102
RTVSPropertyOp16
 70
     1
102
RTVSPropertyOp17
 70
     1
102
RTVSPropertyOp18
 70
     1
102
RTVSPropertyOp19
 70
     1
102
RTVSPropertyOp20
 70
     1
102
RTVSPropertyOp21
 70
     1
102
RTVSPropertyOp22
 70
     1
102
RTVSPropertyOp23
 70
     1
102
RTVSPropertyOp24
 70
     1
102
RTVSPropertyOp25
 70
     1
102
RTVSPropertyOp26
 70
     1
102
RTVSPropertyOp27
 70
     1
102
RTVSPropertyOp28
 70
     1
102
RTVSPropertyOp29
 70
     1
102
RTVSPropertyOp30
 70
     1
102
RTVSPropertyOp31
 70
     1
102
RTVSPropertyOp32
 70
     1
102
RTVSPropertyOp33
 70
     1
102
RTVSPropertyOp34
 70
     1
102
RTVSPropertyOp35
 70
     1
102
RTVSPropertyOp36
 70
     1
102
RTVSPropertyOp37
 70
     1
102
RTVSPropertyOp38
 70
     1
102
RTVSPropertyOp39
 70
     1
102
RTVSPropertyOp40
 70
     1
102
RTVSPropertyOp41
 70
     1
102
RTVSPropertyOp42
 70
     1
102
RTVSPropertyOp43
 70
     1
102
RTVSPropertyOp44
 70
     1
102
RTVSPropertyOp45
 70
     1
102
RTVSPropertyOp46
 70
     1
102
RTVSPropertyOp47
 70
     1
102
RTVSPropertyOp48
 70
     1
102
RTVSPropertyOp49
 70
     1
102
RTVSPropertyOp50
 70
     1
102
RTVSPropertyOp51
 70
     0
102
RTVSPropertyOp52
 70
     0
102
RTVSPropertyOp53
 70
     1
102
RTVSPropertyOp54
 70
     1
102
RTVSPropertyOp55
 70
     1
102
RTVSPropertyOp56
 70
     1
102
RTVSPropertyOp57
 70
     1
102
RTVSPropertyOp58
 70
     1
102
RTVSPropertyOp59
 70
     1
102
RTVSPropertyOp60
 70
     1
102
RTVSPropertyOp61
 70
     1
102
RTVSPropertyOp62
 70
     1
  0
XRECORD
  5
2E5B4
102
{ACAD_REACTORS
330
2E5B3
102
}
330
2E5B3
100
AcDbXrecord
280
     1
102
RTVSPost2010Prop28
280
     0
102
RTVSPost2010PropOp28
 70
     1
102
RTVSPost2010Prop29
280
     1
102
RTVSPost2010PropOp29
 70
     1
102
RTVSPost2010Prop30
280
     1
102
RTVSPost2010PropOp30
 70
     1
102
RTVSPost2010Prop31
280
     0
102
RTVSPost2010PropOp31
 70
     1
102
RTVSPost2010Prop32
280
     0
102
RTVSPost2010PropOp32
 70
     1
102
RTVSPost2010Prop33
280
     0
102
RTVSPost2010PropOp33
 70
     1
102
RTVSPost2010Prop34
280
     0
102
RTVSPost2010PropOp34
 70
     1
102
RTVSPost2010Prop35
280
     0
102
RTVSPost2010PropOp35
 70
     1
102
RTVSPost2010Prop36
280
     0
102
RTVSPost2010PropOp36
 70
     1
102
RTVSPost2010Prop37
 90
       50
102
RTVSPost2010PropOp37
 70
     1
102
RTVSPost2010Prop38
140
0.0
102
RTVSPost2010PropOp38
 70
     1
102
RTVSPost2010Prop39
140
1.0
102
RTVSPost2010PropOp39
 70
     1
102
RTVSPost2010Prop40
 90
        0
102
RTVSPost2010PropOp40
 70
     1
102
RTVSPost2010Prop41ColorIndex
 90
       18
102
RTVSPost2010Prop41ColorRGB
 90
        0
102
RTVSPost2010PropOp41
 70
     1
102
RTVSPost2010Prop42
 90
       50
102
RTVSPost2010PropOp42
 70
     1
102
RTVSPost2010Prop43
 90
        3
102
RTVSPost2010PropOp43
 70
     1
102
RTVSPost2010Prop44ColorIndex
 90
        5
102
RTVSPost2010Prop44ColorRGB
 90
      255
102
RTVSPost2010PropOp44
 70
     1
102
RTVSPost2010Prop45
280
     0
102
RTVSPost2010PropOp45
 70
     1
102
RTVSPost2010Prop46
 90
       50
102
RTVSPost2010PropOp46
 70
     1
102
RTVSPost2010Prop47
 90
       50
102
RTVSPost2010PropOp47
 70
     1
102
RTVSPost2010Prop48
 90
       50
102
RTVSPost2010PropOp48
 70
     1
102
RTVSPost2010Prop49
280
     0
102
RTVSPost2010PropOp49
 70
     1
102
RTVSPost2010Prop50
 90
       50
102
RTVSPost2010PropOp50
 70
     1
102
RTVSPost2010Prop51ColorIndex
 90
      256
102
RTVSPost2010Prop51ColorRGB
 90
-16777216
102
RTVSPost2010PropOp51
 70
     0
102
RTVSPost2010Prop52
140
1.0
102
RTVSPost2010PropOp52
 70
     0
102
RTVSPost2010Prop53
 90
        2
102
RTVSPost2010PropOp53
 70
     1
102
RTVSPost2010Prop54
  1
strokes_ogs.tif
102
RTVSPost2010PropOp54
 70
     1
102
RTVSPost2010Prop55
280
     0
102
RTVSPost2010PropOp55
 70
     1
102
RTVSPost2010Prop56
140
1.0
102
RTVSPost2010PropOp56
 70
     1
102
RTVSPost2010Prop57
140
1.0
102
RTVSPost2010PropOp57
 70
     1
102
RTVSPropertyOp0
 70
     1
102
RTVSPropertyOp1
 70
     1
102
RTVSPropertyOp2
 70
     1
102
RTVSPropertyOp3
 70
     1
102
RTVSPropertyOp4
 70
     1
102
RTVSPropertyOp5
 70
     1
102
RTVSPropertyOp6
 70
     1
102
RTVSPropertyOp7
 70
     1
102
RTVSPropertyOp8
 70
     1
102
RTVSPropertyOp9
 70
     1
102
RTVSPropertyOp10
 70
     1
102
RTVSPropertyOp11
 70
     1
102
RTVSPropertyOp12
 70
     1
102
RTVSPropertyOp13
 70
     1
102
RTVSPropertyOp14
 70
     1
102
RTVSPropertyOp15
 70
     1
102
RTVSPropertyOp16
 70
     1
102
RTVSPropertyOp17
 70
     1
102
RTVSPropertyOp18
 70
     1
102
RTVSPropertyOp19
 70
     1
102
RTVSPropertyOp20
 70
     1
102
RTVSPropertyOp21
 70
     1
102
RTVSPropertyOp22
 70
     1
102
RTVSPropertyOp23
 70
     1
102
RTVSPropertyOp24
 70
     1
102
RTVSPropertyOp25
 70
     1
102
RTVSPropertyOp26
 70
     1
102
RTVSPropertyOp27
 70
     1
102
RTVSPropertyOp28
 70
     1
102
RTVSPropertyOp29
 70
     1
102
RTVSPropertyOp30
 70
     1
102
RTVSPropertyOp31
 70
     1
102
RTVSPropertyOp32
 70
     1
102
RTVSPropertyOp33
 70
     1
102
RTVSPropertyOp34
 70
     1
102
RTVSPropertyOp35
 70
     1
102
RTVSPropertyOp36
 70
     1
102
RTVSPropertyOp37
 70
     1
102
RTVSPropertyOp38
 70
     1
102
RTVSPropertyOp39
 70
     1
102
RTVSPropertyOp40
 70
     1
102
RTVSPropertyOp41
 70
     1
102
RTVSPropertyOp42
 70
     1
102
RTVSPropertyOp43
 70
     1
102
RTVSPropertyOp44
 70
     1
102
RTVSPropertyOp45
 70
     1
102
RTVSPropertyOp46
 70
     1
102
RTVSPropertyOp47
 70
     1
102
RTVSPropertyOp48
 70
     1
102
RTVSPropertyOp49
 70
     1
102
RTVSPropertyOp50
 70
     1
102
RTVSPropertyOp51
 70
     0
102
RTVSPropertyOp52
 70
     0
102
RTVSPropertyOp53
 70
     1
102
RTVSPropertyOp54
 70
     1
102
RTVSPropertyOp55
 70
     1
102
RTVSPropertyOp56
 70
     1
102
RTVSPropertyOp57
 70
     1
102
RTVSPropertyOp58
 70
     1
102
RTVSPropertyOp59
 70
     1
102
RTVSPropertyOp60
 70
     1
102
RTVSPropertyOp61
 70
     1
102
RTVSPropertyOp62
 70
     1
  0
XRECORD
  5
2E5B6
102
{ACAD_REACTORS
330
2E5B5
102
}
330
2E5B5
100
AcDbXrecord
280
     1
102
RTVSPost2010Prop28
280
     0
102
RTVSPost2010PropOp28
 70
     1
102
RTVSPost2010Prop29
280
     1
102
RTVSPost2010PropOp29
 70
     1
102
RTVSPost2010Prop30
280
     1
102
RTVSPost2010PropOp30
 70
     1
102
RTVSPost2010Prop31
280
     0
102
RTVSPost2010PropOp31
 70
     1
102
RTVSPost2010Prop32
280
     0
102
RTVSPost2010PropOp32
 70
     1
102
RTVSPost2010Prop33
280
     0
102
RTVSPost2010PropOp33
 70
     1
102
RTVSPost2010Prop34
280
     0
102
RTVSPost2010PropOp34
 70
     1
102
RTVSPost2010Prop35
280
     0
102
RTVSPost2010PropOp35
 70
     1
102
RTVSPost2010Prop36
280
     0
102
RTVSPost2010PropOp36
 70
     1
102
RTVSPost2010Prop37
 90
       50
102
RTVSPost2010PropOp37
 70
     1
102
RTVSPost2010Prop38
140
0.0
102
RTVSPost2010PropOp38
 70
     1
102
RTVSPost2010Prop39
140
1.0
102
RTVSPost2010PropOp39
 70
     1
102
RTVSPost2010Prop40
 90
        0
102
RTVSPost2010PropOp40
 70
     1
102
RTVSPost2010Prop41ColorIndex
 90
       18
102
RTVSPost2010Prop41ColorRGB
 90
        0
102
RTVSPost2010PropOp41
 70
     1
102
RTVSPost2010Prop42
 90
       50
102
RTVSPost2010PropOp42
 70
     1
102
RTVSPost2010Prop43
 90
        3
102
RTVSPost2010PropOp43
 70
     1
102
RTVSPost2010Prop44ColorIndex
 90
        5
102
RTVSPost2010Prop44ColorRGB
 90
      255
102
RTVSPost2010PropOp44
 70
     1
102
RTVSPost2010Prop45
280
     0
102
RTVSPost2010PropOp45
 70
     1
102
RTVSPost2010Prop46
 90
       50
102
RTVSPost2010PropOp46
 70
     1
102
RTVSPost2010Prop47
 90
       50
102
RTVSPost2010PropOp47
 70
     1
102
RTVSPost2010Prop48
 90
       50
102
RTVSPost2010PropOp48
 70
     1
102
RTVSPost2010Prop49
280
     0
102
RTVSPost2010PropOp49
 70
     1
102
RTVSPost2010Prop50
 90
       50
102
RTVSPost2010PropOp50
 70
     1
102
RTVSPost2010Prop51ColorIndex
 90
      256
102
RTVSPost2010Prop51ColorRGB
 90
-16777216
102
RTVSPost2010PropOp51
 70
     0
102
RTVSPost2010Prop52
140
1.0
102
RTVSPost2010PropOp52
 70
     0
102
RTVSPost2010Prop53
 90
        2
102
RTVSPost2010PropOp53
 70
     1
102
RTVSPost2010Prop54
  1
strokes_ogs.tif
102
RTVSPost2010PropOp54
 70
     1
102
RTVSPost2010Prop55
280
     0
102
RTVSPost2010PropOp55
 70
     1
102
RTVSPost2010Prop56
140
1.0
102
RTVSPost2010PropOp56
 70
     1
102
RTVSPost2010Prop57
140
1.0
102
RTVSPost2010PropOp57
 70
     1
102
RTVSPropertyOp0
 70
     1
102
RTVSPropertyOp1
 70
     1
102
RTVSPropertyOp2
 70
     1
102
RTVSPropertyOp3
 70
     1
102
RTVSPropertyOp4
 70
     1
102
RTVSPropertyOp5
 70
     1
102
RTVSPropertyOp6
 70
     1
102
RTVSPropertyOp7
 70
     1
102
RTVSPropertyOp8
 70
     1
102
RTVSPropertyOp9
 70
     1
102
RTVSPropertyOp10
 70
     1
102
RTVSPropertyOp11
 70
     1
102
RTVSPropertyOp12
 70
     1
102
RTVSPropertyOp13
 70
     1
102
RTVSPropertyOp14
 70
     1
102
RTVSPropertyOp15
 70
     1
102
RTVSPropertyOp16
 70
     1
102
RTVSPropertyOp17
 70
     1
102
RTVSPropertyOp18
 70
     1
102
RTVSPropertyOp19
 70
     1
102
RTVSPropertyOp20
 70
     1
102
RTVSPropertyOp21
 70
     1
102
RTVSPropertyOp22
 70
     1
102
RTVSPropertyOp23
 70
     1
102
RTVSPropertyOp24
 70
     1
102
RTVSPropertyOp25
 70
     1
102
RTVSPropertyOp26
 70
     1
102
RTVSPropertyOp27
 70
     1
102
RTVSPropertyOp28
 70
     1
102
RTVSPropertyOp29
 70
     1
102
RTVSPropertyOp30
 70
     1
102
RTVSPropertyOp31
 70
     1
102
RTVSPropertyOp32
 70
     1
102
RTVSPropertyOp33
 70
     1
102
RTVSPropertyOp34
 70
     1
102
RTVSPropertyOp35
 70
     1
102
RTVSPropertyOp36
 70
     1
102
RTVSPropertyOp37
 70
     1
102
RTVSPropertyOp38
 70
     1
102
RTVSPropertyOp39
 70
     1
102
RTVSPropertyOp40
 70
     1
102
RTVSPropertyOp41
 70
     1
102
RTVSPropertyOp42
 70
     1
102
RTVSPropertyOp43
 70
     1
102
RTVSPropertyOp44
 70
     1
102
RTVSPropertyOp45
 70
     1
102
RTVSPropertyOp46
 70
     1
102
RTVSPropertyOp47
 70
     1
102
RTVSPropertyOp48
 70
     1
102
RTVSPropertyOp49
 70
     1
102
RTVSPropertyOp50
 70
     1
102
RTVSPropertyOp51
 70
     0
102
RTVSPropertyOp52
 70
     0
102
RTVSPropertyOp53
 70
     1
102
RTVSPropertyOp54
 70
     1
102
RTVSPropertyOp55
 70
     1
102
RTVSPropertyOp56
 70
     1
102
RTVSPropertyOp57
 70
     1
102
RTVSPropertyOp58
 70
     1
102
RTVSPropertyOp59
 70
     1
102
RTVSPropertyOp60
 70
     1
102
RTVSPropertyOp61
 70
     1
102
RTVSPropertyOp62
 70
     1
  0
XRECORD
  5
2E5B8
102
{ACAD_REACTORS
330
2E5B7
102
}
330
2E5B7
100
AcDbXrecord
280
     1
102
RTVSPost2010Prop28
280
     0
102
RTVSPost2010PropOp28
 70
     1
102
RTVSPost2010Prop29
280
     1
102
RTVSPost2010PropOp29
 70
     1
102
RTVSPost2010Prop30
280
     1
102
RTVSPost2010PropOp30
 70
     1
102
RTVSPost2010Prop31
280
     0
102
RTVSPost2010PropOp31
 70
     1
102
RTVSPost2010Prop32
280
     0
102
RTVSPost2010PropOp32
 70
     1
102
RTVSPost2010Prop33
280
     0
102
RTVSPost2010PropOp33
 70
     1
102
RTVSPost2010Prop34
280
     0
102
RTVSPost2010PropOp34
 70
     1
102
RTVSPost2010Prop35
280
     0
102
RTVSPost2010PropOp35
 70
     1
102
RTVSPost2010Prop36
280
     0
102
RTVSPost2010PropOp36
 70
     1
102
RTVSPost2010Prop37
 90
       50
102
RTVSPost2010PropOp37
 70
     1
102
RTVSPost2010Prop38
140
0.0
102
RTVSPost2010PropOp38
 70
     1
102
RTVSPost2010Prop39
140
1.0
102
RTVSPost2010PropOp39
 70
     1
102
RTVSPost2010Prop40
 90
        0
102
RTVSPost2010PropOp40
 70
     1
102
RTVSPost2010Prop41ColorIndex
 90
       18
102
RTVSPost2010Prop41ColorRGB
 90
        0
102
RTVSPost2010PropOp41
 70
     1
102
RTVSPost2010Prop42
 90
       50
102
RTVSPost2010PropOp42
 70
     1
102
RTVSPost2010Prop43
 90
        3
102
RTVSPost2010PropOp43
 70
     1
102
RTVSPost2010Prop44ColorIndex
 90
        5
102
RTVSPost2010Prop44ColorRGB
 90
      255
102
RTVSPost2010PropOp44
 70
     1
102
RTVSPost2010Prop45
280
     0
102
RTVSPost2010PropOp45
 70
     1
102
RTVSPost2010Prop46
 90
       50
102
RTVSPost2010PropOp46
 70
     1
102
RTVSPost2010Prop47
 90
       50
102
RTVSPost2010PropOp47
 70
     1
102
RTVSPost2010Prop48
 90
       50
102
RTVSPost2010PropOp48
 70
     1
102
RTVSPost2010Prop49
280
     0
102
RTVSPost2010PropOp49
 70
     1
102
RTVSPost2010Prop50
 90
       50
102
RTVSPost2010PropOp50
 70
     1
102
RTVSPost2010Prop51ColorIndex
 90
      256
102
RTVSPost2010Prop51ColorRGB
 90
-16777216
102
RTVSPost2010PropOp51
 70
     0
102
RTVSPost2010Prop52
140
1.0
102
RTVSPost2010PropOp52
 70
     0
102
RTVSPost2010Prop53
 90
        2
102
RTVSPost2010PropOp53
 70
     1
102
RTVSPost2010Prop54
  1
strokes_ogs.tif
102
RTVSPost2010PropOp54
 70
     1
102
RTVSPost2010Prop55
280
     0
102
RTVSPost2010PropOp55
 70
     1
102
RTVSPost2010Prop56
140
1.0
102
RTVSPost2010PropOp56
 70
     1
102
RTVSPost2010Prop57
140
1.0
102
RTVSPost2010PropOp57
 70
     1
102
RTVSPropertyOp0
 70
     1
102
RTVSPropertyOp1
 70
     1
102
RTVSPropertyOp2
 70
     1
102
RTVSPropertyOp3
 70
     1
102
RTVSPropertyOp4
 70
     1
102
RTVSPropertyOp5
 70
     1
102
RTVSPropertyOp6
 70
     1
102
RTVSPropertyOp7
 70
     1
102
RTVSPropertyOp8
 70
     1
102
RTVSPropertyOp9
 70
     1
102
RTVSPropertyOp10
 70
     1
102
RTVSPropertyOp11
 70
     1
102
RTVSPropertyOp12
 70
     1
102
RTVSPropertyOp13
 70
     1
102
RTVSPropertyOp14
 70
     1
102
RTVSPropertyOp15
 70
     1
102
RTVSPropertyOp16
 70
     1
102
RTVSPropertyOp17
 70
     1
102
RTVSPropertyOp18
 70
     1
102
RTVSPropertyOp19
 70
     1
102
RTVSPropertyOp20
 70
     1
102
RTVSPropertyOp21
 70
     1
102
RTVSPropertyOp22
 70
     1
102
RTVSPropertyOp23
 70
     1
102
RTVSPropertyOp24
 70
     1
102
RTVSPropertyOp25
 70
     1
102
RTVSPropertyOp26
 70
     1
102
RTVSPropertyOp27
 70
     1
102
RTVSPropertyOp28
 70
     1
102
RTVSPropertyOp29
 70
     1
102
RTVSPropertyOp30
 70
     1
102
RTVSPropertyOp31
 70
     1
102
RTVSPropertyOp32
 70
     1
102
RTVSPropertyOp33
 70
     1
102
RTVSPropertyOp34
 70
     1
102
RTVSPropertyOp35
 70
     1
102
RTVSPropertyOp36
 70
     1
102
RTVSPropertyOp37
 70
     1
102
RTVSPropertyOp38
 70
     1
102
RTVSPropertyOp39
 70
     1
102
RTVSPropertyOp40
 70
     1
102
RTVSPropertyOp41
 70
     1
102
RTVSPropertyOp42
 70
     1
102
RTVSPropertyOp43
 70
     1
102
RTVSPropertyOp44
 70
     1
102
RTVSPropertyOp45
 70
     1
102
RTVSPropertyOp46
 70
     1
102
RTVSPropertyOp47
 70
     1
102
RTVSPropertyOp48
 70
     1
102
RTVSPropertyOp49
 70
     1
102
RTVSPropertyOp50
 70
     1
102
RTVSPropertyOp51
 70
     0
102
RTVSPropertyOp52
 70
     0
102
RTVSPropertyOp53
 70
     1
102
RTVSPropertyOp54
 70
     1
102
RTVSPropertyOp55
 70
     1
102
RTVSPropertyOp56
 70
     1
102
RTVSPropertyOp57
 70
     1
102
RTVSPropertyOp58
 70
     1
102
RTVSPropertyOp59
 70
     1
102
RTVSPropertyOp60
 70
     1
102
RTVSPropertyOp61
 70
     1
102
RTVSPropertyOp62
 70
     1
  0
XRECORD
  5
2E5C0
102
{ACAD_REACTORS
330
2E5BF
102
}
330
2E5BF
100
AcDbXrecord
280
     1
102
RTVSPost2010Prop28
280
     0
102
RTVSPost2010PropOp28
 70
     1
102
RTVSPost2010Prop29
280
     1
102
RTVSPost2010PropOp29
 70
     1
102
RTVSPost2010Prop30
280
     1
102
RTVSPost2010PropOp30
 70
     1
102
RTVSPost2010Prop31
280
     0
102
RTVSPost2010PropOp31
 70
     1
102
RTVSPost2010Prop32
280
     0
102
RTVSPost2010PropOp32
 70
     1
102
RTVSPost2010Prop33
280
     0
102
RTVSPost2010PropOp33
 70
     1
102
RTVSPost2010Prop34
280
     0
102
RTVSPost2010PropOp34
 70
     1
102
RTVSPost2010Prop35
280
     0
102
RTVSPost2010PropOp35
 70
     1
102
RTVSPost2010Prop36
280
     0
102
RTVSPost2010PropOp36
 70
     1
102
RTVSPost2010Prop37
 90
       50
102
RTVSPost2010PropOp37
 70
     1
102
RTVSPost2010Prop38
140
0.0
102
RTVSPost2010PropOp38
 70
     1
102
RTVSPost2010Prop39
140
1.0
102
RTVSPost2010PropOp39
 70
     1
102
RTVSPost2010Prop40
 90
        0
102
RTVSPost2010PropOp40
 70
     1
102
RTVSPost2010Prop41ColorIndex
 90
       18
102
RTVSPost2010Prop41ColorRGB
 90
        0
102
RTVSPost2010PropOp41
 70
     1
102
RTVSPost2010Prop42
 90
       50
102
RTVSPost2010PropOp42
 70
     1
102
RTVSPost2010Prop43
 90
        3
102
RTVSPost2010PropOp43
 70
     1
102
RTVSPost2010Prop44ColorIndex
 90
        5
102
RTVSPost2010Prop44ColorRGB
 90
      255
102
RTVSPost2010PropOp44
 70
     1
102
RTVSPost2010Prop45
280
     0
102
RTVSPost2010PropOp45
 70
     1
102
RTVSPost2010Prop46
 90
       50
102
RTVSPost2010PropOp46
 70
     1
102
RTVSPost2010Prop47
 90
       50
102
RTVSPost2010PropOp47
 70
     1
102
RTVSPost2010Prop48
 90
       50
102
RTVSPost2010PropOp48
 70
     1
102
RTVSPost2010Prop49
280
     0
102
RTVSPost2010PropOp49
 70
     1
102
RTVSPost2010Prop50
 90
       50
102
RTVSPost2010PropOp50
 70
     1
102
RTVSPost2010Prop51ColorIndex
 90
      256
102
RTVSPost2010Prop51ColorRGB
 90
-16777216
102
RTVSPost2010PropOp51
 70
     0
102
RTVSPost2010Prop52
140
1.0
102
RTVSPost2010PropOp52
 70
     0
102
RTVSPost2010Prop53
 90
        2
102
RTVSPost2010PropOp53
 70
     1
102
RTVSPost2010Prop54
  1
strokes_ogs.tif
102
RTVSPost2010PropOp54
 70
     1
102
RTVSPost2010Prop55
280
     0
102
RTVSPost2010PropOp55
 70
     1
102
RTVSPost2010Prop56
140
1.0
102
RTVSPost2010PropOp56
 70
     1
102
RTVSPost2010Prop57
140
1.0
102
RTVSPost2010PropOp57
 70
     1
102
RTVSPropertyOp0
 70
     1
102
RTVSPropertyOp1
 70
     1
102
RTVSPropertyOp2
 70
     1
102
RTVSPropertyOp3
 70
     1
102
RTVSPropertyOp4
 70
     1
102
RTVSPropertyOp5
 70
     1
102
RTVSPropertyOp6
 70
     1
102
RTVSPropertyOp7
 70
     1
102
RTVSPropertyOp8
 70
     1
102
RTVSPropertyOp9
 70
     1
102
RTVSPropertyOp10
 70
     1
102
RTVSPropertyOp11
 70
     1
102
RTVSPropertyOp12
 70
     1
102
RTVSPropertyOp13
 70
     1
102
RTVSPropertyOp14
 70
     1
102
RTVSPropertyOp15
 70
     1
102
RTVSPropertyOp16
 70
     1
102
RTVSPropertyOp17
 70
     1
102
RTVSPropertyOp18
 70
     1
102
RTVSPropertyOp19
 70
     1
102
RTVSPropertyOp20
 70
     1
102
RTVSPropertyOp21
 70
     1
102
RTVSPropertyOp22
 70
     1
102
RTVSPropertyOp23
 70
     1
102
RTVSPropertyOp24
 70
     1
102
RTVSPropertyOp25
 70
     1
102
RTVSPropertyOp26
 70
     1
102
RTVSPropertyOp27
 70
     1
102
RTVSPropertyOp28
 70
     1
102
RTVSPropertyOp29
 70
     1
102
RTVSPropertyOp30
 70
     1
102
RTVSPropertyOp31
 70
     1
102
RTVSPropertyOp32
 70
     1
102
RTVSPropertyOp33
 70
     1
102
RTVSPropertyOp34
 70
     1
102
RTVSPropertyOp35
 70
     1
102
RTVSPropertyOp36
 70
     1
102
RTVSPropertyOp37
 70
     1
102
RTVSPropertyOp38
 70
     1
102
RTVSPropertyOp39
 70
     1
102
RTVSPropertyOp40
 70
     1
102
RTVSPropertyOp41
 70
     1
102
RTVSPropertyOp42
 70
     1
102
RTVSPropertyOp43
 70
     1
102
RTVSPropertyOp44
 70
     1
102
RTVSPropertyOp45
 70
     1
102
RTVSPropertyOp46
 70
     1
102
RTVSPropertyOp47
 70
     1
102
RTVSPropertyOp48
 70
     1
102
RTVSPropertyOp49
 70
     1
102
RTVSPropertyOp50
 70
     1
102
RTVSPropertyOp51
 70
     0
102
RTVSPropertyOp52
 70
     0
102
RTVSPropertyOp53
 70
     1
102
RTVSPropertyOp54
 70
     1
102
RTVSPropertyOp55
 70
     1
102
RTVSPropertyOp56
 70
     1
102
RTVSPropertyOp57
 70
     1
102
RTVSPropertyOp58
 70
     1
102
RTVSPropertyOp59
 70
     1
102
RTVSPropertyOp60
 70
     1
102
RTVSPropertyOp61
 70
     1
102
RTVSPropertyOp62
 70
     1
  0
XRECORD
  5
2E5DC
102
{ACAD_REACTORS
330
2E5DB
102
}
330
2E5DB
100
AcDbXrecord
280
     1
102
RTVSPost2010Prop28
280
     0
102
RTVSPost2010PropOp28
 70
     0
102
RTVSPost2010Prop29
280
     1
102
RTVSPost2010PropOp29
 70
     0
102
RTVSPost2010Prop30
280
     1
102
RTVSPost2010PropOp30
 70
     0
102
RTVSPost2010Prop31
280
     0
102
RTVSPost2010PropOp31
 70
     0
102
RTVSPost2010Prop32
280
     0
102
RTVSPost2010PropOp32
 70
     0
102
RTVSPost2010Prop33
280
     0
102
RTVSPost2010PropOp33
 70
     0
102
RTVSPost2010Prop34
280
     0
102
RTVSPost2010PropOp34
 70
     0
102
RTVSPost2010Prop35
280
     0
102
RTVSPost2010PropOp35
 70
     0
102
RTVSPost2010Prop36
280
     0
102
RTVSPost2010PropOp36
 70
     0
102
RTVSPost2010Prop37
 90
       50
102
RTVSPost2010PropOp37
 70
     0
102
RTVSPost2010Prop38
140
0.0
102
RTVSPost2010PropOp38
 70
     0
102
RTVSPost2010Prop39
140
1.0
102
RTVSPost2010PropOp39
 70
     0
102
RTVSPost2010Prop40
 90
        0
102
RTVSPost2010PropOp40
 70
     0
102
RTVSPost2010Prop41ColorIndex
 90
       18
102
RTVSPost2010Prop41ColorRGB
 90
        0
102
RTVSPost2010PropOp41
 70
     0
102
RTVSPost2010Prop42
 90
       50
102
RTVSPost2010PropOp42
 70
     0
102
RTVSPost2010Prop43
 90
        3
102
RTVSPost2010PropOp43
 70
     0
102
RTVSPost2010Prop44ColorIndex
 90
        5
102
RTVSPost2010Prop44ColorRGB
 90
      255
102
RTVSPost2010PropOp44
 70
     0
102
RTVSPost2010Prop45
280
     0
102
RTVSPost2010PropOp45
 70
     0
102
RTVSPost2010Prop46
 90
       50
102
RTVSPost2010PropOp46
 70
     0
102
RTVSPost2010Prop47
 90
       50
102
RTVSPost2010PropOp47
 70
     0
102
RTVSPost2010Prop48
 90
       50
102
RTVSPost2010PropOp48
 70
     0
102
RTVSPost2010Prop49
280
     0
102
RTVSPost2010PropOp49
 70
     0
102
RTVSPost2010Prop50
 90
       50
102
RTVSPost2010PropOp50
 70
     0
102
RTVSPost2010Prop51ColorIndex
 90
      256
102
RTVSPost2010Prop51ColorRGB
 90
-16777216
102
RTVSPost2010PropOp51
 70
     0
102
RTVSPost2010Prop52
140
1.0
102
RTVSPost2010PropOp52
 70
     0
102
RTVSPost2010Prop53
 90
        2
102
RTVSPost2010PropOp53
 70
     0
102
RTVSPost2010Prop54
  1
strokes_ogs.tif
102
RTVSPost2010PropOp54
 70
     0
102
RTVSPost2010Prop55
280
     0
102
RTVSPost2010PropOp55
 70
     0
102
RTVSPost2010Prop56
140
1.0
102
RTVSPost2010PropOp56
 70
     0
102
RTVSPost2010Prop57
140
1.0
102
RTVSPost2010PropOp57
 70
     0
102
RTVSPropertyOp0
 70
     0
102
RTVSPropertyOp1
 70
     0
102
RTVSPropertyOp2
 70
     0
102
RTVSPropertyOp3
 70
     0
102
RTVSPropertyOp4
 70
     0
102
RTVSPropertyOp5
 70
     0
102
RTVSPropertyOp6
 70
     0
102
RTVSPropertyOp7
 70
     0
102
RTVSPropertyOp8
 70
     0
102
RTVSPropertyOp9
 70
     0
102
RTVSPropertyOp10
 70
     0
102
RTVSPropertyOp11
 70
     0
102
RTVSPropertyOp12
 70
     0
102
RTVSPropertyOp13
 70
     0
102
RTVSPropertyOp14
 70
     2
102
RTVSPropertyOp15
 70
     0
102
RTVSPropertyOp16
 70
     0
102
RTVSPropertyOp17
 70
     0
102
RTVSPropertyOp18
 70
     0
102
RTVSPropertyOp19
 70
     0
102
RTVSPropertyOp20
 70
     0
102
RTVSPropertyOp21
 70
     0
102
RTVSPropertyOp22
 70
     0
102
RTVSPropertyOp23
 70
     0
102
RTVSPropertyOp24
 70
     0
102
RTVSPropertyOp25
 70
     0
102
RTVSPropertyOp26
 70
     0
102
RTVSPropertyOp27
 70
     0
102
RTVSPropertyOp28
 70
     0
102
RTVSPropertyOp29
 70
     0
102
RTVSPropertyOp30
 70
     0
102
RTVSPropertyOp31
 70
     0
102
RTVSPropertyOp32
 70
     0
102
RTVSPropertyOp33
 70
     0
102
RTVSPropertyOp34
 70
     0
102
RTVSPropertyOp35
 70
     0
102
RTVSPropertyOp36
 70
     0
102
RTVSPropertyOp37
 70
     0
102
RTVSPropertyOp38
 70
     0
102
RTVSPropertyOp39
 70
     0
102
RTVSPropertyOp40
 70
     0
102
RTVSPropertyOp41
 70
     0
102
RTVSPropertyOp42
 70
     0
102
RTVSPropertyOp43
 70
     0
102
RTVSPropertyOp44
 70
     0
102
RTVSPropertyOp45
 70
     0
102
RTVSPropertyOp46
 70
     0
102
RTVSPropertyOp47
 70
     0
102
RTVSPropertyOp48
 70
     0
102
RTVSPropertyOp49
 70
     0
102
RTVSPropertyOp50
 70
     0
102
RTVSPropertyOp51
 70
     0
102
RTVSPropertyOp52
 70
     0
102
RTVSPropertyOp53
 70
     0
102
RTVSPropertyOp54
 70
     0
102
RTVSPropertyOp55
 70
     0
102
RTVSPropertyOp56
 70
     0
102
RTVSPropertyOp57
 70
     0
102
RTVSPropertyOp58
 70
     0
102
RTVSPropertyOp59
 70
     0
102
RTVSPropertyOp60
 70
     0
102
RTVSPropertyOp61
 70
     0
102
RTVSPropertyOp62
 70
     0
  0
XRECORD
  5
2E5CC
102
{ACAD_REACTORS
330
2E5CB
102
}
330
2E5CB
100
AcDbXrecord
280
     1
102
RTVSPost2010Prop28
280
     0
102
RTVSPost2010PropOp28
 70
     1
102
RTVSPost2010Prop29
280
     1
102
RTVSPost2010PropOp29
 70
     1
102
RTVSPost2010Prop30
280
     1
102
RTVSPost2010PropOp30
 70
     1
102
RTVSPost2010Prop31
280
     0
102
RTVSPost2010PropOp31
 70
     1
102
RTVSPost2010Prop32
280
     0
102
RTVSPost2010PropOp32
 70
     1
102
RTVSPost2010Prop33
280
     0
102
RTVSPost2010PropOp33
 70
     1
102
RTVSPost2010Prop34
280
     0
102
RTVSPost2010PropOp34
 70
     1
102
RTVSPost2010Prop35
280
     0
102
RTVSPost2010PropOp35
 70
     1
102
RTVSPost2010Prop36
280
     0
102
RTVSPost2010PropOp36
 70
     1
102
RTVSPost2010Prop37
 90
       50
102
RTVSPost2010PropOp37
 70
     1
102
RTVSPost2010Prop38
140
0.0
102
RTVSPost2010PropOp38
 70
     1
102
RTVSPost2010Prop39
140
1.0
102
RTVSPost2010PropOp39
 70
     1
102
RTVSPost2010Prop40
 90
        0
102
RTVSPost2010PropOp40
 70
     1
102
RTVSPost2010Prop41ColorIndex
 90
       18
102
RTVSPost2010Prop41ColorRGB
 90
        0
102
RTVSPost2010PropOp41
 70
     1
102
RTVSPost2010Prop42
 90
       50
102
RTVSPost2010PropOp42
 70
     1
102
RTVSPost2010Prop43
 90
        3
102
RTVSPost2010PropOp43
 70
     1
102
RTVSPost2010Prop44ColorIndex
 90
        5
102
RTVSPost2010Prop44ColorRGB
 90
      255
102
RTVSPost2010PropOp44
 70
     1
102
RTVSPost2010Prop45
280
     0
102
RTVSPost2010PropOp45
 70
     1
102
RTVSPost2010Prop46
 90
       50
102
RTVSPost2010PropOp46
 70
     1
102
RTVSPost2010Prop47
 90
       50
102
RTVSPost2010PropOp47
 70
     1
102
RTVSPost2010Prop48
 90
       50
102
RTVSPost2010PropOp48
 70
     1
102
RTVSPost2010Prop49
280
     0
102
RTVSPost2010PropOp49
 70
     1
102
RTVSPost2010Prop50
 90
       50
102
RTVSPost2010PropOp50
 70
     1
102
RTVSPost2010Prop51ColorIndex
 90
      256
102
RTVSPost2010Prop51ColorRGB
 90
-16777216
102
RTVSPost2010PropOp51
 70
     0
102
RTVSPost2010Prop52
140
1.0
102
RTVSPost2010PropOp52
 70
     0
102
RTVSPost2010Prop53
 90
        2
102
RTVSPost2010PropOp53
 70
     1
102
RTVSPost2010Prop54
  1
strokes_ogs.tif
102
RTVSPost2010PropOp54
 70
     1
102
RTVSPost2010Prop55
280
     0
102
RTVSPost2010PropOp55
 70
     1
102
RTVSPost2010Prop56
140
1.0
102
RTVSPost2010PropOp56
 70
     1
102
RTVSPost2010Prop57
140
1.0
102
RTVSPost2010PropOp57
 70
     1
102
RTVSPropertyOp0
 70
     1
102
RTVSPropertyOp1
 70
     1
102
RTVSPropertyOp2
 70
     1
102
RTVSPropertyOp3
 70
     1
102
RTVSPropertyOp4
 70
     1
102
RTVSPropertyOp5
 70
     1
102
RTVSPropertyOp6
 70
     1
102
RTVSPropertyOp7
 70
     1
102
RTVSPropertyOp8
 70
     1
102
RTVSPropertyOp9
 70
     1
102
RTVSPropertyOp10
 70
     1
102
RTVSPropertyOp11
 70
     1
102
RTVSPropertyOp12
 70
     1
102
RTVSPropertyOp13
 70
     1
102
RTVSPropertyOp14
 70
     1
102
RTVSPropertyOp15
 70
     1
102
RTVSPropertyOp16
 70
     1
102
RTVSPropertyOp17
 70
     1
102
RTVSPropertyOp18
 70
     1
102
RTVSPropertyOp19
 70
     1
102
RTVSPropertyOp20
 70
     1
102
RTVSPropertyOp21
 70
     1
102
RTVSPropertyOp22
 70
     1
102
RTVSPropertyOp23
 70
     1
102
RTVSPropertyOp24
 70
     1
102
RTVSPropertyOp25
 70
     1
102
RTVSPropertyOp26
 70
     1
102
RTVSPropertyOp27
 70
     1
102
RTVSPropertyOp28
 70
     1
102
RTVSPropertyOp29
 70
     1
102
RTVSPropertyOp30
 70
     1
102
RTVSPropertyOp31
 70
     1
102
RTVSPropertyOp32
 70
     1
102
RTVSPropertyOp33
 70
     1
102
RTVSPropertyOp34
 70
     1
102
RTVSPropertyOp35
 70
     1
102
RTVSPropertyOp36
 70
     1
102
RTVSPropertyOp37
 70
     1
102
RTVSPropertyOp38
 70
     1
102
RTVSPropertyOp39
 70
     1
102
RTVSPropertyOp40
 70
     1
102
RTVSPropertyOp41
 70
     1
102
RTVSPropertyOp42
 70
     1
102
RTVSPropertyOp43
 70
     1
102
RTVSPropertyOp44
 70
     1
102
RTVSPropertyOp45
 70
     1
102
RTVSPropertyOp46
 70
     1
102
RTVSPropertyOp47
 70
     1
102
RTVSPropertyOp48
 70
     1
102
RTVSPropertyOp49
 70
     1
102
RTVSPropertyOp50
 70
     1
102
RTVSPropertyOp51
 70
     0
102
RTVSPropertyOp52
 70
     0
102
RTVSPropertyOp53
 70
     1
102
RTVSPropertyOp54
 70
     1
102
RTVSPropertyOp55
 70
     1
102
RTVSPropertyOp56
 70
     1
102
RTVSPropertyOp57
 70
     1
102
RTVSPropertyOp58
 70
     1
102
RTVSPropertyOp59
 70
     1
102
RTVSPropertyOp60
 70
     1
102
RTVSPropertyOp61
 70
     1
102
RTVSPropertyOp62
 70
     1
  0
XRECORD
  5
2E5DE
102
{ACAD_REACTORS
330
2E5DD
102
}
330
2E5DD
100
AcDbXrecord
280
     1
102
RTVSPost2010Prop28
280
     0
102
RTVSPost2010PropOp28
 70
     0
102
RTVSPost2010Prop29
280
     1
102
RTVSPost2010PropOp29
 70
     0
102
RTVSPost2010Prop30
280
     1
102
RTVSPost2010PropOp30
 70
     0
102
RTVSPost2010Prop31
280
     0
102
RTVSPost2010PropOp31
 70
     0
102
RTVSPost2010Prop32
280
     0
102
RTVSPost2010PropOp32
 70
     0
102
RTVSPost2010Prop33
280
     0
102
RTVSPost2010PropOp33
 70
     0
102
RTVSPost2010Prop34
280
     0
102
RTVSPost2010PropOp34
 70
     0
102
RTVSPost2010Prop35
280
     0
102
RTVSPost2010PropOp35
 70
     0
102
RTVSPost2010Prop36
280
     0
102
RTVSPost2010PropOp36
 70
     0
102
RTVSPost2010Prop37
 90
       50
102
RTVSPost2010PropOp37
 70
     0
102
RTVSPost2010Prop38
140
0.0
102
RTVSPost2010PropOp38
 70
     0
102
RTVSPost2010Prop39
140
1.0
102
RTVSPost2010PropOp39
 70
     0
102
RTVSPost2010Prop40
 90
        0
102
RTVSPost2010PropOp40
 70
     0
102
RTVSPost2010Prop41ColorIndex
 90
       18
102
RTVSPost2010Prop41ColorRGB
 90
        0
102
RTVSPost2010PropOp41
 70
     0
102
RTVSPost2010Prop42
 90
       50
102
RTVSPost2010PropOp42
 70
     0
102
RTVSPost2010Prop43
 90
        3
102
RTVSPost2010PropOp43
 70
     0
102
RTVSPost2010Prop44ColorIndex
 90
        5
102
RTVSPost2010Prop44ColorRGB
 90
      255
102
RTVSPost2010PropOp44
 70
     0
102
RTVSPost2010Prop45
280
     0
102
RTVSPost2010PropOp45
 70
     0
102
RTVSPost2010Prop46
 90
       50
102
RTVSPost2010PropOp46
 70
     0
102
RTVSPost2010Prop47
 90
       50
102
RTVSPost2010PropOp47
 70
     0
102
RTVSPost2010Prop48
 90
       50
102
RTVSPost2010PropOp48
 70
     0
102
RTVSPost2010Prop49
280
     0
102
RTVSPost2010PropOp49
 70
     0
102
RTVSPost2010Prop50
 90
       50
102
RTVSPost2010PropOp50
 70
     0
102
RTVSPost2010Prop51ColorIndex
 90
      256
102
RTVSPost2010Prop51ColorRGB
 90
-16777216
102
RTVSPost2010PropOp51
 70
     0
102
RTVSPost2010Prop52
140
1.0
102
RTVSPost2010PropOp52
 70
     0
102
RTVSPost2010Prop53
 90
        2
102
RTVSPost2010PropOp53
 70
     0
102
RTVSPost2010Prop54
  1
strokes_ogs.tif
102
RTVSPost2010PropOp54
 70
     0
102
RTVSPost2010Prop55
280
     0
102
RTVSPost2010PropOp55
 70
     0
102
RTVSPost2010Prop56
140
1.0
102
RTVSPost2010PropOp56
 70
     0
102
RTVSPost2010Prop57
140
1.0
102
RTVSPost2010PropOp57
 70
     0
102
RTVSPropertyOp0
 70
     0
102
RTVSPropertyOp1
 70
     0
102
RTVSPropertyOp2
 70
     0
102
RTVSPropertyOp3
 70
     0
102
RTVSPropertyOp4
 70
     0
102
RTVSPropertyOp5
 70
     0
102
RTVSPropertyOp6
 70
     0
102
RTVSPropertyOp7
 70
     0
102
RTVSPropertyOp8
 70
     0
102
RTVSPropertyOp9
 70
     0
102
RTVSPropertyOp10
 70
     0
102
RTVSPropertyOp11
 70
     0
102
RTVSPropertyOp12
 70
     0
102
RTVSPropertyOp13
 70
     0
102
RTVSPropertyOp14
 70
     2
102
RTVSPropertyOp15
 70
     0
102
RTVSPropertyOp16
 70
     0
102
RTVSPropertyOp17
 70
     0
102
RTVSPropertyOp18
 70
     0
102
RTVSPropertyOp19
 70
     0
102
RTVSPropertyOp20
 70
     0
102
RTVSPropertyOp21
 70
     0
102
RTVSPropertyOp22
 70
     0
102
RTVSPropertyOp23
 70
     0
102
RTVSPropertyOp24
 70
     0
102
RTVSPropertyOp25
 70
     0
102
RTVSPropertyOp26
 70
     0
102
RTVSPropertyOp27
 70
     0
102
RTVSPropertyOp28
 70
     0
102
RTVSPropertyOp29
 70
     0
102
RTVSPropertyOp30
 70
     0
102
RTVSPropertyOp31
 70
     0
102
RTVSPropertyOp32
 70
     0
102
RTVSPropertyOp33
 70
     0
102
RTVSPropertyOp34
 70
     0
102
RTVSPropertyOp35
 70
     0
102
RTVSPropertyOp36
 70
     0
102
RTVSPropertyOp37
 70
     0
102
RTVSPropertyOp38
 70
     0
102
RTVSPropertyOp39
 70
     0
102
RTVSPropertyOp40
 70
     0
102
RTVSPropertyOp41
 70
     0
102
RTVSPropertyOp42
 70
     0
102
RTVSPropertyOp43
 70
     0
102
RTVSPropertyOp44
 70
     0
102
RTVSPropertyOp45
 70
     0
102
RTVSPropertyOp46
 70
     0
102
RTVSPropertyOp47
 70
     0
102
RTVSPropertyOp48
 70
     0
102
RTVSPropertyOp49
 70
     0
102
RTVSPropertyOp50
 70
     0
102
RTVSPropertyOp51
 70
     0
102
RTVSPropertyOp52
 70
     0
102
RTVSPropertyOp53
 70
     0
102
RTVSPropertyOp54
 70
     0
102
RTVSPropertyOp55
 70
     0
102
RTVSPropertyOp56
 70
     0
102
RTVSPropertyOp57
 70
     0
102
RTVSPropertyOp58
 70
     0
102
RTVSPropertyOp59
 70
     0
102
RTVSPropertyOp60
 70
     0
102
RTVSPropertyOp61
 70
     0
102
RTVSPropertyOp62
 70
     0
  0
XRECORD
  5
2E5C4
102
{ACAD_REACTORS
330
2E5C3
102
}
330
2E5C3
100
AcDbXrecord
280
     1
102
RTVSPost2010Prop28
280
     0
102
RTVSPost2010PropOp28
 70
     1
102
RTVSPost2010Prop29
280
     1
102
RTVSPost2010PropOp29
 70
     1
102
RTVSPost2010Prop30
280
     1
102
RTVSPost2010PropOp30
 70
     1
102
RTVSPost2010Prop31
280
     0
102
RTVSPost2010PropOp31
 70
     1
102
RTVSPost2010Prop32
280
     0
102
RTVSPost2010PropOp32
 70
     1
102
RTVSPost2010Prop33
280
     0
102
RTVSPost2010PropOp33
 70
     1
102
RTVSPost2010Prop34
280
     0
102
RTVSPost2010PropOp34
 70
     1
102
RTVSPost2010Prop35
280
     0
102
RTVSPost2010PropOp35
 70
     1
102
RTVSPost2010Prop36
280
     0
102
RTVSPost2010PropOp36
 70
     1
102
RTVSPost2010Prop37
 90
       50
102
RTVSPost2010PropOp37
 70
     1
102
RTVSPost2010Prop38
140
0.0
102
RTVSPost2010PropOp38
 70
     1
102
RTVSPost2010Prop39
140
1.0
102
RTVSPost2010PropOp39
 70
     1
102
RTVSPost2010Prop40
 90
        0
102
RTVSPost2010PropOp40
 70
     1
102
RTVSPost2010Prop41ColorIndex
 90
       18
102
RTVSPost2010Prop41ColorRGB
 90
        0
102
RTVSPost2010PropOp41
 70
     1
102
RTVSPost2010Prop42
 90
       50
102
RTVSPost2010PropOp42
 70
     1
102
RTVSPost2010Prop43
 90
        3
102
RTVSPost2010PropOp43
 70
     1
102
RTVSPost2010Prop44ColorIndex
 90
        5
102
RTVSPost2010Prop44ColorRGB
 90
      255
102
RTVSPost2010PropOp44
 70
     1
102
RTVSPost2010Prop45
280
     0
102
RTVSPost2010PropOp45
 70
     1
102
RTVSPost2010Prop46
 90
       50
102
RTVSPost2010PropOp46
 70
     1
102
RTVSPost2010Prop47
 90
       50
102
RTVSPost2010PropOp47
 70
     1
102
RTVSPost2010Prop48
 90
       50
102
RTVSPost2010PropOp48
 70
     1
102
RTVSPost2010Prop49
280
     0
102
RTVSPost2010PropOp49
 70
     1
102
RTVSPost2010Prop50
 90
       50
102
RTVSPost2010PropOp50
 70
     1
102
RTVSPost2010Prop51ColorIndex
 90
      256
102
RTVSPost2010Prop51ColorRGB
 90
-16777216
102
RTVSPost2010PropOp51
 70
     0
102
RTVSPost2010Prop52
140
1.0
102
RTVSPost2010PropOp52
 70
     0
102
RTVSPost2010Prop53
 90
        2
102
RTVSPost2010PropOp53
 70
     1
102
RTVSPost2010Prop54
  1
strokes_ogs.tif
102
RTVSPost2010PropOp54
 70
     1
102
RTVSPost2010Prop55
280
     0
102
RTVSPost2010PropOp55
 70
     1
102
RTVSPost2010Prop56
140
1.0
102
RTVSPost2010PropOp56
 70
     1
102
RTVSPost2010Prop57
140
1.0
102
RTVSPost2010PropOp57
 70
     1
102
RTVSPropertyOp0
 70
     1
102
RTVSPropertyOp1
 70
     1
102
RTVSPropertyOp2
 70
     1
102
RTVSPropertyOp3
 70
     1
102
RTVSPropertyOp4
 70
     1
102
RTVSPropertyOp5
 70
     1
102
RTVSPropertyOp6
 70
     1
102
RTVSPropertyOp7
 70
     1
102
RTVSPropertyOp8
 70
     1
102
RTVSPropertyOp9
 70
     1
102
RTVSPropertyOp10
 70
     1
102
RTVSPropertyOp11
 70
     1
102
RTVSPropertyOp12
 70
     1
102
RTVSPropertyOp13
 70
     1
102
RTVSPropertyOp14
 70
     1
102
RTVSPropertyOp15
 70
     1
102
RTVSPropertyOp16
 70
     1
102
RTVSPropertyOp17
 70
     1
102
RTVSPropertyOp18
 70
     1
102
RTVSPropertyOp19
 70
     1
102
RTVSPropertyOp20
 70
     1
102
RTVSPropertyOp21
 70
     1
102
RTVSPropertyOp22
 70
     1
102
RTVSPropertyOp23
 70
     1
102
RTVSPropertyOp24
 70
     1
102
RTVSPropertyOp25
 70
     1
102
RTVSPropertyOp26
 70
     1
102
RTVSPropertyOp27
 70
     1
102
RTVSPropertyOp28
 70
     1
102
RTVSPropertyOp29
 70
     1
102
RTVSPropertyOp30
 70
     1
102
RTVSPropertyOp31
 70
     1
102
RTVSPropertyOp32
 70
     1
102
RTVSPropertyOp33
 70
     1
102
RTVSPropertyOp34
 70
     1
102
RTVSPropertyOp35
 70
     1
102
RTVSPropertyOp36
 70
     1
102
RTVSPropertyOp37
 70
     1
102
RTVSPropertyOp38
 70
     1
102
RTVSPropertyOp39
 70
     1
102
RTVSPropertyOp40
 70
     1
102
RTVSPropertyOp41
 70
     1
102
RTVSPropertyOp42
 70
     1
102
RTVSPropertyOp43
 70
     1
102
RTVSPropertyOp44
 70
     1
102
RTVSPropertyOp45
 70
     1
102
RTVSPropertyOp46
 70
     1
102
RTVSPropertyOp47
 70
     1
102
RTVSPropertyOp48
 70
     1
102
RTVSPropertyOp49
 70
     1
102
RTVSPropertyOp50
 70
     1
102
RTVSPropertyOp51
 70
     0
102
RTVSPropertyOp52
 70
     0
102
RTVSPropertyOp53
 70
     1
102
RTVSPropertyOp54
 70
     1
102
RTVSPropertyOp55
 70
     1
102
RTVSPropertyOp56
 70
     1
102
RTVSPropertyOp57
 70
     1
102
RTVSPropertyOp58
 70
     1
102
RTVSPropertyOp59
 70
     1
102
RTVSPropertyOp60
 70
     1
102
RTVSPropertyOp61
 70
     1
102
RTVSPropertyOp62
 70
     1
  0
XRECORD
  5
2E5DA
102
{ACAD_REACTORS
330
2E5D9
102
}
330
2E5D9
100
AcDbXrecord
280
     1
102
RTVSPost2010Prop28
280
     0
102
RTVSPost2010PropOp28
 70
     1
102
RTVSPost2010Prop29
280
     1
102
RTVSPost2010PropOp29
 70
     1
102
RTVSPost2010Prop30
280
     1
102
RTVSPost2010PropOp30
 70
     1
102
RTVSPost2010Prop31
280
     0
102
RTVSPost2010PropOp31
 70
     1
102
RTVSPost2010Prop32
280
     0
102
RTVSPost2010PropOp32
 70
     1
102
RTVSPost2010Prop33
280
     0
102
RTVSPost2010PropOp33
 70
     1
102
RTVSPost2010Prop34
280
     0
102
RTVSPost2010PropOp34
 70
     1
102
RTVSPost2010Prop35
280
     0
102
RTVSPost2010PropOp35
 70
     1
102
RTVSPost2010Prop36
280
     0
102
RTVSPost2010PropOp36
 70
     1
102
RTVSPost2010Prop37
 90
       50
102
RTVSPost2010PropOp37
 70
     1
102
RTVSPost2010Prop38
140
0.0
102
RTVSPost2010PropOp38
 70
     1
102
RTVSPost2010Prop39
140
1.0
102
RTVSPost2010PropOp39
 70
     1
102
RTVSPost2010Prop40
 90
        0
102
RTVSPost2010PropOp40
 70
     1
102
RTVSPost2010Prop41ColorIndex
 90
       18
102
RTVSPost2010Prop41ColorRGB
 90
        0
102
RTVSPost2010PropOp41
 70
     1
102
RTVSPost2010Prop42
 90
       50
102
RTVSPost2010PropOp42
 70
     1
102
RTVSPost2010Prop43
 90
        3
102
RTVSPost2010PropOp43
 70
     1
102
RTVSPost2010Prop44ColorIndex
 90
        5
102
RTVSPost2010Prop44ColorRGB
 90
      255
102
RTVSPost2010PropOp44
 70
     1
102
RTVSPost2010Prop45
280
     0
102
RTVSPost2010PropOp45
 70
     1
102
RTVSPost2010Prop46
 90
       50
102
RTVSPost2010PropOp46
 70
     1
102
RTVSPost2010Prop47
 90
       50
102
RTVSPost2010PropOp47
 70
     1
102
RTVSPost2010Prop48
 90
       50
102
RTVSPost2010PropOp48
 70
     1
102
RTVSPost2010Prop49
280
     0
102
RTVSPost2010PropOp49
 70
     1
102
RTVSPost2010Prop50
 90
       50
102
RTVSPost2010PropOp50
 70
     1
102
RTVSPost2010Prop51ColorIndex
 90
      256
102
RTVSPost2010Prop51ColorRGB
 90
-16777216
102
RTVSPost2010PropOp51
 70
     0
102
RTVSPost2010Prop52
140
1.0
102
RTVSPost2010PropOp52
 70
     0
102
RTVSPost2010Prop53
 90
        2
102
RTVSPost2010PropOp53
 70
     1
102
RTVSPost2010Prop54
  1
strokes_ogs.tif
102
RTVSPost2010PropOp54
 70
     1
102
RTVSPost2010Prop55
280
     0
102
RTVSPost2010PropOp55
 70
     1
102
RTVSPost2010Prop56
140
1.0
102
RTVSPost2010PropOp56
 70
     1
102
RTVSPost2010Prop57
140
1.0
102
RTVSPost2010PropOp57
 70
     1
102
RTVSPropertyOp0
 70
     1
102
RTVSPropertyOp1
 70
     1
102
RTVSPropertyOp2
 70
     1
102
RTVSPropertyOp3
 70
     1
102
RTVSPropertyOp4
 70
     1
102
RTVSPropertyOp5
 70
     1
102
RTVSPropertyOp6
 70
     1
102
RTVSPropertyOp7
 70
     1
102
RTVSPropertyOp8
 70
     1
102
RTVSPropertyOp9
 70
     1
102
RTVSPropertyOp10
 70
     1
102
RTVSPropertyOp11
 70
     1
102
RTVSPropertyOp12
 70
     1
102
RTVSPropertyOp13
 70
     1
102
RTVSPropertyOp14
 70
     1
102
RTVSPropertyOp15
 70
     1
102
RTVSPropertyOp16
 70
     1
102
RTVSPropertyOp17
 70
     1
102
RTVSPropertyOp18
 70
     1
102
RTVSPropertyOp19
 70
     1
102
RTVSPropertyOp20
 70
     1
102
RTVSPropertyOp21
 70
     1
102
RTVSPropertyOp22
 70
     1
102
RTVSPropertyOp23
 70
     1
102
RTVSPropertyOp24
 70
     1
102
RTVSPropertyOp25
 70
     1
102
RTVSPropertyOp26
 70
     1
102
RTVSPropertyOp27
 70
     1
102
RTVSPropertyOp28
 70
     1
102
RTVSPropertyOp29
 70
     1
102
RTVSPropertyOp30
 70
     1
102
RTVSPropertyOp31
 70
     1
102
RTVSPropertyOp32
 70
     1
102
RTVSPropertyOp33
 70
     1
102
RTVSPropertyOp34
 70
     1
102
RTVSPropertyOp35
 70
     1
102
RTVSPropertyOp36
 70
     1
102
RTVSPropertyOp37
 70
     1
102
RTVSPropertyOp38
 70
     1
102
RTVSPropertyOp39
 70
     1
102
RTVSPropertyOp40
 70
     1
102
RTVSPropertyOp41
 70
     1
102
RTVSPropertyOp42
 70
     1
102
RTVSPropertyOp43
 70
     1
102
RTVSPropertyOp44
 70
     1
102
RTVSPropertyOp45
 70
     1
102
RTVSPropertyOp46
 70
     1
102
RTVSPropertyOp47
 70
     1
102
RTVSPropertyOp48
 70
     1
102
RTVSPropertyOp49
 70
     1
102
RTVSPropertyOp50
 70
     1
102
RTVSPropertyOp51
 70
     0
102
RTVSPropertyOp52
 70
     0
102
RTVSPropertyOp53
 70
     1
102
RTVSPropertyOp54
 70
     1
102
RTVSPropertyOp55
 70
     1
102
RTVSPropertyOp56
 70
     1
102
RTVSPropertyOp57
 70
     1
102
RTVSPropertyOp58
 70
     1
102
RTVSPropertyOp59
 70
     1
102
RTVSPropertyOp60
 70
     1
102
RTVSPropertyOp61
 70
     1
102
RTVSPropertyOp62
 70
     1
  0
XRECORD
  5
2E5D8
102
{ACAD_REACTORS
330
2E5D7
102
}
330
2E5D7
100
AcDbXrecord
280
     1
102
RTVSPost2010Prop28
280
     0
102
RTVSPost2010PropOp28
 70
     1
102
RTVSPost2010Prop29
280
     1
102
RTVSPost2010PropOp29
 70
     1
102
RTVSPost2010Prop30
280
     1
102
RTVSPost2010PropOp30
 70
     1
102
RTVSPost2010Prop31
280
     0
102
RTVSPost2010PropOp31
 70
     1
102
RTVSPost2010Prop32
280
     0
102
RTVSPost2010PropOp32
 70
     1
102
RTVSPost2010Prop33
280
     0
102
RTVSPost2010PropOp33
 70
     1
102
RTVSPost2010Prop34
280
     0
102
RTVSPost2010PropOp34
 70
     1
102
RTVSPost2010Prop35
280
     0
102
RTVSPost2010PropOp35
 70
     1
102
RTVSPost2010Prop36
280
     0
102
RTVSPost2010PropOp36
 70
     1
102
RTVSPost2010Prop37
 90
       50
102
RTVSPost2010PropOp37
 70
     1
102
RTVSPost2010Prop38
140
0.0
102
RTVSPost2010PropOp38
 70
     1
102
RTVSPost2010Prop39
140
1.0
102
RTVSPost2010PropOp39
 70
     1
102
RTVSPost2010Prop40
 90
        0
102
RTVSPost2010PropOp40
 70
     1
102
RTVSPost2010Prop41ColorIndex
 90
       18
102
RTVSPost2010Prop41ColorRGB
 90
        0
102
RTVSPost2010PropOp41
 70
     1
102
RTVSPost2010Prop42
 90
       50
102
RTVSPost2010PropOp42
 70
     1
102
RTVSPost2010Prop43
 90
        3
102
RTVSPost2010PropOp43
 70
     1
102
RTVSPost2010Prop44ColorIndex
 90
        5
102
RTVSPost2010Prop44ColorRGB
 90
      255
102
RTVSPost2010PropOp44
 70
     1
102
RTVSPost2010Prop45
280
     0
102
RTVSPost2010PropOp45
 70
     1
102
RTVSPost2010Prop46
 90
       50
102
RTVSPost2010PropOp46
 70
     1
102
RTVSPost2010Prop47
 90
       50
102
RTVSPost2010PropOp47
 70
     1
102
RTVSPost2010Prop48
 90
       50
102
RTVSPost2010PropOp48
 70
     1
102
RTVSPost2010Prop49
280
     0
102
RTVSPost2010PropOp49
 70
     1
102
RTVSPost2010Prop50
 90
       50
102
RTVSPost2010PropOp50
 70
     1
102
RTVSPost2010Prop51ColorIndex
 90
      256
102
RTVSPost2010Prop51ColorRGB
 90
-16777216
102
RTVSPost2010PropOp51
 70
     0
102
RTVSPost2010Prop52
140
1.0
102
RTVSPost2010PropOp52
 70
     0
102
RTVSPost2010Prop53
 90
        2
102
RTVSPost2010PropOp53
 70
     1
102
RTVSPost2010Prop54
  1
strokes_ogs.tif
102
RTVSPost2010PropOp54
 70
     1
102
RTVSPost2010Prop55
280
     0
102
RTVSPost2010PropOp55
 70
     1
102
RTVSPost2010Prop56
140
1.0
102
RTVSPost2010PropOp56
 70
     1
102
RTVSPost2010Prop57
140
1.0
102
RTVSPost2010PropOp57
 70
     1
102
RTVSPropertyOp0
 70
     1
102
RTVSPropertyOp1
 70
     1
102
RTVSPropertyOp2
 70
     1
102
RTVSPropertyOp3
 70
     1
102
RTVSPropertyOp4
 70
     1
102
RTVSPropertyOp5
 70
     1
102
RTVSPropertyOp6
 70
     1
102
RTVSPropertyOp7
 70
     1
102
RTVSPropertyOp8
 70
     1
102
RTVSPropertyOp9
 70
     1
102
RTVSPropertyOp10
 70
     1
102
RTVSPropertyOp11
 70
     1
102
RTVSPropertyOp12
 70
     1
102
RTVSPropertyOp13
 70
     1
102
RTVSPropertyOp14
 70
     1
102
RTVSPropertyOp15
 70
     1
102
RTVSPropertyOp16
 70
     1
102
RTVSPropertyOp17
 70
     1
102
RTVSPropertyOp18
 70
     1
102
RTVSPropertyOp19
 70
     1
102
RTVSPropertyOp20
 70
     1
102
RTVSPropertyOp21
 70
     1
102
RTVSPropertyOp22
 70
     1
102
RTVSPropertyOp23
 70
     1
102
RTVSPropertyOp24
 70
     1
102
RTVSPropertyOp25
 70
     1
102
RTVSPropertyOp26
 70
     1
102
RTVSPropertyOp27
 70
     1
102
RTVSPropertyOp28
 70
     1
102
RTVSPropertyOp29
 70
     1
102
RTVSPropertyOp30
 70
     1
102
RTVSPropertyOp31
 70
     1
102
RTVSPropertyOp32
 70
     1
102
RTVSPropertyOp33
 70
     1
102
RTVSPropertyOp34
 70
     1
102
RTVSPropertyOp35
 70
     1
102
RTVSPropertyOp36
 70
     1
102
RTVSPropertyOp37
 70
     1
102
RTVSPropertyOp38
 70
     1
102
RTVSPropertyOp39
 70
     1
102
RTVSPropertyOp40
 70
     1
102
RTVSPropertyOp41
 70
     1
102
RTVSPropertyOp42
 70
     1
102
RTVSPropertyOp43
 70
     1
102
RTVSPropertyOp44
 70
     1
102
RTVSPropertyOp45
 70
     1
102
RTVSPropertyOp46
 70
     1
102
RTVSPropertyOp47
 70
     1
102
RTVSPropertyOp48
 70
     1
102
RTVSPropertyOp49
 70
     1
102
RTVSPropertyOp50
 70
     1
102
RTVSPropertyOp51
 70
     0
102
RTVSPropertyOp52
 70
     0
102
RTVSPropertyOp53
 70
     1
102
RTVSPropertyOp54
 70
     1
102
RTVSPropertyOp55
 70
     1
102
RTVSPropertyOp56
 70
     1
102
RTVSPropertyOp57
 70
     1
102
RTVSPropertyOp58
 70
     1
102
RTVSPropertyOp59
 70
     1
102
RTVSPropertyOp60
 70
     1
102
RTVSPropertyOp61
 70
     1
102
RTVSPropertyOp62
 70
     1
  0
XRECORD
  5
2E5D2
102
{ACAD_REACTORS
330
2E5D1
102
}
330
2E5D1
100
AcDbXrecord
280
     1
102
RTVSPost2010Prop28
280
     0
102
RTVSPost2010PropOp28
 70
     1
102
RTVSPost2010Prop29
280
     1
102
RTVSPost2010PropOp29
 70
     1
102
RTVSPost2010Prop30
280
     1
102
RTVSPost2010PropOp30
 70
     1
102
RTVSPost2010Prop31
280
     0
102
RTVSPost2010PropOp31
 70
     1
102
RTVSPost2010Prop32
280
     0
102
RTVSPost2010PropOp32
 70
     1
102
RTVSPost2010Prop33
280
     0
102
RTVSPost2010PropOp33
 70
     1
102
RTVSPost2010Prop34
280
     0
102
RTVSPost2010PropOp34
 70
     1
102
RTVSPost2010Prop35
280
     0
102
RTVSPost2010PropOp35
 70
     1
102
RTVSPost2010Prop36
280
     0
102
RTVSPost2010PropOp36
 70
     1
102
RTVSPost2010Prop37
 90
       50
102
RTVSPost2010PropOp37
 70
     1
102
RTVSPost2010Prop38
140
0.0
102
RTVSPost2010PropOp38
 70
     1
102
RTVSPost2010Prop39
140
1.0
102
RTVSPost2010PropOp39
 70
     1
102
RTVSPost2010Prop40
 90
        0
102
RTVSPost2010PropOp40
 70
     1
102
RTVSPost2010Prop41ColorIndex
 90
       18
102
RTVSPost2010Prop41ColorRGB
 90
        0
102
RTVSPost2010PropOp41
 70
     1
102
RTVSPost2010Prop42
 90
       50
102
RTVSPost2010PropOp42
 70
     1
102
RTVSPost2010Prop43
 90
        3
102
RTVSPost2010PropOp43
 70
     1
102
RTVSPost2010Prop44ColorIndex
 90
        5
102
RTVSPost2010Prop44ColorRGB
 90
      255
102
RTVSPost2010PropOp44
 70
     1
102
RTVSPost2010Prop45
280
     0
102
RTVSPost2010PropOp45
 70
     1
102
RTVSPost2010Prop46
 90
       50
102
RTVSPost2010PropOp46
 70
     1
102
RTVSPost2010Prop47
 90
       50
102
RTVSPost2010PropOp47
 70
     1
102
RTVSPost2010Prop48
 90
       50
102
RTVSPost2010PropOp48
 70
     1
102
RTVSPost2010Prop49
280
     0
102
RTVSPost2010PropOp49
 70
     1
102
RTVSPost2010Prop50
 90
       50
102
RTVSPost2010PropOp50
 70
     1
102
RTVSPost2010Prop51ColorIndex
 90
      256
102
RTVSPost2010Prop51ColorRGB
 90
-16777216
102
RTVSPost2010PropOp51
 70
     0
102
RTVSPost2010Prop52
140
1.0
102
RTVSPost2010PropOp52
 70
     0
102
RTVSPost2010Prop53
 90
        2
102
RTVSPost2010PropOp53
 70
     1
102
RTVSPost2010Prop54
  1
strokes_ogs.tif
102
RTVSPost2010PropOp54
 70
     1
102
RTVSPost2010Prop55
280
     0
102
RTVSPost2010PropOp55
 70
     1
102
RTVSPost2010Prop56
140
1.0
102
RTVSPost2010PropOp56
 70
     1
102
RTVSPost2010Prop57
140
1.0
102
RTVSPost2010PropOp57
 70
     1
102
RTVSPropertyOp0
 70
     1
102
RTVSPropertyOp1
 70
     1
102
RTVSPropertyOp2
 70
     1
102
RTVSPropertyOp3
 70
     1
102
RTVSPropertyOp4
 70
     1
102
RTVSPropertyOp5
 70
     1
102
RTVSPropertyOp6
 70
     1
102
RTVSPropertyOp7
 70
     1
102
RTVSPropertyOp8
 70
     1
102
RTVSPropertyOp9
 70
     1
102
RTVSPropertyOp10
 70
     1
102
RTVSPropertyOp11
 70
     1
102
RTVSPropertyOp12
 70
     1
102
RTVSPropertyOp13
 70
     1
102
RTVSPropertyOp14
 70
     1
102
RTVSPropertyOp15
 70
     1
102
RTVSPropertyOp16
 70
     1
102
RTVSPropertyOp17
 70
     1
102
RTVSPropertyOp18
 70
     1
102
RTVSPropertyOp19
 70
     1
102
RTVSPropertyOp20
 70
     1
102
RTVSPropertyOp21
 70
     1
102
RTVSPropertyOp22
 70
     1
102
RTVSPropertyOp23
 70
     1
102
RTVSPropertyOp24
 70
     1
102
RTVSPropertyOp25
 70
     1
102
RTVSPropertyOp26
 70
     1
102
RTVSPropertyOp27
 70
     1
102
RTVSPropertyOp28
 70
     1
102
RTVSPropertyOp29
 70
     1
102
RTVSPropertyOp30
 70
     1
102
RTVSPropertyOp31
 70
     1
102
RTVSPropertyOp32
 70
     1
102
RTVSPropertyOp33
 70
     1
102
RTVSPropertyOp34
 70
     1
102
RTVSPropertyOp35
 70
     1
102
RTVSPropertyOp36
 70
     1
102
RTVSPropertyOp37
 70
     1
102
RTVSPropertyOp38
 70
     1
102
RTVSPropertyOp39
 70
     1
102
RTVSPropertyOp40
 70
     1
102
RTVSPropertyOp41
 70
     1
102
RTVSPropertyOp42
 70
     1
102
RTVSPropertyOp43
 70
     1
102
RTVSPropertyOp44
 70
     1
102
RTVSPropertyOp45
 70
     1
102
RTVSPropertyOp46
 70
     1
102
RTVSPropertyOp47
 70
     1
102
RTVSPropertyOp48
 70
     1
102
RTVSPropertyOp49
 70
     1
102
RTVSPropertyOp50
 70
     1
102
RTVSPropertyOp51
 70
     0
102
RTVSPropertyOp52
 70
     0
102
RTVSPropertyOp53
 70
     1
102
RTVSPropertyOp54
 70
     1
102
RTVSPropertyOp55
 70
     1
102
RTVSPropertyOp56
 70
     1
102
RTVSPropertyOp57
 70
     1
102
RTVSPropertyOp58
 70
     1
102
RTVSPropertyOp59
 70
     1
102
RTVSPropertyOp60
 70
     1
102
RTVSPropertyOp61
 70
     1
102
RTVSPropertyOp62
 70
     1
  0
XRECORD
  5
2E5D4
102
{ACAD_REACTORS
330
2E5D3
102
}
330
2E5D3
100
AcDbXrecord
280
     1
102
RTVSPost2010Prop28
280
     0
102
RTVSPost2010PropOp28
 70
     1
102
RTVSPost2010Prop29
280
     1
102
RTVSPost2010PropOp29
 70
     1
102
RTVSPost2010Prop30
280
     1
102
RTVSPost2010PropOp30
 70
     1
102
RTVSPost2010Prop31
280
     0
102
RTVSPost2010PropOp31
 70
     1
102
RTVSPost2010Prop32
280
     0
102
RTVSPost2010PropOp32
 70
     1
102
RTVSPost2010Prop33
280
     0
102
RTVSPost2010PropOp33
 70
     1
102
RTVSPost2010Prop34
280
     0
102
RTVSPost2010PropOp34
 70
     1
102
RTVSPost2010Prop35
280
     0
102
RTVSPost2010PropOp35
 70
     1
102
RTVSPost2010Prop36
280
     0
102
RTVSPost2010PropOp36
 70
     1
102
RTVSPost2010Prop37
 90
       50
102
RTVSPost2010PropOp37
 70
     1
102
RTVSPost2010Prop38
140
0.0
102
RTVSPost2010PropOp38
 70
     1
102
RTVSPost2010Prop39
140
1.0
102
RTVSPost2010PropOp39
 70
     1
102
RTVSPost2010Prop40
 90
        0
102
RTVSPost2010PropOp40
 70
     1
102
RTVSPost2010Prop41ColorIndex
 90
       18
102
RTVSPost2010Prop41ColorRGB
 90
        0
102
RTVSPost2010PropOp41
 70
     1
102
RTVSPost2010Prop42
 90
       50
102
RTVSPost2010PropOp42
 70
     1
102
RTVSPost2010Prop43
 90
        3
102
RTVSPost2010PropOp43
 70
     1
102
RTVSPost2010Prop44ColorIndex
 90
        5
102
RTVSPost2010Prop44ColorRGB
 90
      255
102
RTVSPost2010PropOp44
 70
     1
102
RTVSPost2010Prop45
280
     0
102
RTVSPost2010PropOp45
 70
     1
102
RTVSPost2010Prop46
 90
       50
102
RTVSPost2010PropOp46
 70
     1
102
RTVSPost2010Prop47
 90
       50
102
RTVSPost2010PropOp47
 70
     1
102
RTVSPost2010Prop48
 90
       50
102
RTVSPost2010PropOp48
 70
     1
102
RTVSPost2010Prop49
280
     0
102
RTVSPost2010PropOp49
 70
     1
102
RTVSPost2010Prop50
 90
       50
102
RTVSPost2010PropOp50
 70
     1
102
RTVSPost2010Prop51ColorIndex
 90
      256
102
RTVSPost2010Prop51ColorRGB
 90
-16777216
102
RTVSPost2010PropOp51
 70
     0
102
RTVSPost2010Prop52
140
1.0
102
RTVSPost2010PropOp52
 70
     0
102
RTVSPost2010Prop53
 90
        2
102
RTVSPost2010PropOp53
 70
     1
102
RTVSPost2010Prop54
  1
strokes_ogs.tif
102
RTVSPost2010PropOp54
 70
     1
102
RTVSPost2010Prop55
280
     0
102
RTVSPost2010PropOp55
 70
     1
102
RTVSPost2010Prop56
140
1.0
102
RTVSPost2010PropOp56
 70
     1
102
RTVSPost2010Prop57
140
1.0
102
RTVSPost2010PropOp57
 70
     1
102
RTVSPropertyOp0
 70
     1
102
RTVSPropertyOp1
 70
     1
102
RTVSPropertyOp2
 70
     1
102
RTVSPropertyOp3
 70
     1
102
RTVSPropertyOp4
 70
     1
102
RTVSPropertyOp5
 70
     1
102
RTVSPropertyOp6
 70
     1
102
RTVSPropertyOp7
 70
     1
102
RTVSPropertyOp8
 70
     1
102
RTVSPropertyOp9
 70
     1
102
RTVSPropertyOp10
 70
     1
102
RTVSPropertyOp11
 70
     1
102
RTVSPropertyOp12
 70
     1
102
RTVSPropertyOp13
 70
     1
102
RTVSPropertyOp14
 70
     1
102
RTVSPropertyOp15
 70
     1
102
RTVSPropertyOp16
 70
     1
102
RTVSPropertyOp17
 70
     1
102
RTVSPropertyOp18
 70
     1
102
RTVSPropertyOp19
 70
     1
102
RTVSPropertyOp20
 70
     1
102
RTVSPropertyOp21
 70
     1
102
RTVSPropertyOp22
 70
     1
102
RTVSPropertyOp23
 70
     1
102
RTVSPropertyOp24
 70
     1
102
RTVSPropertyOp25
 70
     1
102
RTVSPropertyOp26
 70
     1
102
RTVSPropertyOp27
 70
     1
102
RTVSPropertyOp28
 70
     1
102
RTVSPropertyOp29
 70
     1
102
RTVSPropertyOp30
 70
     1
102
RTVSPropertyOp31
 70
     1
102
RTVSPropertyOp32
 70
     1
102
RTVSPropertyOp33
 70
     1
102
RTVSPropertyOp34
 70
     1
102
RTVSPropertyOp35
 70
     1
102
RTVSPropertyOp36
 70
     1
102
RTVSPropertyOp37
 70
     1
102
RTVSPropertyOp38
 70
     1
102
RTVSPropertyOp39
 70
     1
102
RTVSPropertyOp40
 70
     1
102
RTVSPropertyOp41
 70
     1
102
RTVSPropertyOp42
 70
     1
102
RTVSPropertyOp43
 70
     1
102
RTVSPropertyOp44
 70
     1
102
RTVSPropertyOp45
 70
     1
102
RTVSPropertyOp46
 70
     1
102
RTVSPropertyOp47
 70
     1
102
RTVSPropertyOp48
 70
     1
102
RTVSPropertyOp49
 70
     1
102
RTVSPropertyOp50
 70
     1
102
RTVSPropertyOp51
 70
     0
102
RTVSPropertyOp52
 70
     0
102
RTVSPropertyOp53
 70
     1
102
RTVSPropertyOp54
 70
     1
102
RTVSPropertyOp55
 70
     1
102
RTVSPropertyOp56
 70
     1
102
RTVSPropertyOp57
 70
     1
102
RTVSPropertyOp58
 70
     1
102
RTVSPropertyOp59
 70
     1
102
RTVSPropertyOp60
 70
     1
102
RTVSPropertyOp61
 70
     1
102
RTVSPropertyOp62
 70
     1
  0
XRECORD
  5
2E5CA
102
{ACAD_REACTORS
330
2E5C9
102
}
330
2E5C9
100
AcDbXrecord
280
     1
102
RTVSPost2010Prop28
280
     0
102
RTVSPost2010PropOp28
 70
     1
102
RTVSPost2010Prop29
280
     1
102
RTVSPost2010PropOp29
 70
     1
102
RTVSPost2010Prop30
280
     1
102
RTVSPost2010PropOp30
 70
     1
102
RTVSPost2010Prop31
280
     0
102
RTVSPost2010PropOp31
 70
     1
102
RTVSPost2010Prop32
280
     0
102
RTVSPost2010PropOp32
 70
     1
102
RTVSPost2010Prop33
280
     0
102
RTVSPost2010PropOp33
 70
     1
102
RTVSPost2010Prop34
280
     0
102
RTVSPost2010PropOp34
 70
     1
102
RTVSPost2010Prop35
280
     0
102
RTVSPost2010PropOp35
 70
     1
102
RTVSPost2010Prop36
280
     0
102
RTVSPost2010PropOp36
 70
     1
102
RTVSPost2010Prop37
 90
       50
102
RTVSPost2010PropOp37
 70
     1
102
RTVSPost2010Prop38
140
0.0
102
RTVSPost2010PropOp38
 70
     1
102
RTVSPost2010Prop39
140
1.0
102
RTVSPost2010PropOp39
 70
     1
102
RTVSPost2010Prop40
 90
        0
102
RTVSPost2010PropOp40
 70
     1
102
RTVSPost2010Prop41ColorIndex
 90
       18
102
RTVSPost2010Prop41ColorRGB
 90
        0
102
RTVSPost2010PropOp41
 70
     1
102
RTVSPost2010Prop42
 90
       50
102
RTVSPost2010PropOp42
 70
     1
102
RTVSPost2010Prop43
 90
        3
102
RTVSPost2010PropOp43
 70
     1
102
RTVSPost2010Prop44ColorIndex
 90
        5
102
RTVSPost2010Prop44ColorRGB
 90
      255
102
RTVSPost2010PropOp44
 70
     1
102
RTVSPost2010Prop45
280
     0
102
RTVSPost2010PropOp45
 70
     1
102
RTVSPost2010Prop46
 90
       50
102
RTVSPost2010PropOp46
 70
     1
102
RTVSPost2010Prop47
 90
       50
102
RTVSPost2010PropOp47
 70
     1
102
RTVSPost2010Prop48
 90
       50
102
RTVSPost2010PropOp48
 70
     1
102
RTVSPost2010Prop49
280
     0
102
RTVSPost2010PropOp49
 70
     1
102
RTVSPost2010Prop50
 90
       50
102
RTVSPost2010PropOp50
 70
     1
102
RTVSPost2010Prop51ColorIndex
 90
      256
102
RTVSPost2010Prop51ColorRGB
 90
-16777216
102
RTVSPost2010PropOp51
 70
     0
102
RTVSPost2010Prop52
140
1.0
102
RTVSPost2010PropOp52
 70
     0
102
RTVSPost2010Prop53
 90
        2
102
RTVSPost2010PropOp53
 70
     1
102
RTVSPost2010Prop54
  1
strokes_ogs.tif
102
RTVSPost2010PropOp54
 70
     1
102
RTVSPost2010Prop55
280
     0
102
RTVSPost2010PropOp55
 70
     1
102
RTVSPost2010Prop56
140
1.0
102
RTVSPost2010PropOp56
 70
     1
102
RTVSPost2010Prop57
140
1.0
102
RTVSPost2010PropOp57
 70
     1
102
RTVSPropertyOp0
 70
     1
102
RTVSPropertyOp1
 70
     1
102
RTVSPropertyOp2
 70
     1
102
RTVSPropertyOp3
 70
     1
102
RTVSPropertyOp4
 70
     1
102
RTVSPropertyOp5
 70
     1
102
RTVSPropertyOp6
 70
     1
102
RTVSPropertyOp7
 70
     1
102
RTVSPropertyOp8
 70
     1
102
RTVSPropertyOp9
 70
     1
102
RTVSPropertyOp10
 70
     1
102
RTVSPropertyOp11
 70
     1
102
RTVSPropertyOp12
 70
     1
102
RTVSPropertyOp13
 70
     1
102
RTVSPropertyOp14
 70
     1
102
RTVSPropertyOp15
 70
     1
102
RTVSPropertyOp16
 70
     1
102
RTVSPropertyOp17
 70
     1
102
RTVSPropertyOp18
 70
     1
102
RTVSPropertyOp19
 70
     1
102
RTVSPropertyOp20
 70
     1
102
RTVSPropertyOp21
 70
     1
102
RTVSPropertyOp22
 70
     1
102
RTVSPropertyOp23
 70
     1
102
RTVSPropertyOp24
 70
     1
102
RTVSPropertyOp25
 70
     1
102
RTVSPropertyOp26
 70
     1
102
RTVSPropertyOp27
 70
     1
102
RTVSPropertyOp28
 70
     1
102
RTVSPropertyOp29
 70
     1
102
RTVSPropertyOp30
 70
     1
102
RTVSPropertyOp31
 70
     1
102
RTVSPropertyOp32
 70
     1
102
RTVSPropertyOp33
 70
     1
102
RTVSPropertyOp34
 70
     1
102
RTVSPropertyOp35
 70
     1
102
RTVSPropertyOp36
 70
     1
102
RTVSPropertyOp37
 70
     1
102
RTVSPropertyOp38
 70
     1
102
RTVSPropertyOp39
 70
     1
102
RTVSPropertyOp40
 70
     1
102
RTVSPropertyOp41
 70
     1
102
RTVSPropertyOp42
 70
     1
102
RTVSPropertyOp43
 70
     1
102
RTVSPropertyOp44
 70
     1
102
RTVSPropertyOp45
 70
     1
102
RTVSPropertyOp46
 70
     1
102
RTVSPropertyOp47
 70
     1
102
RTVSPropertyOp48
 70
     1
102
RTVSPropertyOp49
 70
     1
102
RTVSPropertyOp50
 70
     1
102
RTVSPropertyOp51
 70
     0
102
RTVSPropertyOp52
 70
     0
102
RTVSPropertyOp53
 70
     1
102
RTVSPropertyOp54
 70
     1
102
RTVSPropertyOp55
 70
     1
102
RTVSPropertyOp56
 70
     1
102
RTVSPropertyOp57
 70
     1
102
RTVSPropertyOp58
 70
     1
102
RTVSPropertyOp59
 70
     1
102
RTVSPropertyOp60
 70
     1
102
RTVSPropertyOp61
 70
     1
102
RTVSPropertyOp62
 70
     1
  0
XRECORD
  5
2E5BE
102
{ACAD_REACTORS
330
2E5BD
102
}
330
2E5BD
100
AcDbXrecord
280
     1
102
RTVSPost2010Prop28
280
     0
102
RTVSPost2010PropOp28
 70
     1
102
RTVSPost2010Prop29
280
     1
102
RTVSPost2010PropOp29
 70
     1
102
RTVSPost2010Prop30
280
     1
102
RTVSPost2010PropOp30
 70
     1
102
RTVSPost2010Prop31
280
     0
102
RTVSPost2010PropOp31
 70
     1
102
RTVSPost2010Prop32
280
     0
102
RTVSPost2010PropOp32
 70
     1
102
RTVSPost2010Prop33
280
     0
102
RTVSPost2010PropOp33
 70
     1
102
RTVSPost2010Prop34
280
     0
102
RTVSPost2010PropOp34
 70
     1
102
RTVSPost2010Prop35
280
     0
102
RTVSPost2010PropOp35
 70
     1
102
RTVSPost2010Prop36
280
     0
102
RTVSPost2010PropOp36
 70
     1
102
RTVSPost2010Prop37
 90
       50
102
RTVSPost2010PropOp37
 70
     1
102
RTVSPost2010Prop38
140
0.0
102
RTVSPost2010PropOp38
 70
     1
102
RTVSPost2010Prop39
140
1.0
102
RTVSPost2010PropOp39
 70
     1
102
RTVSPost2010Prop40
 90
        0
102
RTVSPost2010PropOp40
 70
     1
102
RTVSPost2010Prop41ColorIndex
 90
       18
102
RTVSPost2010Prop41ColorRGB
 90
        0
102
RTVSPost2010PropOp41
 70
     1
102
RTVSPost2010Prop42
 90
       50
102
RTVSPost2010PropOp42
 70
     1
102
RTVSPost2010Prop43
 90
        3
102
RTVSPost2010PropOp43
 70
     1
102
RTVSPost2010Prop44ColorIndex
 90
        5
102
RTVSPost2010Prop44ColorRGB
 90
      255
102
RTVSPost2010PropOp44
 70
     1
102
RTVSPost2010Prop45
280
     0
102
RTVSPost2010PropOp45
 70
     1
102
RTVSPost2010Prop46
 90
       50
102
RTVSPost2010PropOp46
 70
     1
102
RTVSPost2010Prop47
 90
       50
102
RTVSPost2010PropOp47
 70
     1
102
RTVSPost2010Prop48
 90
       50
102
RTVSPost2010PropOp48
 70
     1
102
RTVSPost2010Prop49
280
     0
102
RTVSPost2010PropOp49
 70
     1
102
RTVSPost2010Prop50
 90
       50
102
RTVSPost2010PropOp50
 70
     1
102
RTVSPost2010Prop51ColorIndex
 90
      256
102
RTVSPost2010Prop51ColorRGB
 90
-16777216
102
RTVSPost2010PropOp51
 70
     0
102
RTVSPost2010Prop52
140
1.0
102
RTVSPost2010PropOp52
 70
     0
102
RTVSPost2010Prop53
 90
        2
102
RTVSPost2010PropOp53
 70
     1
102
RTVSPost2010Prop54
  1
strokes_ogs.tif
102
RTVSPost2010PropOp54
 70
     1
102
RTVSPost2010Prop55
280
     0
102
RTVSPost2010PropOp55
 70
     1
102
RTVSPost2010Prop56
140
1.0
102
RTVSPost2010PropOp56
 70
     1
102
RTVSPost2010Prop57
140
1.0
102
RTVSPost2010PropOp57
 70
     1
102
RTVSPropertyOp0
 70
     1
102
RTVSPropertyOp1
 70
     1
102
RTVSPropertyOp2
 70
     1
102
RTVSPropertyOp3
 70
     1
102
RTVSPropertyOp4
 70
     1
102
RTVSPropertyOp5
 70
     1
102
RTVSPropertyOp6
 70
     1
102
RTVSPropertyOp7
 70
     1
102
RTVSPropertyOp8
 70
     1
102
RTVSPropertyOp9
 70
     1
102
RTVSPropertyOp10
 70
     1
102
RTVSPropertyOp11
 70
     1
102
RTVSPropertyOp12
 70
     1
102
RTVSPropertyOp13
 70
     1
102
RTVSPropertyOp14
 70
     1
102
RTVSPropertyOp15
 70
     1
102
RTVSPropertyOp16
 70
     1
102
RTVSPropertyOp17
 70
     1
102
RTVSPropertyOp18
 70
     1
102
RTVSPropertyOp19
 70
     1
102
RTVSPropertyOp20
 70
     1
102
RTVSPropertyOp21
 70
     1
102
RTVSPropertyOp22
 70
     1
102
RTVSPropertyOp23
 70
     1
102
RTVSPropertyOp24
 70
     1
102
RTVSPropertyOp25
 70
     1
102
RTVSPropertyOp26
 70
     1
102
RTVSPropertyOp27
 70
     1
102
RTVSPropertyOp28
 70
     1
102
RTVSPropertyOp29
 70
     1
102
RTVSPropertyOp30
 70
     1
102
RTVSPropertyOp31
 70
     1
102
RTVSPropertyOp32
 70
     1
102
RTVSPropertyOp33
 70
     1
102
RTVSPropertyOp34
 70
     1
102
RTVSPropertyOp35
 70
     1
102
RTVSPropertyOp36
 70
     1
102
RTVSPropertyOp37
 70
     1
102
RTVSPropertyOp38
 70
     1
102
RTVSPropertyOp39
 70
     1
102
RTVSPropertyOp40
 70
     1
102
RTVSPropertyOp41
 70
     1
102
RTVSPropertyOp42
 70
     1
102
RTVSPropertyOp43
 70
     1
102
RTVSPropertyOp44
 70
     1
102
RTVSPropertyOp45
 70
     1
102
RTVSPropertyOp46
 70
     1
102
RTVSPropertyOp47
 70
     1
102
RTVSPropertyOp48
 70
     1
102
RTVSPropertyOp49
 70
     1
102
RTVSPropertyOp50
 70
     1
102
RTVSPropertyOp51
 70
     0
102
RTVSPropertyOp52
 70
     0
102
RTVSPropertyOp53
 70
     1
102
RTVSPropertyOp54
 70
     1
102
RTVSPropertyOp55
 70
     1
102
RTVSPropertyOp56
 70
     1
102
RTVSPropertyOp57
 70
     1
102
RTVSPropertyOp58
 70
     1
102
RTVSPropertyOp59
 70
     1
102
RTVSPropertyOp60
 70
     1
102
RTVSPropertyOp61
 70
     1
102
RTVSPropertyOp62
 70
     1
  0
XRECORD
  5
2E5D6
102
{ACAD_REACTORS
330
2E5D5
102
}
330
2E5D5
100
AcDbXrecord
280
     1
102
RTVSPost2010Prop28
280
     0
102
RTVSPost2010PropOp28
 70
     1
102
RTVSPost2010Prop29
280
     1
102
RTVSPost2010PropOp29
 70
     1
102
RTVSPost2010Prop30
280
     1
102
RTVSPost2010PropOp30
 70
     1
102
RTVSPost2010Prop31
280
     0
102
RTVSPost2010PropOp31
 70
     1
102
RTVSPost2010Prop32
280
     0
102
RTVSPost2010PropOp32
 70
     1
102
RTVSPost2010Prop33
280
     0
102
RTVSPost2010PropOp33
 70
     1
102
RTVSPost2010Prop34
280
     0
102
RTVSPost2010PropOp34
 70
     1
102
RTVSPost2010Prop35
280
     0
102
RTVSPost2010PropOp35
 70
     1
102
RTVSPost2010Prop36
280
     0
102
RTVSPost2010PropOp36
 70
     1
102
RTVSPost2010Prop37
 90
       50
102
RTVSPost2010PropOp37
 70
     1
102
RTVSPost2010Prop38
140
0.0
102
RTVSPost2010PropOp38
 70
     1
102
RTVSPost2010Prop39
140
1.0
102
RTVSPost2010PropOp39
 70
     1
102
RTVSPost2010Prop40
 90
        0
102
RTVSPost2010PropOp40
 70
     1
102
RTVSPost2010Prop41ColorIndex
 90
       18
102
RTVSPost2010Prop41ColorRGB
 90
        0
102
RTVSPost2010PropOp41
 70
     1
102
RTVSPost2010Prop42
 90
       50
102
RTVSPost2010PropOp42
 70
     1
102
RTVSPost2010Prop43
 90
        3
102
RTVSPost2010PropOp43
 70
     1
102
RTVSPost2010Prop44ColorIndex
 90
        5
102
RTVSPost2010Prop44ColorRGB
 90
      255
102
RTVSPost2010PropOp44
 70
     1
102
RTVSPost2010Prop45
280
     0
102
RTVSPost2010PropOp45
 70
     1
102
RTVSPost2010Prop46
 90
       50
102
RTVSPost2010PropOp46
 70
     1
102
RTVSPost2010Prop47
 90
       50
102
RTVSPost2010PropOp47
 70
     1
102
RTVSPost2010Prop48
 90
       50
102
RTVSPost2010PropOp48
 70
     1
102
RTVSPost2010Prop49
280
     0
102
RTVSPost2010PropOp49
 70
     1
102
RTVSPost2010Prop50
 90
       50
102
RTVSPost2010PropOp50
 70
     1
102
RTVSPost2010Prop51ColorIndex
 90
      256
102
RTVSPost2010Prop51ColorRGB
 90
-16777216
102
RTVSPost2010PropOp51
 70
     0
102
RTVSPost2010Prop52
140
1.0
102
RTVSPost2010PropOp52
 70
     0
102
RTVSPost2010Prop53
 90
        2
102
RTVSPost2010PropOp53
 70
     1
102
RTVSPost2010Prop54
  1
strokes_ogs.tif
102
RTVSPost2010PropOp54
 70
     1
102
RTVSPost2010Prop55
280
     0
102
RTVSPost2010PropOp55
 70
     1
102
RTVSPost2010Prop56
140
1.0
102
RTVSPost2010PropOp56
 70
     1
102
RTVSPost2010Prop57
140
1.0
102
RTVSPost2010PropOp57
 70
     1
102
RTVSPropertyOp0
 70
     1
102
RTVSPropertyOp1
 70
     1
102
RTVSPropertyOp2
 70
     1
102
RTVSPropertyOp3
 70
     1
102
RTVSPropertyOp4
 70
     1
102
RTVSPropertyOp5
 70
     1
102
RTVSPropertyOp6
 70
     1
102
RTVSPropertyOp7
 70
     1
102
RTVSPropertyOp8
 70
     1
102
RTVSPropertyOp9
 70
     1
102
RTVSPropertyOp10
 70
     1
102
RTVSPropertyOp11
 70
     1
102
RTVSPropertyOp12
 70
     1
102
RTVSPropertyOp13
 70
     1
102
RTVSPropertyOp14
 70
     1
102
RTVSPropertyOp15
 70
     1
102
RTVSPropertyOp16
 70
     1
102
RTVSPropertyOp17
 70
     1
102
RTVSPropertyOp18
 70
     1
102
RTVSPropertyOp19
 70
     1
102
RTVSPropertyOp20
 70
     1
102
RTVSPropertyOp21
 70
     1
102
RTVSPropertyOp22
 70
     1
102
RTVSPropertyOp23
 70
     1
102
RTVSPropertyOp24
 70
     1
102
RTVSPropertyOp25
 70
     1
102
RTVSPropertyOp26
 70
     1
102
RTVSPropertyOp27
 70
     1
102
RTVSPropertyOp28
 70
     1
102
RTVSPropertyOp29
 70
     1
102
RTVSPropertyOp30
 70
     1
102
RTVSPropertyOp31
 70
     1
102
RTVSPropertyOp32
 70
     1
102
RTVSPropertyOp33
 70
     1
102
RTVSPropertyOp34
 70
     1
102
RTVSPropertyOp35
 70
     1
102
RTVSPropertyOp36
 70
     1
102
RTVSPropertyOp37
 70
     1
102
RTVSPropertyOp38
 70
     1
102
RTVSPropertyOp39
 70
     1
102
RTVSPropertyOp40
 70
     1
102
RTVSPropertyOp41
 70
     1
102
RTVSPropertyOp42
 70
     1
102
RTVSPropertyOp43
 70
     1
102
RTVSPropertyOp44
 70
     1
102
RTVSPropertyOp45
 70
     1
102
RTVSPropertyOp46
 70
     1
102
RTVSPropertyOp47
 70
     1
102
RTVSPropertyOp48
 70
     1
102
RTVSPropertyOp49
 70
     1
102
RTVSPropertyOp50
 70
     1
102
RTVSPropertyOp51
 70
     0
102
RTVSPropertyOp52
 70
     0
102
RTVSPropertyOp53
 70
     1
102
RTVSPropertyOp54
 70
     1
102
RTVSPropertyOp55
 70
     1
102
RTVSPropertyOp56
 70
     1
102
RTVSPropertyOp57
 70
     1
102
RTVSPropertyOp58
 70
     1
102
RTVSPropertyOp59
 70
     1
102
RTVSPropertyOp60
 70
     1
102
RTVSPropertyOp61
 70
     1
102
RTVSPropertyOp62
 70
     1
  0
ENDSEC
  0
EOF
